  0
SECTION
  2
HEADER
  9
$ACADVER
  1
AC1021
  9
$ACADMAINTVER
 70
    50
  9
$DWGCODEPAGE
  3
ANSI_1252
  9
$AUTHOR
  1
lcooper
  9
$LASTSAVEDBY
  1
lcooper
  9
$INSBASE
 10
0.0
 20
0.0
 30
0.0
  9
$EXTMIN
 10
314739.255
 20
1990771.2882
 30
0.0
  9
$EXTMAX
 10
314929.7368
 20
1990917.9967
 30
0.0
  9
$LIMMIN
 10
314353.635421
 20
1990363.781971
  9
$LIMMAX
 10
315315.356379
 20
1991325.502929
  9
$ORTHOMODE
 70
     0
  9
$REGENMODE
 70
     1
  9
$FILLMODE
 70
     1
  9
$QTEXTMODE
 70
     0
  9
$MIRRTEXT
 70
     0
  9
$LTSCALE
 40
1.0
  9
$ATTMODE
 70
     1
  9
$TEXTSIZE
 40
1.227059
  9
$TRACEWID
 40
0.05
  9
$TEXTSTYLE
  7
Standard
  9
$CLAYER
  8
STP labels
  9
$CELTYPE
  6
ByLayer
  9
$CECOLOR
 62
   250
  9
$CELTSCALE
 40
1.0
  9
$DISPSILH
 70
     0
  9
$DIMSCALE
 40
1.0
  9
$DIMASZ
 40
1.227059
  9
$DIMEXO
 40
0.613529
  9
$DIMDLI
 40
0.0
  9
$DIMRND
 40
0.0
  9
$DIMDLE
 40
0.0
  9
$DIMEXE
 40
0.613529
  9
$DIMTP
 40
0.0
  9
$DIMTM
 40
0.0
  9
$DIMTXT
 40
1.227059
  9
$DIMCEN
 40
0.09
  9
$DIMTSZ
 40
0.0
  9
$DIMTOL
 70
     0
  9
$DIMLIM
 70
     0
  9
$DIMTIH
 70
     0
  9
$DIMTOH
 70
     0
  9
$DIMSE1
 70
     0
  9
$DIMSE2
 70
     0
  9
$DIMTAD
 70
     1
  9
$DIMZIN
 70
    11
  9
$DIMBLK
  1
TerminatorOpen_0.5
  9
$DIMASO
 70
     1
  9
$DIMSHO
 70
     1
  9
$DIMPOST
  1

  9
$DIMAPOST
  1

  9
$DIMALT
 70
     0
  9
$DIMALTD
 70
     4
  9
$DIMALTF
 40
1.0
  9
$DIMLFAC
 40
1.0
  9
$DIMTOFL
 70
     0
  9
$DIMTVP
 40
0.0
  9
$DIMTIX
 70
     0
  9
$DIMSOXD
 70
     0
  9
$DIMSAH
 70
     0
  9
$DIMBLK1
  1

  9
$DIMBLK2
  1

  9
$DIMSTYLE
  2
Standard
  9
$DIMCLRD
 70
     0
  9
$DIMCLRE
 70
     0
  9
$DIMCLRT
 70
     0
  9
$DIMTFAC
 40
1.0
  9
$DIMGAP
 40
0.613529
  9
$DIMJUST
 70
     0
  9
$DIMSD1
 70
     0
  9
$DIMSD2
 70
     0
  9
$DIMTOLJ
 70
     0
  9
$DIMTZIN
 70
    11
  9
$DIMALTZ
 70
    15
  9
$DIMALTTZ
 70
    15
  9
$DIMUPT
 70
     0
  9
$DIMDEC
 70
     4
  9
$DIMTDEC
 70
     4
  9
$DIMALTU
 70
     2
  9
$DIMALTTD
 70
     4
  9
$DIMTXSTY
  7
Style-Garamond
  9
$DIMAUNIT
 70
     0
  9
$DIMADEC
 70
     4
  9
$DIMALTRND
 40
0.0
  9
$DIMAZIN
 70
     3
  9
$DIMDSEP
 70
    46
  9
$DIMATFIT
 70
     1
  9
$DIMFRAC
 70
     2
  9
$DIMLDRBLK
  1
TerminatorOpen_0.5
  9
$DIMLUNIT
 70
     2
  9
$DIMLWD
 70
    -2
  9
$DIMLWE
 70
    -2
  9
$DIMTMOVE
 70
     0
  9
$DIMFXL
 40
1.0
  9
$DIMFXLON
 70
     0
  9
$DIMJOGANG
 40
0.785398
  9
$DIMTFILL
 70
     0
  9
$DIMTFILLCLR
 70
     0
  9
$DIMARCSYM
 70
     0
  9
$DIMLTYPE
  6

  9
$DIMLTEX1
  6

  9
$DIMLTEX2
  6

  9
$LUNITS
 70
     2
  9
$LUPREC
 70
     4
  9
$SKETCHINC
 40
0.1
  9
$FILLETRAD
 40
0.0
  9
$AUNITS
 70
     0
  9
$AUPREC
 70
     4
  9
$MENU
  1
.
  9
$ELEVATION
 40
0.0
  9
$PELEVATION
 40
0.0
  9
$THICKNESS
 40
0.0
  9
$LIMCHECK
 70
     0
  9
$CHAMFERA
 40
0.0
  9
$CHAMFERB
 40
0.0
  9
$CHAMFERC
 40
0.0
  9
$CHAMFERD
 40
0.0
  9
$SKPOLY
 70
     0
  9
$TDCREATE
 40
2454144.611357349
  9
$TDUCREATE
 40
2454144.778024017
  9
$TDUPDATE
 40
2454144.612020359
  9
$TDUUPDATE
 40
2454144.778687026
  9
$TDINDWG
 40
0.0007872338
  9
$TDUSRTIMER
 40
0.0007870486
  9
$USRTIMER
 70
     1
  9
$ANGBASE
 50
0.0
  9
$ANGDIR
 70
     0
  9
$PDMODE
 70
     0
  9
$PDSIZE
 40
0.0
  9
$PLINEWID
 40
0.0
  9
$SPLFRAME
 70
     0
  9
$SPLINETYPE
 70
     6
  9
$SPLINESEGS
 70
     8
  9
$HANDSEED
  5
98C
  9
$SURFTAB1
 70
     6
  9
$SURFTAB2
 70
     6
  9
$SURFTYPE
 70
     6
  9
$SURFU
 70
     6
  9
$SURFV
 70
     6
  9
$UCSBASE
  2

  9
$UCSNAME
  2

  9
$UCSORG
 10
0.0
 20
0.0
 30
0.0
  9
$UCSXDIR
 10
1.0
 20
0.0
 30
0.0
  9
$UCSYDIR
 10
0.0
 20
1.0
 30
0.0
  9
$UCSORTHOREF
  2

  9
$UCSORTHOVIEW
 70
     0
  9
$UCSORGTOP
 10
0.0
 20
0.0
 30
0.0
  9
$UCSORGBOTTOM
 10
0.0
 20
0.0
 30
0.0
  9
$UCSORGLEFT
 10
0.0
 20
0.0
 30
0.0
  9
$UCSORGRIGHT
 10
0.0
 20
0.0
 30
0.0
  9
$UCSORGFRONT
 10
0.0
 20
0.0
 30
0.0
  9
$UCSORGBACK
 10
0.0
 20
0.0
 30
0.0
  9
$PUCSBASE
  2

  9
$PUCSNAME
  2

  9
$PUCSORG
 10
0.0
 20
0.0
 30
0.0
  9
$PUCSXDIR
 10
1.0
 20
0.0
 30
0.0
  9
$PUCSYDIR
 10
0.0
 20
1.0
 30
0.0
  9
$PUCSORTHOREF
  2

  9
$PUCSORTHOVIEW
 70
     0
  9
$PUCSORGTOP
 10
0.0
 20
0.0
 30
0.0
  9
$PUCSORGBOTTOM
 10
0.0
 20
0.0
 30
0.0
  9
$PUCSORGLEFT
 10
0.0
 20
0.0
 30
0.0
  9
$PUCSORGRIGHT
 10
0.0
 20
0.0
 30
0.0
  9
$PUCSORGFRONT
 10
0.0
 20
0.0
 30
0.0
  9
$PUCSORGBACK
 10
0.0
 20
0.0
 30
0.0
  9
$USERI1
 70
     0
  9
$USERI2
 70
     0
  9
$USERI3
 70
     0
  9
$USERI4
 70
     0
  9
$USERI5
 70
     0
  9
$USERR1
 40
0.0
  9
$USERR2
 40
0.0
  9
$USERR3
 40
0.0
  9
$USERR4
 40
0.0
  9
$USERR5
 40
0.0
  9
$WORLDVIEW
 70
     1
  9
$SHADEDGE
 70
     3
  9
$SHADEDIF
 70
    70
  9
$TILEMODE
 70
     1
  9
$MAXACTVP
 70
    64
  9
$PINSBASE
 10
0.0
 20
0.0
 30
0.0
  9
$PLIMCHECK
 70
     0
  9
$PEXTMIN
 10
1.049744
 20
0.799667
 30
-0.001526
  9
$PEXTMAX
 10
9.450623
 20
7.200577
 30
0.0
  9
$PLIMMIN
 10
-0.25
 20
-0.25
  9
$PLIMMAX
 10
10.75
 20
8.25
  9
$UNITMODE
 70
     0
  9
$VISRETAIN
 70
     1
  9
$PLINEGEN
 70
     0
  9
$PSLTSCALE
 70
     0
  9
$TREEDEPTH
 70
  3020
  9
$CMLSTYLE
  2
Standard
  9
$CMLJUST
 70
     0
  9
$CMLSCALE
 40
1.0
  9
$PROXYGRAPHICS
 70
     1
  9
$MEASUREMENT
 70
     0
  9
$CELWEIGHT
370
    -1
  9
$ENDCAPS
280
     0
  9
$JOINSTYLE
280
     0
  9
$LWDISPLAY
290
     1
  9
$INSUNITS
 70
     6
  9
$HYPERLINKBASE
  1

  9
$STYLESHEET
  1

  9
$XEDIT
290
     1
  9
$CEPSNTYPE
380
     0
  9
$PSTYLEMODE
290
     1
  9
$FINGERPRINTGUID
  2
{F8380636-D5E5-4288-B742-0A5A30CD40D0}
  9
$VERSIONGUID
  2
{82C521FC-BF81-46B3-825E-420B6BD93A99}
  9
$EXTNAMES
290
     1
  9
$PSVPSCALE
 40
0.0
  9
$OLESTARTUP
290
     0
  9
$SORTENTS
280
   127
  9
$INDEXCTL
280
     0
  9
$HIDETEXT
280
     1
  9
$XCLIPFRAME
290
     0
  9
$HALOGAP
280
     0
  9
$OBSCOLOR
 70
   257
  9
$OBSLTYPE
280
     0
  9
$INTERSECTIONDISPLAY
280
     0
  9
$INTERSECTIONCOLOR
 70
   257
  9
$DIMASSOC
280
     2
  9
$PROJECTNAME
  1

  9
$CAMERADISPLAY
290
     0
  9
$LENSLENGTH
 40
50.0
  9
$CAMERAHEIGHT
 40
0.0
  9
$STEPSPERSEC
 40
2.0
  9
$STEPSIZE
 40
6.0
  9
$3DDWFPREC
 40
2.0
  9
$PSOLWIDTH
 40
0.25
  9
$PSOLHEIGHT
 40
4.0
  9
$LOFTANG1
 40
1.570796
  9
$LOFTANG2
 40
1.570796
  9
$LOFTMAG1
 40
0.0
  9
$LOFTMAG2
 40
0.0
  9
$LOFTPARAM
 70
     7
  9
$LOFTNORMALS
280
     1
  9
$LATITUDE
 40
37.795
  9
$LONGITUDE
 40
-122.394
  9
$NORTHDIRECTION
 40
0.0
  9
$TIMEZONE
 70
 -8000
  9
$LIGHTGLYPHDISPLAY
280
     1
  9
$TILEMODELIGHTSYNCH
280
     1
  9
$CMATERIAL
347
69B
  9
$SOLIDHIST
280
     1
  9
$SHOWHIST
280
     1
  9
$DWFFRAME
280
     2
  9
$DGNFRAME
280
     0
  9
$REALWORLDSCALE
290
     1
  9
$INTERFERECOLOR
 62
     1
  9
$INTERFEREOBJVS
345
6B0
  9
$INTERFEREVPVS
346
6B1
  9
$CSHADOW
280
     0
  9
$SHADOWPLANELOCATION
 40
0.0
  0
ENDSEC
  0
SECTION
  2
CLASSES
  0
CLASS
  1
ACDBDICTIONARYWDFLT
  2
AcDbDictionaryWithDefault
  3
ObjectDBX Classes
 90
        0
 91
        1
280
     0
281
     0
  0
CLASS
  1
DICTIONARYVAR
  2
AcDbDictionaryVar
  3
ObjectDBX Classes
 90
        0
 91
        7
280
     0
281
     0
  0
CLASS
  1
TABLESTYLE
  2
AcDbTableStyle
  3
ObjectDBX Classes
 90
     4095
 91
        1
280
     0
281
     0
  0
CLASS
  1
MATERIAL
  2
AcDbMaterial
  3
ObjectDBX Classes
 90
     1153
 91
        3
280
     0
281
     0
  0
CLASS
  1
VISUALSTYLE
  2
AcDbVisualStyle
  3
ObjectDBX Classes
 90
     4095
 91
       16
280
     0
281
     0
  0
CLASS
  1
SCALE
  2
AcDbScale
  3
ObjectDBX Classes
 90
     1153
 91
       33
280
     0
281
     0
  0
CLASS
  1
MLEADERSTYLE
  2
AcDbMLeaderStyle
  3
ACDB_MLEADERSTYLE_CLASS
 90
     4095
 91
        1
280
     0
281
     0
  0
CLASS
  1
SORTENTSTABLE
  2
AcDbSortentsTable
  3
ObjectDBX Classes
 90
        0
 91
        1
280
     0
281
     0
  0
CLASS
  1
CELLSTYLEMAP
  2
AcDbCellStyleMap
  3
ObjectDBX Classes
 90
     1152
 91
        2
280
     0
281
     0
  0
ENDSEC
  0
SECTION
  2
TABLES
  0
TABLE
  2
VPORT
  5
68F
330
0
100
AcDbSymbolTable
 70
     1
  0
VPORT
  5
4B
330
68F
100
AcDbSymbolTableRecord
100
AcDbViewportTableRecord
  2
*ACTIVE
 70
     0
 10
0.0
 20
0.0
 11
1.0
 21
1.0
 12
314819.905513
 22
1990819.609912
 13
0.0
 23
0.0
 14
0.1
 24
0.1
 15
0.1
 25
0.1
 16
0.0
 26
0.0
 36
1.0
 17
0.0
 27
0.0
 37
0.0
 40
84.927706
 41
1.475285
 42
50.0
 43
0.0
 44
0.0
 50
0.0
 51
0.0
 71
     0
 72
   100
 73
     1
 74
     0
 75
     0
 76
     0
 77
     0
 78
     1
281
     0
 65
     1
110
0.0
120
0.0
130
0.0
111
1.0
121
0.0
131
0.0
112
0.0
122
1.0
132
0.0
 79
     0
146
0.0
348
691
 60
     3
 61
     5
292
     1
282
     1
141
0.0
142
0.0
 63
   250
421
  3355443
  0
ENDTAB
  0
TABLE
  2
LTYPE
  5
68A
330
0
100
AcDbSymbolTable
 70
     4
  0
LTYPE
  5
68B
330
68A
100
AcDbSymbolTableRecord
100
AcDbLinetypeTableRecord
  2
ByBlock
 70
     0
  3

 72
    65
 73
     0
 40
0.0
  0
LTYPE
  5
68C
330
68A
100
AcDbSymbolTableRecord
100
AcDbLinetypeTableRecord
  2
ByLayer
 70
     0
  3

 72
    65
 73
     0
 40
0.0
  0
LTYPE
  5
679
330
68A
100
AcDbSymbolTableRecord
100
AcDbLinetypeTableRecord
  2
Continuous
 70
     0
  3
Solid line
 72
    65
 73
     0
 40
0.0
  0
LTYPE
  5
6D5
330
68A
100
AcDbSymbolTableRecord
100
AcDbLinetypeTableRecord
  2
DGN Style 4
 70
     0
  3
Dgn Style 4
 72
    65
 73
     4
 40
2.016156
 49
1.007448
 74
     0
 49
-0.503724
 74
     0
 49
0.001259
 74
     0
 49
-0.503724
 74
     0
  0
LTYPE
  5
6D6
330
68A
100
AcDbSymbolTableRecord
100
AcDbLinetypeTableRecord
  2
DGN Style 3
 70
     0
  3
Dgn Style 3
 72
    65
 73
     2
 40
1.763034
 49
1.25931
 74
     0
 49
-0.503724
 74
     0
  0
LTYPE
  5
6D7
330
68A
100
AcDbSymbolTableRecord
100
AcDbLinetypeTableRecord
  2
DGN Style 2
 70
     0
  3
Dgn Style 2
 72
    65
 73
     2
 40
1.25931
 49
0.755586
 74
     0
 49
-0.503724
 74
     0
  0
ENDTAB
  0
TABLE
  2
LAYER
  5
684
102
{ACAD_XDICTIONARY
360
685
102
}
330
0
100
AcDbSymbolTable
 70
    20
  0
LAYER
  5
66C
330
684
100
AcDbSymbolTableRecord
100
AcDbLayerTableRecord
  2
0
 70
     0
 62
     7
  6
Continuous
370
    -3
390
66D
347
670
  0
LAYER
  5
22A
330
684
100
AcDbSymbolTableRecord
100
AcDbLayerTableRecord
  2
Gully
 70
     0
 62
   172
  6
DGN Style 4
370
    13
390
66D
347
670
  0
LAYER
  5
232
330
684
100
AcDbSymbolTableRecord
100
AcDbLayerTableRecord
  2
Modern House
 70
     0
 62
   250
  6
Continuous
370
    30
390
66D
347
670
  0
LAYER
  5
23B
330
684
100
AcDbSymbolTableRecord
100
AcDbLayerTableRecord
  2
Fence
 70
     0
 62
    46
  6
DGN Style 3
370
    30
390
66D
347
670
  0
LAYER
  5
244
330
684
100
AcDbSymbolTableRecord
100
AcDbLayerTableRecord
  2
Historical Structure
 70
     0
 62
    96
  6
DGN Style 3
370
    30
390
66D
347
670
  0
LAYER
  5
278
330
684
100
AcDbSymbolTableRecord
100
AcDbLayerTableRecord
  2
Excavated STPs
 70
     0
 62
    92
  6
Continuous
370
    13
390
66D
347
670
  0
LAYER
  5
28B
330
684
100
AcDbSymbolTableRecord
100
AcDbLayerTableRecord
  2
CONNEX
 70
     0
 62
     5
  6
Continuous
370
     0
390
66D
347
670
  0
LAYER
  5
338
330
684
100
AcDbSymbolTableRecord
100
AcDbLayerTableRecord
  2
Driveway
 70
     0
 62
    52
  6
Continuous
370
    30
390
66D
347
670
  0
LAYER
  5
341
330
684
100
AcDbSymbolTableRecord
100
AcDbLayerTableRecord
  2
Units
 70
     0
 62
   178
  6
Continuous
370
     0
390
66D
347
670
  0
LAYER
  5
350
330
684
100
AcDbSymbolTableRecord
100
AcDbLayerTableRecord
  2
Areas
 70
     0
 62
   250
  6
Continuous
370
    13
390
66D
347
670
  0
LAYER
  5
394
330
684
100
AcDbSymbolTableRecord
100
AcDbLayerTableRecord
  2
Trees
 70
     0
 62
   250
  6
Continuous
370
     0
390
66D
347
670
  0
LAYER
  5
646
330
684
100
AcDbSymbolTableRecord
100
AcDbLayerTableRecord
  2
Transects
 70
     0
 62
   250
  6
Continuous
370
    13
390
66D
347
670
  0
LAYER
  5
397
330
684
100
AcDbSymbolTableRecord
100
AcDbLayerTableRecord
  2
Scale and North Arrow
 70
     0
 62
   250
  6
Continuous
370
    13
390
66D
347
670
  0
LAYER
  5
398
330
684
100
AcDbSymbolTableRecord
100
AcDbLayerTableRecord
  2
STPs
 70
     0
 62
    92
  6
Continuous
370
    13
390
66D
347
670
  0
LAYER
  5
399
330
684
100
AcDbSymbolTableRecord
100
AcDbLayerTableRecord
  2
Aqueduct
 70
     0
 62
    48
  6
Continuous
370
    13
390
66D
347
670
  0
LAYER
  5
39A
330
684
100
AcDbSymbolTableRecord
100
AcDbLayerTableRecord
  2
Road
 70
     0
 62
    52
  6
DGN Style 2
370
    30
390
66D
347
670
  0
LAYER
  5
39C
330
684
100
AcDbSymbolTableRecord
100
AcDbLayerTableRecord
  2
STP labels
 70
     0
 62
   250
  6
Continuous
370
     0
390
66D
347
670
  0
LAYER
  5
39D
330
684
100
AcDbSymbolTableRecord
100
AcDbLayerTableRecord
  2
Quadrats
 70
     0
 62
   178
  6
DGN Style 4
370
    13
390
66D
347
670
  0
LAYER
  5
4D0
330
684
100
AcDbSymbolTableRecord
100
AcDbLayerTableRecord
  2
Well
 70
     0
 62
    14
  6
Continuous
370
    13
390
66D
347
670
  0
LAYER
  5
545
330
684
100
AcDbSymbolTableRecord
100
AcDbLayerTableRecord
  2
Outbuildings
 70
     0
 62
    92
  6
DGN Style 2
370
    53
390
66D
347
670
  0
ENDTAB
  0
TABLE
  2
STYLE
  5
687
330
0
100
AcDbSymbolTable
 70
     3
  0
STYLE
  5
688
330
687
100
AcDbSymbolTableRecord
100
AcDbTextStyleTableRecord
  2
Standard
 70
     0
 40
0.0
 41
1.0
 50
0.0
 71
     0
 42
1.227059
  3
txt.shx
  4

  0
STYLE
  5
6DB
330
687
100
AcDbSymbolTableRecord
100
AcDbTextStyleTableRecord
  2
Style-Garamond
 70
     0
 40
0.0
 41
1.0
 50
0.0
 71
     0
 42
1.227059
  3
GARA.TTF
  4

1001
ACAD
1000
Garamond
1071
       23
  0
STYLE
  5
6E5
330
687
100
AcDbSymbolTableRecord
100
AcDbTextStyleTableRecord
  2
Style-Garamond IF
 70
     0
 40
0.0
 41
1.0
 50
0.0
 71
     0
 42
1.227059
  3
GARAIT.TTF
  4

1001
ACAD
1000
Garamond
1071
 16777239
  0
ENDTAB
  0
TABLE
  2
VIEW
  5
68D
330
0
100
AcDbSymbolTable
 70
     0
  0
ENDTAB
  0
TABLE
  2
UCS
  5
68E
330
0
100
AcDbSymbolTable
 70
     0
  0
ENDTAB
  0
TABLE
  2
APPID
  5
693
330
0
100
AcDbSymbolTable
 70
     3
  0
APPID
  5
694
330
693
100
AcDbSymbolTableRecord
100
AcDbRegAppTableRecord
  2
ACAD
 70
     0
  0
APPID
  5
683
330
693
100
AcDbSymbolTableRecord
100
AcDbRegAppTableRecord
  2
ACAD_PSEXT
 70
     0
  0
APPID
  5
709
330
693
100
AcDbSymbolTableRecord
100
AcDbRegAppTableRecord
  2
ACAD_MLEADERVER
 70
     0
  0
ENDTAB
  0
TABLE
  2
DIMSTYLE
  5
695
330
0
100
AcDbSymbolTable
 70
     1
100
AcDbDimStyleTable
 71
     1
340
696
  0
DIMSTYLE
105
696
330
695
100
AcDbSymbolTableRecord
100
AcDbDimStyleTableRecord
  2
Standard
 70
     0
 41
0.18
 44
0.18
140
0.18
141
0.09
340
688
  0
ENDTAB
  0
TABLE
  2
BLOCK_RECORD
  5
669
330
0
100
AcDbSymbolTable
 70
     2
  0
BLOCK_RECORD
  5
66A
102
{ACAD_XDICTIONARY
360
6E7
102
}
330
669
100
AcDbSymbolTableRecord
100
AcDbBlockTableRecord
  2
*Model_Space
340
67B
 70
     0
280
     1
281
     0
  0
BLOCK_RECORD
  5
67D
330
669
100
AcDbSymbolTableRecord
100
AcDbBlockTableRecord
  2
*Paper_Space
340
680
 70
     0
280
     1
281
     0
  0
BLOCK_RECORD
  5
27F
330
669
100
AcDbSymbolTableRecord
100
AcDbBlockTableRecord
  2
POINT
340
0
102
{BLKREFS
331
284
331
530
331
531
102
}
 70
     0
280
     1
281
     0
  0
BLOCK_RECORD
  5
6DC
330
669
100
AcDbSymbolTableRecord
100
AcDbBlockTableRecord
  2
TerminatorOpen_0.5
340
0
 70
     0
280
     1
281
     0
  0
ENDTAB
  0
ENDSEC
  0
SECTION
  2
BLOCKS
  0
BLOCK
  5
66B
330
66A
100
AcDbEntity
  8
0
100
AcDbBlockBegin
  2
*Model_Space
 70
     0
 10
0.0
 20
0.0
 30
0.0
  3
*Model_Space
  1

  0
ENDBLK
  5
67A
330
66A
100
AcDbEntity
  8
0
100
AcDbBlockEnd
  0
BLOCK
  5
67E
330
67D
100
AcDbEntity
 67
     1
  8
0
100
AcDbBlockBegin
  2
*Paper_Space
 70
     0
 10
0.0
 20
0.0
 30
0.0
  3
*Paper_Space
  1

  0
ENDBLK
  5
67F
330
67D
100
AcDbEntity
 67
     1
  8
0
100
AcDbBlockEnd
  0
BLOCK
  5
6D9
330
27F
100
AcDbEntity
  8
0
100
AcDbBlockBegin
  2
POINT
 70
     0
 10
0.0
 20
0.0
 30
0.0
  3
POINT
  1

  0
POINT
  5
280
330
27F
100
AcDbEntity
  8
0
100
AcDbPoint
 10
0.0
 20
0.0
 30
0.0
  0
ENDBLK
  5
6DA
330
27F
100
AcDbEntity
  8
0
100
AcDbBlockEnd
  0
BLOCK
  5
6E0
330
6DC
100
AcDbEntity
  8
0
 62
   250
100
AcDbBlockBegin
  2
TerminatorOpen_0.5
 70
     0
 10
0.0
 20
0.0
 30
0.0
  3
TerminatorOpen_0.5
  1

  0
LINE
  5
6DD
330
6DC
100
AcDbEntity
  8
0
  6
ByBlock
 62
     0
370
    -2
100
AcDbLine
 10
0.0
 20
0.0
 30
0.0
 11
-1.0
 21
0.0
 31
0.0
  0
LINE
  5
6DE
330
6DC
100
AcDbEntity
  8
0
  6
ByBlock
 62
     0
370
    -2
100
AcDbLine
 10
0.0
 20
0.0
 30
0.0
 11
-1.0
 21
0.25
 31
0.0
  0
LINE
  5
6DF
330
6DC
100
AcDbEntity
  8
0
  6
ByBlock
 62
     0
370
    -2
100
AcDbLine
 10
0.0
 20
0.0
 30
0.0
 11
-1.0
 21
-0.25
 31
0.0
  0
ENDBLK
  5
6E1
330
6DC
100
AcDbEntity
  8
0
 62
   250
100
AcDbBlockEnd
  0
ENDSEC
  0
SECTION
  2
ENTITIES
  0
HATCH
  5
27C
330
66A
100
AcDbEntity
  8
Excavated STPs
100
AcDbHatch
 10
0.0
 20
0.0
 30
0.0
210
0.0
220
0.0
230
1.0
  2
SOLID
 70
     1
 71
     0
 91
        1
 92
        1
 93
        1
 72
     2
 10
314866.060497292
 20
1990852.07235624
 40
0.25
 50
0.0
 51
360.0
 73
     1
 97
        0
 75
     0
 76
     1
 98
        1
 10
0.0
 20
0.0
450
        0
451
        0
460
0.0
461
0.0
452
        0
462
0.0
453
        0
470

  0
INSERT
  5
284
330
66A
100
AcDbEntity
  8
CONNEX
100
AcDbBlockReference
  2
POINT
 10
314860.028684
 20
1990851.897017
 30
-166.355179
  0
HATCH
  5
28C
330
66A
100
AcDbEntity
  8
Excavated STPs
100
AcDbHatch
 10
0.0
 20
0.0
 30
0.0
210
0.0
220
0.0
230
1.0
  2
SOLID
 70
     1
 71
     0
 91
        1
 92
        1
 93
        1
 72
     2
 10
314860.028684356
 20
1990851.89701737
 40
0.25
 50
0.0
 51
360.0
 73
     1
 97
        0
 75
     0
 76
     1
 98
        1
 10
0.0
 20
0.0
450
        0
451
        0
460
0.0
461
0.0
452
        0
462
0.0
453
        0
470

  0
HATCH
  5
28D
330
66A
100
AcDbEntity
  8
Excavated STPs
100
AcDbHatch
 10
0.0
 20
0.0
 30
0.0
210
0.0
220
0.0
230
1.0
  2
SOLID
 70
     1
 71
     0
 91
        1
 92
        1
 93
        1
 72
     2
 10
314859.9431261961
 20
1990855.64297664
 40
0.25
 50
0.0
 51
360.0
 73
     1
 97
        0
 75
     0
 76
     1
 98
        1
 10
0.0
 20
0.0
450
        0
451
        0
460
0.0
461
0.0
452
        0
462
0.0
453
        0
470

  0
HATCH
  5
28E
330
66A
100
AcDbEntity
  8
Excavated STPs
100
AcDbHatch
 10
0.0
 20
0.0
 30
0.0
210
0.0
220
0.0
230
1.0
  2
SOLID
 70
     1
 71
     0
 91
        1
 92
        1
 93
        1
 72
     2
 10
314859.954424424
 20
1990864.02262415
 40
0.25
 50
0.0
 51
360.0
 73
     1
 97
        0
 75
     0
 76
     1
 98
        1
 10
0.0
 20
0.0
450
        0
451
        0
460
0.0
461
0.0
452
        0
462
0.0
453
        0
470

  0
HATCH
  5
28F
330
66A
100
AcDbEntity
  8
Excavated STPs
100
AcDbHatch
 10
0.0
 20
0.0
 30
0.0
210
0.0
220
0.0
230
1.0
  2
SOLID
 70
     1
 71
     0
 91
        1
 92
        1
 93
        1
 72
     2
 10
314866.027046664
 20
1990863.99353447
 40
0.25
 50
0.0
 51
360.0
 73
     1
 97
        0
 75
     0
 76
     1
 98
        1
 10
0.0
 20
0.0
450
        0
451
        0
460
0.0
461
0.0
452
        0
462
0.0
453
        0
470

  0
HATCH
  5
290
330
66A
100
AcDbEntity
  8
Excavated STPs
100
AcDbHatch
 10
0.0
 20
0.0
 30
0.0
210
0.0
220
0.0
230
1.0
  2
SOLID
 70
     1
 71
     0
 91
        1
 92
        1
 93
        1
 72
     2
 10
314865.95472083
 20
1990870.00165765
 40
0.25
 50
0.0
 51
360.0
 73
     1
 97
        0
 75
     0
 76
     1
 98
        1
 10
0.0
 20
0.0
450
        0
451
        0
460
0.0
461
0.0
452
        0
462
0.0
453
        0
470

  0
HATCH
  5
291
330
66A
100
AcDbEntity
  8
Excavated STPs
100
AcDbHatch
 10
0.0
 20
0.0
 30
0.0
210
0.0
220
0.0
230
1.0
  2
SOLID
 70
     1
 71
     0
 91
        1
 92
        1
 93
        1
 72
     2
 10
314859.919694973
 20
1990870.017536311
 40
0.25
 50
0.0
 51
360.0
 73
     1
 97
        0
 75
     0
 76
     1
 98
        1
 10
0.0
 20
0.0
450
        0
451
        0
460
0.0
461
0.0
452
        0
462
0.0
453
        0
470

  0
HATCH
  5
292
330
66A
100
AcDbEntity
  8
Excavated STPs
100
AcDbHatch
 10
0.0
 20
0.0
 30
0.0
210
0.0
220
0.0
230
1.0
  2
SOLID
 70
     1
 71
     0
 91
        1
 92
        1
 93
        1
 72
     2
 10
314866.044963344
 20
1990875.987283151
 40
0.25
 50
0.0
 51
360.0
 73
     1
 97
        0
 75
     0
 76
     1
 98
        1
 10
0.0
 20
0.0
450
        0
451
        0
460
0.0
461
0.0
452
        0
462
0.0
453
        0
470

  0
HATCH
  5
293
330
66A
100
AcDbEntity
  8
Excavated STPs
100
AcDbHatch
 10
0.0
 20
0.0
 30
0.0
210
0.0
220
0.0
230
1.0
  2
SOLID
 70
     1
 71
     0
 91
        1
 92
        1
 93
        1
 72
     2
 10
314859.934549579
 20
1990875.959887721
 40
0.25
 50
0.0
 51
360.0
 73
     1
 97
        0
 75
     0
 76
     1
 98
        1
 10
0.0
 20
0.0
450
        0
451
        0
460
0.0
461
0.0
452
        0
462
0.0
453
        0
470

  0
HATCH
  5
294
330
66A
100
AcDbEntity
  8
Excavated STPs
100
AcDbHatch
 10
0.0
 20
0.0
 30
0.0
210
0.0
220
0.0
230
1.0
  2
SOLID
 70
     1
 71
     0
 91
        1
 92
        1
 93
        1
 72
     2
 10
314871.991083621
 20
1990870.0178152
 40
0.25
 50
0.0
 51
360.0
 73
     1
 97
        0
 75
     0
 76
     1
 98
        1
 10
0.0
 20
0.0
450
        0
451
        0
460
0.0
461
0.0
452
        0
462
0.0
453
        0
470

  0
HATCH
  5
295
330
66A
100
AcDbEntity
  8
Excavated STPs
100
AcDbHatch
 10
0.0
 20
0.0
 30
0.0
210
0.0
220
0.0
230
1.0
  2
SOLID
 70
     1
 71
     0
 91
        1
 92
        1
 93
        1
 72
     2
 10
314853.966438879
 20
1990876.68853609
 40
0.25
 50
0.0
 51
360.0
 73
     1
 97
        0
 75
     0
 76
     1
 98
        1
 10
0.0
 20
0.0
450
        0
451
        0
460
0.0
461
0.0
452
        0
462
0.0
453
        0
470

  0
HATCH
  5
296
330
66A
100
AcDbEntity
  8
Excavated STPs
100
AcDbHatch
 10
0.0
 20
0.0
 30
0.0
210
0.0
220
0.0
230
1.0
  2
SOLID
 70
     1
 71
     0
 91
        1
 92
        1
 93
        1
 72
     2
 10
314854.044109901
 20
1990869.944163631
 40
0.25
 50
0.0
 51
360.0
 73
     1
 97
        0
 75
     0
 76
     1
 98
        1
 10
0.0
 20
0.0
450
        0
451
        0
460
0.0
461
0.0
452
        0
462
0.0
453
        0
470

  0
HATCH
  5
297
330
66A
100
AcDbEntity
  8
Excavated STPs
100
AcDbHatch
 10
0.0
 20
0.0
 30
0.0
210
0.0
220
0.0
230
1.0
  2
SOLID
 70
     1
 71
     0
 91
        1
 92
        1
 93
        1
 72
     2
 10
314854.5220183331
 20
1990863.955096841
 40
0.25
 50
0.0
 51
360.0
 73
     1
 97
        0
 75
     0
 76
     1
 98
        1
 10
0.0
 20
0.0
450
        0
451
        0
460
0.0
461
0.0
452
        0
462
0.0
453
        0
470

  0
HATCH
  5
298
330
66A
100
AcDbEntity
  8
Excavated STPs
100
AcDbHatch
 10
0.0
 20
0.0
 30
0.0
210
0.0
220
0.0
230
1.0
  2
SOLID
 70
     1
 71
     0
 91
        1
 92
        1
 93
        1
 72
     2
 10
314848.031945523
 20
1990863.983754251
 40
0.25
 50
0.0
 51
360.0
 73
     1
 97
        0
 75
     0
 76
     1
 98
        1
 10
0.0
 20
0.0
450
        0
451
        0
460
0.0
461
0.0
452
        0
462
0.0
453
        0
470

  0
HATCH
  5
299
330
66A
100
AcDbEntity
  8
Excavated STPs
100
AcDbHatch
 10
0.0
 20
0.0
 30
0.0
210
0.0
220
0.0
230
1.0
  2
SOLID
 70
     1
 71
     0
 91
        1
 92
        1
 93
        1
 72
     2
 10
314848.003088775
 20
1990858.07473402
 40
0.25
 50
0.0
 51
360.0
 73
     1
 97
        0
 75
     0
 76
     1
 98
        1
 10
0.0
 20
0.0
450
        0
451
        0
460
0.0
461
0.0
452
        0
462
0.0
453
        0
470

  0
HATCH
  5
29A
330
66A
100
AcDbEntity
  8
Excavated STPs
100
AcDbHatch
 10
0.0
 20
0.0
 30
0.0
210
0.0
220
0.0
230
1.0
  2
SOLID
 70
     1
 71
     0
 91
        1
 92
        1
 93
        1
 72
     2
 10
314854.055990047
 20
1990857.96921737
 40
0.25
 50
0.0
 51
360.0
 73
     1
 97
        0
 75
     0
 76
     1
 98
        1
 10
0.0
 20
0.0
450
        0
451
        0
460
0.0
461
0.0
452
        0
462
0.0
453
        0
470

  0
HATCH
  5
29B
330
66A
100
AcDbEntity
  8
Excavated STPs
100
AcDbHatch
 10
0.0
 20
0.0
 30
0.0
210
0.0
220
0.0
230
1.0
  2
SOLID
 70
     1
 71
     0
 91
        1
 92
        1
 93
        1
 72
     2
 10
314853.950759532
 20
1990851.88204501
 40
0.25
 50
0.0
 51
360.0
 73
     1
 97
        0
 75
     0
 76
     1
 98
        1
 10
0.0
 20
0.0
450
        0
451
        0
460
0.0
461
0.0
452
        0
462
0.0
453
        0
470

  0
HATCH
  5
29C
330
66A
100
AcDbEntity
  8
Excavated STPs
100
AcDbHatch
 10
0.0
 20
0.0
 30
0.0
210
0.0
220
0.0
230
1.0
  2
SOLID
 70
     1
 71
     0
 91
        1
 92
        1
 93
        1
 72
     2
 10
314847.9679339581
 20
1990851.53754711
 40
0.25
 50
0.0
 51
360.0
 73
     1
 97
        0
 75
     0
 76
     1
 98
        1
 10
0.0
 20
0.0
450
        0
451
        0
460
0.0
461
0.0
452
        0
462
0.0
453
        0
470

  0
HATCH
  5
29D
330
66A
100
AcDbEntity
  8
Excavated STPs
100
AcDbHatch
 10
0.0
 20
0.0
 30
0.0
210
0.0
220
0.0
230
1.0
  2
SOLID
 70
     1
 71
     0
 91
        1
 92
        1
 93
        1
 72
     2
 10
314859.971637767
 20
1990845.94212625
 40
0.25
 50
0.0
 51
360.0
 73
     1
 97
        0
 75
     0
 76
     1
 98
        1
 10
0.0
 20
0.0
450
        0
451
        0
460
0.0
461
0.0
452
        0
462
0.0
453
        0
470

  0
HATCH
  5
29E
330
66A
100
AcDbEntity
  8
Excavated STPs
100
AcDbHatch
 10
0.0
 20
0.0
 30
0.0
210
0.0
220
0.0
230
1.0
  2
SOLID
 70
     1
 71
     0
 91
        1
 92
        1
 93
        1
 72
     2
 10
314853.803560721
 20
1990845.93557567
 40
0.25
 50
0.0
 51
360.0
 73
     1
 97
        0
 75
     0
 76
     1
 98
        1
 10
0.0
 20
0.0
450
        0
451
        0
460
0.0
461
0.0
452
        0
462
0.0
453
        0
470

  0
HATCH
  5
29F
330
66A
100
AcDbEntity
  8
Excavated STPs
100
AcDbHatch
 10
0.0
 20
0.0
 30
0.0
210
0.0
220
0.0
230
1.0
  2
SOLID
 70
     1
 71
     0
 91
        1
 92
        1
 93
        1
 72
     2
 10
314854.060503554
 20
1990840.02800568
 40
0.25
 50
0.0
 51
360.0
 73
     1
 97
        0
 75
     0
 76
     1
 98
        1
 10
0.0
 20
0.0
450
        0
451
        0
460
0.0
461
0.0
452
        0
462
0.0
453
        0
470

  0
HATCH
  5
2A0
330
66A
100
AcDbEntity
  8
Excavated STPs
100
AcDbHatch
 10
0.0
 20
0.0
 30
0.0
210
0.0
220
0.0
230
1.0
  2
SOLID
 70
     1
 71
     0
 91
        1
 92
        1
 93
        1
 72
     2
 10
314860.041753274
 20
1990839.96994937
 40
0.25
 50
0.0
 51
360.0
 73
     1
 97
        0
 75
     0
 76
     1
 98
        1
 10
0.0
 20
0.0
450
        0
451
        0
460
0.0
461
0.0
452
        0
462
0.0
453
        0
470

  0
HATCH
  5
2A1
330
66A
100
AcDbEntity
  8
Excavated STPs
100
AcDbHatch
 10
0.0
 20
0.0
 30
0.0
210
0.0
220
0.0
230
1.0
  2
SOLID
 70
     1
 71
     0
 91
        1
 92
        1
 93
        1
 72
     2
 10
314848.0325884011
 20
1990840.10688739
 40
0.25
 50
0.0
 51
360.0
 73
     1
 97
        0
 75
     0
 76
     1
 98
        1
 10
0.0
 20
0.0
450
        0
451
        0
460
0.0
461
0.0
452
        0
462
0.0
453
        0
470

  0
HATCH
  5
2A2
330
66A
100
AcDbEntity
  8
Excavated STPs
100
AcDbHatch
 10
0.0
 20
0.0
 30
0.0
210
0.0
220
0.0
230
1.0
  2
SOLID
 70
     1
 71
     0
 91
        1
 92
        1
 93
        1
 72
     2
 10
314847.975728069
 20
1990847.32243279
 40
0.25
 50
0.0
 51
360.0
 73
     1
 97
        0
 75
     0
 76
     1
 98
        1
 10
0.0
 20
0.0
450
        0
451
        0
460
0.0
461
0.0
452
        0
462
0.0
453
        0
470

  0
HATCH
  5
2A3
330
66A
100
AcDbEntity
  8
Excavated STPs
100
AcDbHatch
 10
0.0
 20
0.0
 30
0.0
210
0.0
220
0.0
230
1.0
  2
SOLID
 70
     1
 71
     0
 91
        1
 92
        1
 93
        1
 72
     2
 10
314842.049110858
 20
1990845.9738729
 40
0.25
 50
0.0
 51
360.0
 73
     1
 97
        0
 75
     0
 76
     1
 98
        1
 10
0.0
 20
0.0
450
        0
451
        0
460
0.0
461
0.0
452
        0
462
0.0
453
        0
470

  0
HATCH
  5
2A4
330
66A
100
AcDbEntity
  8
Excavated STPs
100
AcDbHatch
 10
0.0
 20
0.0
 30
0.0
210
0.0
220
0.0
230
1.0
  2
SOLID
 70
     1
 71
     0
 91
        1
 92
        1
 93
        1
 72
     2
 10
314835.3067634119
 20
1990846.00800988
 40
0.25
 50
0.0
 51
360.0
 73
     1
 97
        0
 75
     0
 76
     1
 98
        1
 10
0.0
 20
0.0
450
        0
451
        0
460
0.0
461
0.0
452
        0
462
0.0
453
        0
470

  0
HATCH
  5
2A5
330
66A
100
AcDbEntity
  8
Excavated STPs
100
AcDbHatch
 10
0.0
 20
0.0
 30
0.0
210
0.0
220
0.0
230
1.0
  2
SOLID
 70
     1
 71
     0
 91
        1
 92
        1
 93
        1
 72
     2
 10
314835.94200444
 20
1990840.01116901
 40
0.25
 50
0.0
 51
360.0
 73
     1
 97
        0
 75
     0
 76
     1
 98
        1
 10
0.0
 20
0.0
450
        0
451
        0
460
0.0
461
0.0
452
        0
462
0.0
453
        0
470

  0
HATCH
  5
2A6
330
66A
100
AcDbEntity
  8
Excavated STPs
100
AcDbHatch
 10
0.0
 20
0.0
 30
0.0
210
0.0
220
0.0
230
1.0
  2
SOLID
 70
     1
 71
     0
 91
        1
 92
        1
 93
        1
 72
     2
 10
314829.893344719
 20
1990840.06715331
 40
0.25
 50
0.0
 51
360.0
 73
     1
 97
        0
 75
     0
 76
     1
 98
        1
 10
0.0
 20
0.0
450
        0
451
        0
460
0.0
461
0.0
452
        0
462
0.0
453
        0
470

  0
HATCH
  5
2A7
330
66A
100
AcDbEntity
  8
Excavated STPs
100
AcDbHatch
 10
0.0
 20
0.0
 30
0.0
210
0.0
220
0.0
230
1.0
  2
SOLID
 70
     1
 71
     0
 91
        1
 92
        1
 93
        1
 72
     2
 10
314829.9853549501
 20
1990846.00744427
 40
0.25
 50
0.0
 51
360.0
 73
     1
 97
        0
 75
     0
 76
     1
 98
        1
 10
0.0
 20
0.0
450
        0
451
        0
460
0.0
461
0.0
452
        0
462
0.0
453
        0
470

  0
HATCH
  5
2A8
330
66A
100
AcDbEntity
  8
Excavated STPs
100
AcDbHatch
 10
0.0
 20
0.0
 30
0.0
210
0.0
220
0.0
230
1.0
  2
SOLID
 70
     1
 71
     0
 91
        1
 92
        1
 93
        1
 72
     2
 10
314824.064180744
 20
1990845.97579662
 40
0.25
 50
0.0
 51
360.0
 73
     1
 97
        0
 75
     0
 76
     1
 98
        1
 10
0.0
 20
0.0
450
        0
451
        0
460
0.0
461
0.0
452
        0
462
0.0
453
        0
470

  0
HATCH
  5
2A9
330
66A
100
AcDbEntity
  8
Excavated STPs
100
AcDbHatch
 10
0.0
 20
0.0
 30
0.0
210
0.0
220
0.0
230
1.0
  2
SOLID
 70
     1
 71
     0
 91
        1
 92
        1
 93
        1
 72
     2
 10
314829.965101971
 20
1990852.06952166
 40
0.25
 50
0.0
 51
360.0
 73
     1
 97
        0
 75
     0
 76
     1
 98
        1
 10
0.0
 20
0.0
450
        0
451
        0
460
0.0
461
0.0
452
        0
462
0.0
453
        0
470

  0
HATCH
  5
2AB
330
66A
100
AcDbEntity
  8
Excavated STPs
100
AcDbHatch
 10
0.0
 20
0.0
 30
0.0
210
0.0
220
0.0
230
1.0
  2
SOLID
 70
     1
 71
     0
 91
        1
 92
        1
 93
        1
 72
     2
 10
314823.98144803
 20
1990852.056408711
 40
0.25
 50
0.0
 51
360.0
 73
     1
 97
        0
 75
     0
 76
     1
 98
        1
 10
0.0
 20
0.0
450
        0
451
        0
460
0.0
461
0.0
452
        0
462
0.0
453
        0
470

  0
HATCH
  5
2AC
330
66A
100
AcDbEntity
  8
Excavated STPs
100
AcDbHatch
 10
0.0
 20
0.0
 30
0.0
210
0.0
220
0.0
230
1.0
  2
SOLID
 70
     1
 71
     0
 91
        1
 92
        1
 93
        1
 72
     2
 10
314830.00084125
 20
1990858.084699981
 40
0.25
 50
0.0
 51
360.0
 73
     1
 97
        0
 75
     0
 76
     1
 98
        1
 10
0.0
 20
0.0
450
        0
451
        0
460
0.0
461
0.0
452
        0
462
0.0
453
        0
470

  0
HATCH
  5
2AD
330
66A
100
AcDbEntity
  8
Excavated STPs
100
AcDbHatch
 10
0.0
 20
0.0
 30
0.0
210
0.0
220
0.0
230
1.0
  2
SOLID
 70
     1
 71
     0
 91
        1
 92
        1
 93
        1
 72
     2
 10
314824.032681544
 20
1990858.02670669
 40
0.25
 50
0.0
 51
360.0
 73
     1
 97
        0
 75
     0
 76
     1
 98
        1
 10
0.0
 20
0.0
450
        0
451
        0
460
0.0
461
0.0
452
        0
462
0.0
453
        0
470

  0
HATCH
  5
2AE
330
66A
100
AcDbEntity
  8
Excavated STPs
100
AcDbHatch
 10
0.0
 20
0.0
 30
0.0
210
0.0
220
0.0
230
1.0
  2
SOLID
 70
     1
 71
     0
 91
        1
 92
        1
 93
        1
 72
     2
 10
314836.058364369
 20
1990851.97187565
 40
0.25
 50
0.0
 51
360.0
 73
     1
 97
        0
 75
     0
 76
     1
 98
        1
 10
0.0
 20
0.0
450
        0
451
        0
460
0.0
461
0.0
452
        0
462
0.0
453
        0
470

  0
HATCH
  5
2AF
330
66A
100
AcDbEntity
  8
Excavated STPs
100
AcDbHatch
 10
0.0
 20
0.0
 30
0.0
210
0.0
220
0.0
230
1.0
  2
SOLID
 70
     1
 71
     0
 91
        1
 92
        1
 93
        1
 72
     2
 10
314842.005367889
 20
1990852.013682351
 40
0.25
 50
0.0
 51
360.0
 73
     1
 97
        0
 75
     0
 76
     1
 98
        1
 10
0.0
 20
0.0
450
        0
451
        0
460
0.0
461
0.0
452
        0
462
0.0
453
        0
470

  0
HATCH
  5
2B0
330
66A
100
AcDbEntity
  8
Excavated STPs
100
AcDbHatch
 10
0.0
 20
0.0
 30
0.0
210
0.0
220
0.0
230
1.0
  2
SOLID
 70
     1
 71
     0
 91
        1
 92
        1
 93
        1
 72
     2
 10
314835.930838088
 20
1990857.99862535
 40
0.25
 50
0.0
 51
360.0
 73
     1
 97
        0
 75
     0
 76
     1
 98
        1
 10
0.0
 20
0.0
450
        0
451
        0
460
0.0
461
0.0
452
        0
462
0.0
453
        0
470

  0
HATCH
  5
2B1
330
66A
100
AcDbEntity
  8
Excavated STPs
100
AcDbHatch
 10
0.0
 20
0.0
 30
0.0
210
0.0
220
0.0
230
1.0
  2
SOLID
 70
     1
 71
     0
 91
        1
 92
        1
 93
        1
 72
     2
 10
314830.0984112004
 20
1990864.078155592
 40
0.25
 50
0.0
 51
360.0
 73
     1
 97
        0
 75
     0
 76
     1
 98
        1
 10
0.0
 20
0.0
450
        0
451
        0
460
0.0
461
0.0
452
        0
462
0.0
453
        0
470

  0
HATCH
  5
2B2
330
66A
100
AcDbEntity
  8
Excavated STPs
100
AcDbHatch
 10
0.0
 20
0.0
 30
0.0
210
0.0
220
0.0
230
1.0
  2
SOLID
 70
     1
 71
     0
 91
        1
 92
        1
 93
        1
 72
     2
 10
314841.9682276681
 20
1990863.99777992
 40
0.25
 50
0.0
 51
360.0
 73
     1
 97
        0
 75
     0
 76
     1
 98
        1
 10
0.0
 20
0.0
450
        0
451
        0
460
0.0
461
0.0
452
        0
462
0.0
453
        0
470

  0
HATCH
  5
2B3
330
66A
100
AcDbEntity
  8
Excavated STPs
100
AcDbHatch
 10
0.0
 20
0.0
 30
0.0
210
0.0
220
0.0
230
1.0
  2
SOLID
 70
     1
 71
     0
 91
        1
 92
        1
 93
        1
 72
     2
 10
314842.0399844892
 20
1990858.027285532
 40
0.25
 50
0.0
 51
360.0
 73
     1
 97
        0
 75
     0
 76
     1
 98
        1
 10
0.0
 20
0.0
450
        0
451
        0
460
0.0
461
0.0
452
        0
462
0.0
453
        0
470

  0
HATCH
  5
2B4
330
66A
100
AcDbEntity
  8
Excavated STPs
100
AcDbHatch
 10
0.0
 20
0.0
 30
0.0
210
0.0
220
0.0
230
1.0
  2
SOLID
 70
     1
 71
     0
 91
        1
 92
        1
 93
        1
 72
     2
 10
314854.06186157
 20
1990881.91496357
 40
0.25
 50
0.0
 51
360.0
 73
     1
 97
        0
 75
     0
 76
     1
 98
        1
 10
0.0
 20
0.0
450
        0
451
        0
460
0.0
461
0.0
452
        0
462
0.0
453
        0
470

  0
HATCH
  5
2B5
330
66A
100
AcDbEntity
  8
Excavated STPs
100
AcDbHatch
 10
0.0
 20
0.0
 30
0.0
210
0.0
220
0.0
230
1.0
  2
SOLID
 70
     1
 71
     0
 91
        1
 92
        1
 93
        1
 72
     2
 10
314848.043114721
 20
1990887.981008029
 40
0.25
 50
0.0
 51
360.0
 73
     1
 97
        0
 75
     0
 76
     1
 98
        1
 10
0.0
 20
0.0
450
        0
451
        0
460
0.0
461
0.0
452
        0
462
0.0
453
        0
470

  0
HATCH
  5
2B6
330
66A
100
AcDbEntity
  8
Excavated STPs
100
AcDbHatch
 10
0.0
 20
0.0
 30
0.0
210
0.0
220
0.0
230
1.0
  2
SOLID
 70
     1
 71
     0
 91
        1
 92
        1
 93
        1
 72
     2
 10
314841.895333552
 20
1990888.167508219
 40
0.25
 50
0.0
 51
360.0
 73
     1
 97
        0
 75
     0
 76
     1
 98
        1
 10
0.0
 20
0.0
450
        0
451
        0
460
0.0
461
0.0
452
        0
462
0.0
453
        0
470

  0
HATCH
  5
2B7
330
66A
100
AcDbEntity
  8
Excavated STPs
100
AcDbHatch
 10
0.0
 20
0.0
 30
0.0
210
0.0
220
0.0
230
1.0
  2
SOLID
 70
     1
 71
     0
 91
        1
 92
        1
 93
        1
 72
     2
 10
314842.000998836
 20
1990894.06401253
 40
0.25
 50
0.0
 51
360.0
 73
     1
 97
        0
 75
     0
 76
     1
 98
        1
 10
0.0
 20
0.0
450
        0
451
        0
460
0.0
461
0.0
452
        0
462
0.0
453
        0
470

  0
HATCH
  5
2B8
330
66A
100
AcDbEntity
  8
Excavated STPs
100
AcDbHatch
 10
0.0
 20
0.0
 30
0.0
210
0.0
220
0.0
230
1.0
  2
SOLID
 70
     1
 71
     0
 91
        1
 92
        1
 93
        1
 72
     2
 10
314847.986431141
 20
1990894.04222527
 40
0.25
 50
0.0
 51
360.0
 73
     1
 97
        0
 75
     0
 76
     1
 98
        1
 10
0.0
 20
0.0
450
        0
451
        0
460
0.0
461
0.0
452
        0
462
0.0
453
        0
470

  0
HATCH
  5
2B9
330
66A
100
AcDbEntity
  8
Excavated STPs
100
AcDbHatch
 10
0.0
 20
0.0
 30
0.0
210
0.0
220
0.0
230
1.0
  2
SOLID
 70
     1
 71
     0
 91
        1
 92
        1
 93
        1
 72
     2
 10
314854.0384366671
 20
1990894.04867146
 40
0.25
 50
0.0
 51
360.0
 73
     1
 97
        0
 75
     0
 76
     1
 98
        1
 10
0.0
 20
0.0
450
        0
451
        0
460
0.0
461
0.0
452
        0
462
0.0
453
        0
470

  0
HATCH
  5
2BA
330
66A
100
AcDbEntity
  8
Excavated STPs
100
AcDbHatch
 10
0.0
 20
0.0
 30
0.0
210
0.0
220
0.0
230
1.0
  2
SOLID
 70
     1
 71
     0
 91
        1
 92
        1
 93
        1
 72
     2
 10
314854.0804611231
 20
1990900.005244069
 40
0.25
 50
0.0
 51
360.0
 73
     1
 97
        0
 75
     0
 76
     1
 98
        1
 10
0.0
 20
0.0
450
        0
451
        0
460
0.0
461
0.0
452
        0
462
0.0
453
        0
470

  0
HATCH
  5
2BB
330
66A
100
AcDbEntity
  8
Excavated STPs
100
AcDbHatch
 10
0.0
 20
0.0
 30
0.0
210
0.0
220
0.0
230
1.0
  2
SOLID
 70
     1
 71
     0
 91
        1
 92
        1
 93
        1
 72
     2
 10
314848.048647297
 20
1990900.03125612
 40
0.25
 50
0.0
 51
360.0
 73
     1
 97
        0
 75
     0
 76
     1
 98
        1
 10
0.0
 20
0.0
450
        0
451
        0
460
0.0
461
0.0
452
        0
462
0.0
453
        0
470

  0
HATCH
  5
2BC
330
66A
100
AcDbEntity
  8
Excavated STPs
100
AcDbHatch
 10
0.0
 20
0.0
 30
0.0
210
0.0
220
0.0
230
1.0
  2
SOLID
 70
     1
 71
     0
 91
        1
 92
        1
 93
        1
 72
     2
 10
314854.0230340161
 20
1990906.01498657
 40
0.25
 50
0.0
 51
360.0
 73
     1
 97
        0
 75
     0
 76
     1
 98
        1
 10
0.0
 20
0.0
450
        0
451
        0
460
0.0
461
0.0
452
        0
462
0.0
453
        0
470

  0
HATCH
  5
2BD
330
66A
100
AcDbEntity
  8
Excavated STPs
100
AcDbHatch
 10
0.0
 20
0.0
 30
0.0
210
0.0
220
0.0
230
1.0
  2
SOLID
 70
     1
 71
     0
 91
        1
 92
        1
 93
        1
 72
     2
 10
314860.037829879
 20
1990906.09540386
 40
0.25
 50
0.0
 51
360.0
 73
     1
 97
        0
 75
     0
 76
     1
 98
        1
 10
0.0
 20
0.0
450
        0
451
        0
460
0.0
461
0.0
452
        0
462
0.0
453
        0
470

  0
HATCH
  5
2BE
330
66A
100
AcDbEntity
  8
Excavated STPs
100
AcDbHatch
 10
0.0
 20
0.0
 30
0.0
210
0.0
220
0.0
230
1.0
  2
SOLID
 70
     1
 71
     0
 91
        1
 92
        1
 93
        1
 72
     2
 10
314860.114750801
 20
1990912.02244981
 40
0.25
 50
0.0
 51
360.0
 73
     1
 97
        0
 75
     0
 76
     1
 98
        1
 10
0.0
 20
0.0
450
        0
451
        0
460
0.0
461
0.0
452
        0
462
0.0
453
        0
470

  0
HATCH
  5
2BF
330
66A
100
AcDbEntity
  8
Excavated STPs
100
AcDbHatch
 10
0.0
 20
0.0
 30
0.0
210
0.0
220
0.0
230
1.0
  2
SOLID
 70
     1
 71
     0
 91
        1
 92
        1
 93
        1
 72
     2
 10
314859.9627299711
 20
1990899.98447109
 40
0.25
 50
0.0
 51
360.0
 73
     1
 97
        0
 75
     0
 76
     1
 98
        1
 10
0.0
 20
0.0
450
        0
451
        0
460
0.0
461
0.0
452
        0
462
0.0
453
        0
470

  0
HATCH
  5
2C0
330
66A
100
AcDbEntity
  8
Excavated STPs
100
AcDbHatch
 10
0.0
 20
0.0
 30
0.0
210
0.0
220
0.0
230
1.0
  2
SOLID
 70
     1
 71
     0
 91
        1
 92
        1
 93
        1
 72
     2
 10
314859.954409312
 20
1990893.90990035
 40
0.25
 50
0.0
 51
360.0
 73
     1
 97
        0
 75
     0
 76
     1
 98
        1
 10
0.0
 20
0.0
450
        0
451
        0
460
0.0
461
0.0
452
        0
462
0.0
453
        0
470

  0
HATCH
  5
2C1
330
66A
100
AcDbEntity
  8
Excavated STPs
100
AcDbHatch
 10
0.0
 20
0.0
 30
0.0
210
0.0
220
0.0
230
1.0
  2
SOLID
 70
     1
 71
     0
 91
        1
 92
        1
 93
        1
 72
     2
 10
314860.679289438
 20
1990887.44674966
 40
0.25
 50
0.0
 51
360.0
 73
     1
 97
        0
 75
     0
 76
     1
 98
        1
 10
0.0
 20
0.0
450
        0
451
        0
460
0.0
461
0.0
452
        0
462
0.0
453
        0
470

  0
HATCH
  5
2C2
330
66A
100
AcDbEntity
  8
Excavated STPs
100
AcDbHatch
 10
0.0
 20
0.0
 30
0.0
210
0.0
220
0.0
230
1.0
  2
SOLID
 70
     1
 71
     0
 91
        1
 92
        1
 93
        1
 72
     2
 10
314866.063271882
 20
1990887.96305875
 40
0.25
 50
0.0
 51
360.0
 73
     1
 97
        0
 75
     0
 76
     1
 98
        1
 10
0.0
 20
0.0
450
        0
451
        0
460
0.0
461
0.0
452
        0
462
0.0
453
        0
470

  0
HATCH
  5
2C3
330
66A
100
AcDbEntity
  8
Excavated STPs
100
AcDbHatch
 10
0.0
 20
0.0
 30
0.0
210
0.0
220
0.0
230
1.0
  2
SOLID
 70
     1
 71
     0
 91
        1
 92
        1
 93
        1
 72
     2
 10
314866.000819622
 20
1990882.01792883
 40
0.25
 50
0.0
 51
360.0
 73
     1
 97
        0
 75
     0
 76
     1
 98
        1
 10
0.0
 20
0.0
450
        0
451
        0
460
0.0
461
0.0
452
        0
462
0.0
453
        0
470

  0
HATCH
  5
2C4
330
66A
100
AcDbEntity
  8
Excavated STPs
100
AcDbHatch
 10
0.0
 20
0.0
 30
0.0
210
0.0
220
0.0
230
1.0
  2
SOLID
 70
     1
 71
     0
 91
        1
 92
        1
 93
        1
 72
     2
 10
314859.9822459769
 20
1990882.088664
 40
0.25
 50
0.0
 51
360.0
 73
     1
 97
        0
 75
     0
 76
     1
 98
        1
 10
0.0
 20
0.0
450
        0
451
        0
460
0.0
461
0.0
452
        0
462
0.0
453
        0
470

  0
HATCH
  5
2C5
330
66A
100
AcDbEntity
  8
Excavated STPs
100
AcDbHatch
 10
0.0
 20
0.0
 30
0.0
210
0.0
220
0.0
230
1.0
  2
SOLID
 70
     1
 71
     0
 91
        1
 92
        1
 93
        1
 72
     2
 10
314859.972388044
 20
1990834.01645879
 40
0.25
 50
0.0
 51
360.0
 73
     1
 97
        0
 75
     0
 76
     1
 98
        1
 10
0.0
 20
0.0
450
        0
451
        0
460
0.0
461
0.0
452
        0
462
0.0
453
        0
470

  0
HATCH
  5
2C6
330
66A
100
AcDbEntity
  8
Excavated STPs
100
AcDbHatch
 10
0.0
 20
0.0
 30
0.0
210
0.0
220
0.0
230
1.0
  2
SOLID
 70
     1
 71
     0
 91
        1
 92
        1
 93
        1
 72
     2
 10
314854.0057610001
 20
1990833.97424707
 40
0.25
 50
0.0
 51
360.0
 73
     1
 97
        0
 75
     0
 76
     1
 98
        1
 10
0.0
 20
0.0
450
        0
451
        0
460
0.0
461
0.0
452
        0
462
0.0
453
        0
470

  0
HATCH
  5
2C7
330
66A
100
AcDbEntity
  8
Excavated STPs
100
AcDbHatch
 10
0.0
 20
0.0
 30
0.0
210
0.0
220
0.0
230
1.0
  2
SOLID
 70
     1
 71
     0
 91
        1
 92
        1
 93
        1
 72
     2
 10
314848.0758525901
 20
1990833.96003291
 40
0.25
 50
0.0
 51
360.0
 73
     1
 97
        0
 75
     0
 76
     1
 98
        1
 10
0.0
 20
0.0
450
        0
451
        0
460
0.0
461
0.0
452
        0
462
0.0
453
        0
470

  0
HATCH
  5
2C8
330
66A
100
AcDbEntity
  8
Excavated STPs
100
AcDbHatch
 10
0.0
 20
0.0
 30
0.0
210
0.0
220
0.0
230
1.0
  2
SOLID
 70
     1
 71
     0
 91
        1
 92
        1
 93
        1
 72
     2
 10
314847.9818395031
 20
1990828.04213243
 40
0.25
 50
0.0
 51
360.0
 73
     1
 97
        0
 75
     0
 76
     1
 98
        1
 10
0.0
 20
0.0
450
        0
451
        0
460
0.0
461
0.0
452
        0
462
0.0
453
        0
470

  0
HATCH
  5
2C9
330
66A
100
AcDbEntity
  8
Excavated STPs
100
AcDbHatch
 10
0.0
 20
0.0
 30
0.0
210
0.0
220
0.0
230
1.0
  2
SOLID
 70
     1
 71
     0
 91
        1
 92
        1
 93
        1
 72
     2
 10
314854.001902609
 20
1990827.94760254
 40
0.25
 50
0.0
 51
360.0
 73
     1
 97
        0
 75
     0
 76
     1
 98
        1
 10
0.0
 20
0.0
450
        0
451
        0
460
0.0
461
0.0
452
        0
462
0.0
453
        0
470

  0
HATCH
  5
2CA
330
66A
100
AcDbEntity
  8
Excavated STPs
100
AcDbHatch
 10
0.0
 20
0.0
 30
0.0
210
0.0
220
0.0
230
1.0
  2
SOLID
 70
     1
 71
     0
 91
        1
 92
        1
 93
        1
 72
     2
 10
314860.067366624
 20
1990828.09532409
 40
0.25
 50
0.0
 51
360.0
 73
     1
 97
        0
 75
     0
 76
     1
 98
        1
 10
0.0
 20
0.0
450
        0
451
        0
460
0.0
461
0.0
452
        0
462
0.0
453
        0
470

  0
HATCH
  5
2CB
330
66A
100
AcDbEntity
  8
Excavated STPs
100
AcDbHatch
 10
0.0
 20
0.0
 30
0.0
210
0.0
220
0.0
230
1.0
  2
SOLID
 70
     1
 71
     0
 91
        1
 92
        1
 93
        1
 72
     2
 10
314854.018722646
 20
1990822.01032904
 40
0.25
 50
0.0
 51
360.0
 73
     1
 97
        0
 75
     0
 76
     1
 98
        1
 10
0.0
 20
0.0
450
        0
451
        0
460
0.0
461
0.0
452
        0
462
0.0
453
        0
470

  0
HATCH
  5
2CC
330
66A
100
AcDbEntity
  8
Excavated STPs
100
AcDbHatch
 10
0.0
 20
0.0
 30
0.0
210
0.0
220
0.0
230
1.0
  2
SOLID
 70
     1
 71
     0
 91
        1
 92
        1
 93
        1
 72
     2
 10
314848.0252554981
 20
1990822.00031994
 40
0.25
 50
0.0
 51
360.0
 73
     1
 97
        0
 75
     0
 76
     1
 98
        1
 10
0.0
 20
0.0
450
        0
451
        0
460
0.0
461
0.0
452
        0
462
0.0
453
        0
470

  0
HATCH
  5
2CD
330
66A
100
AcDbEntity
  8
Excavated STPs
100
AcDbHatch
 10
0.0
 20
0.0
 30
0.0
210
0.0
220
0.0
230
1.0
  2
SOLID
 70
     1
 71
     0
 91
        1
 92
        1
 93
        1
 72
     2
 10
314842.399989179
 20
1990822.18836847
 40
0.25
 50
0.0
 51
360.0
 73
     1
 97
        0
 75
     0
 76
     1
 98
        1
 10
0.0
 20
0.0
450
        0
451
        0
460
0.0
461
0.0
452
        0
462
0.0
453
        0
470

  0
HATCH
  5
2CE
330
66A
100
AcDbEntity
  8
Excavated STPs
100
AcDbHatch
 10
0.0
 20
0.0
 30
0.0
210
0.0
220
0.0
230
1.0
  2
SOLID
 70
     1
 71
     0
 91
        1
 92
        1
 93
        1
 72
     2
 10
314841.97764357
 20
1990827.90273398
 40
0.25
 50
0.0
 51
360.0
 73
     1
 97
        0
 75
     0
 76
     1
 98
        1
 10
0.0
 20
0.0
450
        0
451
        0
460
0.0
461
0.0
452
        0
462
0.0
453
        0
470

  0
HATCH
  5
2CF
330
66A
100
AcDbEntity
  8
Excavated STPs
100
AcDbHatch
 10
0.0
 20
0.0
 30
0.0
210
0.0
220
0.0
230
1.0
  2
SOLID
 70
     1
 71
     0
 91
        1
 92
        1
 93
        1
 72
     2
 10
314841.905166344
 20
1990834.00691437
 40
0.25
 50
0.0
 51
360.0
 73
     1
 97
        0
 75
     0
 76
     1
 98
        1
 10
0.0
 20
0.0
450
        0
451
        0
460
0.0
461
0.0
452
        0
462
0.0
453
        0
470

  0
HATCH
  5
2D0
330
66A
100
AcDbEntity
  8
Excavated STPs
100
AcDbHatch
 10
0.0
 20
0.0
 30
0.0
210
0.0
220
0.0
230
1.0
  2
SOLID
 70
     1
 71
     0
 91
        1
 92
        1
 93
        1
 72
     2
 10
314835.9642748661
 20
1990834.0092922
 40
0.25
 50
0.0
 51
360.0
 73
     1
 97
        0
 75
     0
 76
     1
 98
        1
 10
0.0
 20
0.0
450
        0
451
        0
460
0.0
461
0.0
452
        0
462
0.0
453
        0
470

  0
HATCH
  5
2D1
330
66A
100
AcDbEntity
  8
Excavated STPs
100
AcDbHatch
 10
0.0
 20
0.0
 30
0.0
210
0.0
220
0.0
230
1.0
  2
SOLID
 70
     1
 71
     0
 91
        1
 92
        1
 93
        1
 72
     2
 10
314835.8929058501
 20
1990828.00496403
 40
0.25
 50
0.0
 51
360.0
 73
     1
 97
        0
 75
     0
 76
     1
 98
        1
 10
0.0
 20
0.0
450
        0
451
        0
460
0.0
461
0.0
452
        0
462
0.0
453
        0
470

  0
HATCH
  5
2D2
330
66A
100
AcDbEntity
  8
Excavated STPs
100
AcDbHatch
 10
0.0
 20
0.0
 30
0.0
210
0.0
220
0.0
230
1.0
  2
SOLID
 70
     1
 71
     0
 91
        1
 92
        1
 93
        1
 72
     2
 10
314829.0188788751
 20
1990828.2109296
 40
0.25
 50
0.0
 51
360.0
 73
     1
 97
        0
 75
     0
 76
     1
 98
        1
 10
0.0
 20
0.0
450
        0
451
        0
460
0.0
461
0.0
452
        0
462
0.0
453
        0
470

  0
HATCH
  5
2D3
330
66A
100
AcDbEntity
  8
Excavated STPs
100
AcDbHatch
 10
0.0
 20
0.0
 30
0.0
210
0.0
220
0.0
230
1.0
  2
SOLID
 70
     1
 71
     0
 91
        1
 92
        1
 93
        1
 72
     2
 10
314830.0154689161
 20
1990833.94714297
 40
0.25
 50
0.0
 51
360.0
 73
     1
 97
        0
 75
     0
 76
     1
 98
        1
 10
0.0
 20
0.0
450
        0
451
        0
460
0.0
461
0.0
452
        0
462
0.0
453
        0
470

  0
HATCH
  5
2D4
330
66A
100
AcDbEntity
  8
Excavated STPs
100
AcDbHatch
 10
0.0
 20
0.0
 30
0.0
210
0.0
220
0.0
230
1.0
  2
SOLID
 70
     1
 71
     0
 91
        1
 92
        1
 93
        1
 72
     2
 10
314835.986345222
 20
1990822.0342373
 40
0.25
 50
0.0
 51
360.0
 73
     1
 97
        0
 75
     0
 76
     1
 98
        1
 10
0.0
 20
0.0
450
        0
451
        0
460
0.0
461
0.0
452
        0
462
0.0
453
        0
470

  0
HATCH
  5
2D5
330
66A
100
AcDbEntity
  8
Excavated STPs
100
AcDbHatch
 10
0.0
 20
0.0
 30
0.0
210
0.0
220
0.0
230
1.0
  2
SOLID
 70
     1
 71
     0
 91
        1
 92
        1
 93
        1
 72
     2
 10
314829.92562807
 20
1990822.00224489
 40
0.25
 50
0.0
 51
360.0
 73
     1
 97
        0
 75
     0
 76
     1
 98
        1
 10
0.0
 20
0.0
450
        0
451
        0
460
0.0
461
0.0
452
        0
462
0.0
453
        0
470

  0
HATCH
  5
2D6
330
66A
100
AcDbEntity
  8
Excavated STPs
100
AcDbHatch
 10
0.0
 20
0.0
 30
0.0
210
0.0
220
0.0
230
1.0
  2
SOLID
 70
     1
 71
     0
 91
        1
 92
        1
 93
        1
 72
     2
 10
314824.0229900579
 20
1990821.77701429
 40
0.25
 50
0.0
 51
360.0
 73
     1
 97
        0
 75
     0
 76
     1
 98
        1
 10
0.0
 20
0.0
450
        0
451
        0
460
0.0
461
0.0
452
        0
462
0.0
453
        0
470

  0
HATCH
  5
2D7
330
66A
100
AcDbEntity
  8
Excavated STPs
100
AcDbHatch
 10
0.0
 20
0.0
 30
0.0
210
0.0
220
0.0
230
1.0
  2
SOLID
 70
     1
 71
     0
 91
        1
 92
        1
 93
        1
 72
     2
 10
314824.0636487831
 20
1990828.37585519
 40
0.25
 50
0.0
 51
360.0
 73
     1
 97
        0
 75
     0
 76
     1
 98
        1
 10
0.0
 20
0.0
450
        0
451
        0
460
0.0
461
0.0
452
        0
462
0.0
453
        0
470

  0
HATCH
  5
2D8
330
66A
100
AcDbEntity
  8
Excavated STPs
100
AcDbHatch
 10
0.0
 20
0.0
 30
0.0
210
0.0
220
0.0
230
1.0
  2
SOLID
 70
     1
 71
     0
 91
        1
 92
        1
 93
        1
 72
     2
 10
314824.027435285
 20
1990833.985409
 40
0.25
 50
0.0
 51
360.0
 73
     1
 97
        0
 75
     0
 76
     1
 98
        1
 10
0.0
 20
0.0
450
        0
451
        0
460
0.0
461
0.0
452
        0
462
0.0
453
        0
470

  0
HATCH
  5
2D9
330
66A
100
AcDbEntity
  8
Excavated STPs
100
AcDbHatch
 10
0.0
 20
0.0
 30
0.0
210
0.0
220
0.0
230
1.0
  2
SOLID
 70
     1
 71
     0
 91
        1
 92
        1
 93
        1
 72
     2
 10
314818.0700567349
 20
1990834.06511035
 40
0.25
 50
0.0
 51
360.0
 73
     1
 97
        0
 75
     0
 76
     1
 98
        1
 10
0.0
 20
0.0
450
        0
451
        0
460
0.0
461
0.0
452
        0
462
0.0
453
        0
470

  0
HATCH
  5
2DA
330
66A
100
AcDbEntity
  8
Excavated STPs
100
AcDbHatch
 10
0.0
 20
0.0
 30
0.0
210
0.0
220
0.0
230
1.0
  2
SOLID
 70
     1
 71
     0
 91
        1
 92
        1
 93
        1
 72
     2
 10
314818.12426487
 20
1990828.34197206
 40
0.25
 50
0.0
 51
360.0
 73
     1
 97
        0
 75
     0
 76
     1
 98
        1
 10
0.0
 20
0.0
450
        0
451
        0
460
0.0
461
0.0
452
        0
462
0.0
453
        0
470

  0
HATCH
  5
2DB
330
66A
100
AcDbEntity
  8
Excavated STPs
100
AcDbHatch
 10
0.0
 20
0.0
 30
0.0
210
0.0
220
0.0
230
1.0
  2
SOLID
 70
     1
 71
     0
 91
        1
 92
        1
 93
        1
 72
     2
 10
314818.0164402409
 20
1990821.99560632
 40
0.25
 50
0.0
 51
360.0
 73
     1
 97
        0
 75
     0
 76
     1
 98
        1
 10
0.0
 20
0.0
450
        0
451
        0
460
0.0
461
0.0
452
        0
462
0.0
453
        0
470

  0
HATCH
  5
2DC
330
66A
100
AcDbEntity
  8
Excavated STPs
100
AcDbHatch
 10
0.0
 20
0.0
 30
0.0
210
0.0
220
0.0
230
1.0
  2
SOLID
 70
     1
 71
     0
 91
        1
 92
        1
 93
        1
 72
     2
 10
314818.021432861
 20
1990816.073259
 40
0.25
 50
0.0
 51
360.0
 73
     1
 97
        0
 75
     0
 76
     1
 98
        1
 10
0.0
 20
0.0
450
        0
451
        0
460
0.0
461
0.0
452
        0
462
0.0
453
        0
470

  0
HATCH
  5
2DD
330
66A
100
AcDbEntity
  8
Excavated STPs
100
AcDbHatch
 10
0.0
 20
0.0
 30
0.0
210
0.0
220
0.0
230
1.0
  2
SOLID
 70
     1
 71
     0
 91
        1
 92
        1
 93
        1
 72
     2
 10
314823.9900804611
 20
1990815.99693766
 40
0.25
 50
0.0
 51
360.0
 73
     1
 97
        0
 75
     0
 76
     1
 98
        1
 10
0.0
 20
0.0
450
        0
451
        0
460
0.0
461
0.0
452
        0
462
0.0
453
        0
470

  0
HATCH
  5
2DE
330
66A
100
AcDbEntity
  8
Excavated STPs
100
AcDbHatch
 10
0.0
 20
0.0
 30
0.0
210
0.0
220
0.0
230
1.0
  2
SOLID
 70
     1
 71
     0
 91
        1
 92
        1
 93
        1
 72
     2
 10
314830.067038741
 20
1990816.0816565
 40
0.25
 50
0.0
 51
360.0
 73
     1
 97
        0
 75
     0
 76
     1
 98
        1
 10
0.0
 20
0.0
450
        0
451
        0
460
0.0
461
0.0
452
        0
462
0.0
453
        0
470

  0
HATCH
  5
2DF
330
66A
100
AcDbEntity
  8
Excavated STPs
100
AcDbHatch
 10
0.0
 20
0.0
 30
0.0
210
0.0
220
0.0
230
1.0
  2
SOLID
 70
     1
 71
     0
 91
        1
 92
        1
 93
        1
 72
     2
 10
314836.0533862649
 20
1990816.02967086
 40
0.25
 50
0.0
 51
360.0
 73
     1
 97
        0
 75
     0
 76
     1
 98
        1
 10
0.0
 20
0.0
450
        0
451
        0
460
0.0
461
0.0
452
        0
462
0.0
453
        0
470

  0
HATCH
  5
2E1
330
66A
100
AcDbEntity
  8
Excavated STPs
100
AcDbHatch
 10
0.0
 20
0.0
 30
0.0
210
0.0
220
0.0
230
1.0
  2
SOLID
 70
     1
 71
     0
 91
        1
 92
        1
 93
        1
 72
     2
 10
314848.25385827
 20
1990815.67193716
 40
0.25
 50
0.0
 51
360.0
 73
     1
 97
        0
 75
     0
 76
     1
 98
        1
 10
0.0
 20
0.0
450
        0
451
        0
460
0.0
461
0.0
452
        0
462
0.0
453
        0
470

  0
HATCH
  5
2E3
330
66A
100
AcDbEntity
  8
Excavated STPs
100
AcDbHatch
 10
0.0
 20
0.0
 30
0.0
210
0.0
220
0.0
230
1.0
  2
SOLID
 70
     1
 71
     0
 91
        1
 92
        1
 93
        1
 72
     2
 10
314836.2725625299
 20
1990809.98394367
 40
0.25
 50
0.0
 51
360.0
 73
     1
 97
        0
 75
     0
 76
     1
 98
        1
 10
0.0
 20
0.0
450
        0
451
        0
460
0.0
461
0.0
452
        0
462
0.0
453
        0
470

  0
HATCH
  5
2E4
330
66A
100
AcDbEntity
  8
Excavated STPs
100
AcDbHatch
 10
0.0
 20
0.0
 30
0.0
210
0.0
220
0.0
230
1.0
  2
SOLID
 70
     1
 71
     0
 91
        1
 92
        1
 93
        1
 72
     2
 10
314829.938422332
 20
1990810.08830527
 40
0.25
 50
0.0
 51
360.0
 73
     1
 97
        0
 75
     0
 76
     1
 98
        1
 10
0.0
 20
0.0
450
        0
451
        0
460
0.0
461
0.0
452
        0
462
0.0
453
        0
470

  0
HATCH
  5
2E5
330
66A
100
AcDbEntity
  8
Excavated STPs
100
AcDbHatch
 10
0.0
 20
0.0
 30
0.0
210
0.0
220
0.0
230
1.0
  2
SOLID
 70
     1
 71
     0
 91
        1
 92
        1
 93
        1
 72
     2
 10
314823.9585766729
 20
1990809.97419009
 40
0.25
 50
0.0
 51
360.0
 73
     1
 97
        0
 75
     0
 76
     1
 98
        1
 10
0.0
 20
0.0
450
        0
451
        0
460
0.0
461
0.0
452
        0
462
0.0
453
        0
470

  0
HATCH
  5
2E6
330
66A
100
AcDbEntity
  8
Excavated STPs
100
AcDbHatch
 10
0.0
 20
0.0
 30
0.0
210
0.0
220
0.0
230
1.0
  2
SOLID
 70
     1
 71
     0
 91
        1
 92
        1
 93
        1
 72
     2
 10
314817.6883802019
 20
1990809.66976838
 40
0.25
 50
0.0
 51
360.0
 73
     1
 97
        0
 75
     0
 76
     1
 98
        1
 10
0.0
 20
0.0
450
        0
451
        0
460
0.0
461
0.0
452
        0
462
0.0
453
        0
470

  0
HATCH
  5
2E7
330
66A
100
AcDbEntity
  8
Excavated STPs
100
AcDbHatch
 10
0.0
 20
0.0
 30
0.0
210
0.0
220
0.0
230
1.0
  2
SOLID
 70
     1
 71
     0
 91
        1
 92
        1
 93
        1
 72
     2
 10
314829.990643254
 20
1990804.60510372
 40
0.25
 50
0.0
 51
360.0
 73
     1
 97
        0
 75
     0
 76
     1
 98
        1
 10
0.0
 20
0.0
450
        0
451
        0
460
0.0
461
0.0
452
        0
462
0.0
453
        0
470

  0
HATCH
  5
2E8
330
66A
100
AcDbEntity
  8
Excavated STPs
100
AcDbHatch
 10
0.0
 20
0.0
 30
0.0
210
0.0
220
0.0
230
1.0
  2
SOLID
 70
     1
 71
     0
 91
        1
 92
        1
 93
        1
 72
     2
 10
314818.0642185911
 20
1990804.43170551
 40
0.25
 50
0.0
 51
360.0
 73
     1
 97
        0
 75
     0
 76
     1
 98
        1
 10
0.0
 20
0.0
450
        0
451
        0
460
0.0
461
0.0
452
        0
462
0.0
453
        0
470

  0
HATCH
  5
2E9
330
66A
100
AcDbEntity
  8
Excavated STPs
100
AcDbHatch
 10
0.0
 20
0.0
 30
0.0
210
0.0
220
0.0
230
1.0
  2
SOLID
 70
     1
 71
     0
 91
        1
 92
        1
 93
        1
 72
     2
 10
314811.9614991981
 20
1990810.06952209
 40
0.25
 50
0.0
 51
360.0
 73
     1
 97
        0
 75
     0
 76
     1
 98
        1
 10
0.0
 20
0.0
450
        0
451
        0
460
0.0
461
0.0
452
        0
462
0.0
453
        0
470

  0
HATCH
  5
2EA
330
66A
100
AcDbEntity
  8
Excavated STPs
100
AcDbHatch
 10
0.0
 20
0.0
 30
0.0
210
0.0
220
0.0
230
1.0
  2
SOLID
 70
     1
 71
     0
 91
        1
 92
        1
 93
        1
 72
     2
 10
314811.9131268992
 20
1990803.55152335
 40
0.25
 50
0.0
 51
360.0
 73
     1
 97
        0
 75
     0
 76
     1
 98
        1
 10
0.0
 20
0.0
450
        0
451
        0
460
0.0
461
0.0
452
        0
462
0.0
453
        0
470

  0
HATCH
  5
2EB
330
66A
100
AcDbEntity
  8
Excavated STPs
100
AcDbHatch
 10
0.0
 20
0.0
 30
0.0
210
0.0
220
0.0
230
1.0
  2
SOLID
 70
     1
 71
     0
 91
        1
 92
        1
 93
        1
 72
     2
 10
314812.088782929
 20
1990816.004947969
 40
0.25
 50
0.0
 51
360.0
 73
     1
 97
        0
 75
     0
 76
     1
 98
        1
 10
0.0
 20
0.0
450
        0
451
        0
460
0.0
461
0.0
452
        0
462
0.0
453
        0
470

  0
HATCH
  5
2EC
330
66A
100
AcDbEntity
  8
Excavated STPs
100
AcDbHatch
 10
0.0
 20
0.0
 30
0.0
210
0.0
220
0.0
230
1.0
  2
SOLID
 70
     1
 71
     0
 91
        1
 92
        1
 93
        1
 72
     2
 10
314811.6244768231
 20
1990834.98601025
 40
0.25
 50
0.0
 51
360.0
 73
     1
 97
        0
 75
     0
 76
     1
 98
        1
 10
0.0
 20
0.0
450
        0
451
        0
460
0.0
461
0.0
452
        0
462
0.0
453
        0
470

  0
HATCH
  5
2ED
330
66A
100
AcDbEntity
  8
Excavated STPs
100
AcDbHatch
 10
0.0
 20
0.0
 30
0.0
210
0.0
220
0.0
230
1.0
  2
SOLID
 70
     1
 71
     0
 91
        1
 92
        1
 93
        1
 72
     2
 10
314811.945775606
 20
1990828.09451574
 40
0.25
 50
0.0
 51
360.0
 73
     1
 97
        0
 75
     0
 76
     1
 98
        1
 10
0.0
 20
0.0
450
        0
451
        0
460
0.0
461
0.0
452
        0
462
0.0
453
        0
470

  0
HATCH
  5
2EE
330
66A
100
AcDbEntity
  8
Excavated STPs
100
AcDbHatch
 10
0.0
 20
0.0
 30
0.0
210
0.0
220
0.0
230
1.0
  2
SOLID
 70
     1
 71
     0
 91
        1
 92
        1
 93
        1
 72
     2
 10
314811.950050247
 20
1990822.02844617
 40
0.25
 50
0.0
 51
360.0
 73
     1
 97
        0
 75
     0
 76
     1
 98
        1
 10
0.0
 20
0.0
450
        0
451
        0
460
0.0
461
0.0
452
        0
462
0.0
453
        0
470

  0
HATCH
  5
2F0
330
66A
100
AcDbEntity
  8
Excavated STPs
100
AcDbHatch
 10
0.0
 20
0.0
 30
0.0
210
0.0
220
0.0
230
1.0
  2
SOLID
 70
     1
 71
     0
 91
        1
 92
        1
 93
        1
 72
     2
 10
314805.9317134645
 20
1990822.06298626
 40
0.25
 50
0.0
 51
360.0
 73
     1
 97
        0
 75
     0
 76
     1
 98
        1
 10
0.0
 20
0.0
450
        0
451
        0
460
0.0
461
0.0
452
        0
462
0.0
453
        0
470

  0
HATCH
  5
2F1
330
66A
100
AcDbEntity
  8
Excavated STPs
100
AcDbHatch
 10
0.0
 20
0.0
 30
0.0
210
0.0
220
0.0
230
1.0
  2
SOLID
 70
     1
 71
     0
 91
        1
 92
        1
 93
        1
 72
     2
 10
314805.922195587
 20
1990815.96652077
 40
0.25
 50
0.0
 51
360.0
 73
     1
 97
        0
 75
     0
 76
     1
 98
        1
 10
0.0
 20
0.0
450
        0
451
        0
460
0.0
461
0.0
452
        0
462
0.0
453
        0
470

  0
HATCH
  5
2F3
330
66A
100
AcDbEntity
  8
Excavated STPs
100
AcDbHatch
 10
0.0
 20
0.0
 30
0.0
210
0.0
220
0.0
230
1.0
  2
SOLID
 70
     1
 71
     0
 91
        1
 92
        1
 93
        1
 72
     2
 10
314805.9782985172
 20
1990827.966570501
 40
0.25
 50
0.0
 51
360.0
 73
     1
 97
        0
 75
     0
 76
     1
 98
        1
 10
0.0
 20
0.0
450
        0
451
        0
460
0.0
461
0.0
452
        0
462
0.0
453
        0
470

  0
HATCH
  5
2F5
330
66A
100
AcDbEntity
  8
Excavated STPs
100
AcDbHatch
 10
0.0
 20
0.0
 30
0.0
210
0.0
220
0.0
230
1.0
  2
SOLID
 70
     1
 71
     0
 91
        1
 92
        1
 93
        1
 72
     2
 10
314805.9835355641
 20
1990809.94588506
 40
0.25
 50
0.0
 51
360.0
 73
     1
 97
        0
 75
     0
 76
     1
 98
        1
 10
0.0
 20
0.0
450
        0
451
        0
460
0.0
461
0.0
452
        0
462
0.0
453
        0
470

  0
HATCH
  5
2F6
330
66A
100
AcDbEntity
  8
Excavated STPs
100
AcDbHatch
 10
0.0
 20
0.0
 30
0.0
210
0.0
220
0.0
230
1.0
  2
SOLID
 70
     1
 71
     0
 91
        1
 92
        1
 93
        1
 72
     2
 10
314805.963675023
 20
1990804.00598559
 40
0.25
 50
0.0
 51
360.0
 73
     1
 97
        0
 75
     0
 76
     1
 98
        1
 10
0.0
 20
0.0
450
        0
451
        0
460
0.0
461
0.0
452
        0
462
0.0
453
        0
470

  0
HATCH
  5
2F8
330
66A
100
AcDbEntity
  8
Excavated STPs
100
AcDbHatch
 10
0.0
 20
0.0
 30
0.0
210
0.0
220
0.0
230
1.0
  2
SOLID
 70
     1
 71
     0
 91
        1
 92
        1
 93
        1
 72
     2
 10
314799.8458746811
 20
1990798.2596457
 40
0.25
 50
0.0
 51
360.0
 73
     1
 97
        0
 75
     0
 76
     1
 98
        1
 10
0.0
 20
0.0
450
        0
451
        0
460
0.0
461
0.0
452
        0
462
0.0
453
        0
470

  0
HATCH
  5
2F9
330
66A
100
AcDbEntity
  8
Excavated STPs
100
AcDbHatch
 10
0.0
 20
0.0
 30
0.0
210
0.0
220
0.0
230
1.0
  2
SOLID
 70
     1
 71
     0
 91
        1
 92
        1
 93
        1
 72
     2
 10
314799.927020494
 20
1990803.899298379
 40
0.25
 50
0.0
 51
360.0
 73
     1
 97
        0
 75
     0
 76
     1
 98
        1
 10
0.0
 20
0.0
450
        0
451
        0
460
0.0
461
0.0
452
        0
462
0.0
453
        0
470

  0
HATCH
  5
2FA
330
66A
100
AcDbEntity
  8
STPs
100
AcDbHatch
 10
0.0
 20
0.0
 30
0.0
210
0.0
220
0.0
230
1.0
  2
SOLID
 70
     1
 71
     0
 91
        1
 92
        1
 93
        1
 72
     2
 10
314793.9385829432
 20
1990803.98755421
 40
0.25
 50
0.0
 51
360.0
 73
     1
 97
        0
 75
     0
 76
     1
 98
        1
 10
0.0
 20
0.0
450
        0
451
        0
460
0.0
461
0.0
452
        0
462
0.0
453
        0
470

  0
HATCH
  5
2FB
330
66A
100
AcDbEntity
  8
Excavated STPs
100
AcDbHatch
 10
0.0
 20
0.0
 30
0.0
210
0.0
220
0.0
230
1.0
  2
SOLID
 70
     1
 71
     0
 91
        1
 92
        1
 93
        1
 72
     2
 10
314793.963840047
 20
1990797.95519743
 40
0.25
 50
0.0
 51
360.0
 73
     1
 97
        0
 75
     0
 76
     1
 98
        1
 10
0.0
 20
0.0
450
        0
451
        0
460
0.0
461
0.0
452
        0
462
0.0
453
        0
470

  0
HATCH
  5
2FC
330
66A
100
AcDbEntity
  8
Excavated STPs
100
AcDbHatch
 10
0.0
 20
0.0
 30
0.0
210
0.0
220
0.0
230
1.0
  2
SOLID
 70
     1
 71
     0
 91
        1
 92
        1
 93
        1
 72
     2
 10
314799.992570771
 20
1990809.97980913
 40
0.25
 50
0.0
 51
360.0
 73
     1
 97
        0
 75
     0
 76
     1
 98
        1
 10
0.0
 20
0.0
450
        0
451
        0
460
0.0
461
0.0
452
        0
462
0.0
453
        0
470

  0
HATCH
  5
2FD
330
66A
100
AcDbEntity
  8
Excavated STPs
100
AcDbHatch
 10
0.0
 20
0.0
 30
0.0
210
0.0
220
0.0
230
1.0
  2
SOLID
 70
     1
 71
     0
 91
        1
 92
        1
 93
        1
 72
     2
 10
314794.0711378131
 20
1990810.017537779
 40
0.25
 50
0.0
 51
360.0
 73
     1
 97
        0
 75
     0
 76
     1
 98
        1
 10
0.0
 20
0.0
450
        0
451
        0
460
0.0
461
0.0
452
        0
462
0.0
453
        0
470

  0
HATCH
  5
2FE
330
66A
100
AcDbEntity
  8
Excavated STPs
100
AcDbHatch
 10
0.0
 20
0.0
 30
0.0
210
0.0
220
0.0
230
1.0
  2
SOLID
 70
     1
 71
     0
 91
        1
 92
        1
 93
        1
 72
     2
 10
314787.9396076112
 20
1990804.75923834
 40
0.25
 50
0.0
 51
360.0
 73
     1
 97
        0
 75
     0
 76
     1
 98
        1
 10
0.0
 20
0.0
450
        0
451
        0
460
0.0
461
0.0
452
        0
462
0.0
453
        0
470

  0
HATCH
  5
2FF
330
66A
100
AcDbEntity
  8
Excavated STPs
100
AcDbHatch
 10
0.0
 20
0.0
 30
0.0
210
0.0
220
0.0
230
1.0
  2
SOLID
 70
     1
 71
     0
 91
        1
 92
        1
 93
        1
 72
     2
 10
314787.9348392211
 20
1990797.91685876
 40
0.25
 50
0.0
 51
360.0
 73
     1
 97
        0
 75
     0
 76
     1
 98
        1
 10
0.0
 20
0.0
450
        0
451
        0
460
0.0
461
0.0
452
        0
462
0.0
453
        0
470

  0
HATCH
  5
300
330
66A
100
AcDbEntity
  8
Excavated STPs
100
AcDbHatch
 10
0.0
 20
0.0
 30
0.0
210
0.0
220
0.0
230
1.0
  2
SOLID
 70
     1
 71
     0
 91
        1
 92
        1
 93
        1
 72
     2
 10
314787.990644327
 20
1990791.99758564
 40
0.25
 50
0.0
 51
360.0
 73
     1
 97
        0
 75
     0
 76
     1
 98
        1
 10
0.0
 20
0.0
450
        0
451
        0
460
0.0
461
0.0
452
        0
462
0.0
453
        0
470

  0
HATCH
  5
301
330
66A
100
AcDbEntity
  8
Excavated STPs
100
AcDbHatch
 10
0.0
 20
0.0
 30
0.0
210
0.0
220
0.0
230
1.0
  2
SOLID
 70
     1
 71
     0
 91
        1
 92
        1
 93
        1
 72
     2
 10
314782.0114232911
 20
1990792.07960973
 40
0.25
 50
0.0
 51
360.0
 73
     1
 97
        0
 75
     0
 76
     1
 98
        1
 10
0.0
 20
0.0
450
        0
451
        0
460
0.0
461
0.0
452
        0
462
0.0
453
        0
470

  0
HATCH
  5
302
330
66A
100
AcDbEntity
  8
Excavated STPs
100
AcDbHatch
 10
0.0
 20
0.0
 30
0.0
210
0.0
220
0.0
230
1.0
  2
SOLID
 70
     1
 71
     0
 91
        1
 92
        1
 93
        1
 72
     2
 10
314782.0130940291
 20
1990798.08716953
 40
0.25
 50
0.0
 51
360.0
 73
     1
 97
        0
 75
     0
 76
     1
 98
        1
 10
0.0
 20
0.0
450
        0
451
        0
460
0.0
461
0.0
452
        0
462
0.0
453
        0
470

  0
HATCH
  5
303
330
66A
100
AcDbEntity
  8
Excavated STPs
100
AcDbHatch
 10
0.0
 20
0.0
 30
0.0
210
0.0
220
0.0
230
1.0
  2
SOLID
 70
     1
 71
     0
 91
        1
 92
        1
 93
        1
 72
     2
 10
314775.699056228
 20
1990798.084626371
 40
0.25
 50
0.0
 51
360.0
 73
     1
 97
        0
 75
     0
 76
     1
 98
        1
 10
0.0
 20
0.0
450
        0
451
        0
460
0.0
461
0.0
452
        0
462
0.0
453
        0
470

  0
HATCH
  5
304
330
66A
100
AcDbEntity
  8
Excavated STPs
100
AcDbHatch
 10
0.0
 20
0.0
 30
0.0
210
0.0
220
0.0
230
1.0
  2
SOLID
 70
     1
 71
     0
 91
        1
 92
        1
 93
        1
 72
     2
 10
314775.833442144
 20
1990791.7876621
 40
0.25
 50
0.0
 51
360.0
 73
     1
 97
        0
 75
     0
 76
     1
 98
        1
 10
0.0
 20
0.0
450
        0
451
        0
460
0.0
461
0.0
452
        0
462
0.0
453
        0
470

  0
HATCH
  5
305
330
66A
100
AcDbEntity
  8
Excavated STPs
100
AcDbHatch
 10
0.0
 20
0.0
 30
0.0
210
0.0
220
0.0
230
1.0
  2
SOLID
 70
     1
 71
     0
 91
        1
 92
        1
 93
        1
 72
     2
 10
314775.987885173
 20
1990786.09068298
 40
0.25
 50
0.0
 51
360.0
 73
     1
 97
        0
 75
     0
 76
     1
 98
        1
 10
0.0
 20
0.0
450
        0
451
        0
460
0.0
461
0.0
452
        0
462
0.0
453
        0
470

  0
HATCH
  5
306
330
66A
100
AcDbEntity
  8
Excavated STPs
100
AcDbHatch
 10
0.0
 20
0.0
 30
0.0
210
0.0
220
0.0
230
1.0
  2
SOLID
 70
     1
 71
     0
 91
        1
 92
        1
 93
        1
 72
     2
 10
314781.708160919
 20
1990786.08699889
 40
0.25
 50
0.0
 51
360.0
 73
     1
 97
        0
 75
     0
 76
     1
 98
        1
 10
0.0
 20
0.0
450
        0
451
        0
460
0.0
461
0.0
452
        0
462
0.0
453
        0
470

  0
HATCH
  5
307
330
66A
100
AcDbEntity
  8
Excavated STPs
100
AcDbHatch
 10
0.0
 20
0.0
 30
0.0
210
0.0
220
0.0
230
1.0
  2
SOLID
 70
     1
 71
     0
 91
        1
 92
        1
 93
        1
 72
     2
 10
314775.9086810391
 20
1990780.06808573
 40
0.25
 50
0.0
 51
360.0
 73
     1
 97
        0
 75
     0
 76
     1
 98
        1
 10
0.0
 20
0.0
450
        0
451
        0
460
0.0
461
0.0
452
        0
462
0.0
453
        0
470

  0
HATCH
  5
308
330
66A
100
AcDbEntity
  8
Excavated STPs
100
AcDbHatch
 10
0.0
 20
0.0
 30
0.0
210
0.0
220
0.0
230
1.0
  2
SOLID
 70
     1
 71
     0
 91
        1
 92
        1
 93
        1
 72
     2
 10
314769.984156947
 20
1990785.96136971
 40
0.25
 50
0.0
 51
360.0
 73
     1
 97
        0
 75
     0
 76
     1
 98
        1
 10
0.0
 20
0.0
450
        0
451
        0
460
0.0
461
0.0
452
        0
462
0.0
453
        0
470

  0
HATCH
  5
309
330
66A
100
AcDbEntity
  8
Excavated STPs
100
AcDbHatch
 10
0.0
 20
0.0
 30
0.0
210
0.0
220
0.0
230
1.0
  2
SOLID
 70
     1
 71
     0
 91
        1
 92
        1
 93
        1
 72
     2
 10
314769.7793467322
 20
1990779.92359962
 40
0.25
 50
0.0
 51
360.0
 73
     1
 97
        0
 75
     0
 76
     1
 98
        1
 10
0.0
 20
0.0
450
        0
451
        0
460
0.0
461
0.0
452
        0
462
0.0
453
        0
470

  0
HATCH
  5
30A
330
66A
100
AcDbEntity
  8
Excavated STPs
100
AcDbHatch
 10
0.0
 20
0.0
 30
0.0
210
0.0
220
0.0
230
1.0
  2
SOLID
 70
     1
 71
     0
 91
        1
 92
        1
 93
        1
 72
     2
 10
314769.9974951291
 20
1990792.02308269
 40
0.25
 50
0.0
 51
360.0
 73
     1
 97
        0
 75
     0
 76
     1
 98
        1
 10
0.0
 20
0.0
450
        0
451
        0
460
0.0
461
0.0
452
        0
462
0.0
453
        0
470

  0
HATCH
  5
30B
330
66A
100
AcDbEntity
  8
Excavated STPs
100
AcDbHatch
 10
0.0
 20
0.0
 30
0.0
210
0.0
220
0.0
230
1.0
  2
SOLID
 70
     1
 71
     0
 91
        1
 92
        1
 93
        1
 72
     2
 10
314775.935063589
 20
1990810.003145289
 40
0.25
 50
0.0
 51
360.0
 73
     1
 97
        0
 75
     0
 76
     1
 98
        1
 10
0.0
 20
0.0
450
        0
451
        0
460
0.0
461
0.0
452
        0
462
0.0
453
        0
470

  0
HATCH
  5
30C
330
66A
100
AcDbEntity
  8
Excavated STPs
100
AcDbHatch
 10
0.0
 20
0.0
 30
0.0
210
0.0
220
0.0
230
1.0
  2
SOLID
 70
     1
 71
     0
 91
        1
 92
        1
 93
        1
 72
     2
 10
314770.0621508761
 20
1990809.89388041
 40
0.25
 50
0.0
 51
360.0
 73
     1
 97
        0
 75
     0
 76
     1
 98
        1
 10
0.0
 20
0.0
450
        0
451
        0
460
0.0
461
0.0
452
        0
462
0.0
453
        0
470

  0
HATCH
  5
30D
330
66A
100
AcDbEntity
  8
Excavated STPs
100
AcDbHatch
 10
0.0
 20
0.0
 30
0.0
210
0.0
220
0.0
230
1.0
  2
SOLID
 70
     1
 71
     0
 91
        1
 92
        1
 93
        1
 72
     2
 10
314770.0887772111
 20
1990803.982789319
 40
0.25
 50
0.0
 51
360.0
 73
     1
 97
        0
 75
     0
 76
     1
 98
        1
 10
0.0
 20
0.0
450
        0
451
        0
460
0.0
461
0.0
452
        0
462
0.0
453
        0
470

  0
HATCH
  5
30E
330
66A
100
AcDbEntity
  8
Excavated STPs
100
AcDbHatch
 10
0.0
 20
0.0
 30
0.0
210
0.0
220
0.0
230
1.0
  2
SOLID
 70
     1
 71
     0
 91
        1
 92
        1
 93
        1
 72
     2
 10
314770.0992325019
 20
1990815.96766622
 40
0.25
 50
0.0
 51
360.0
 73
     1
 97
        0
 75
     0
 76
     1
 98
        1
 10
0.0
 20
0.0
450
        0
451
        0
460
0.0
461
0.0
452
        0
462
0.0
453
        0
470

  0
HATCH
  5
30F
330
66A
100
AcDbEntity
  8
Excavated STPs
100
AcDbHatch
 10
0.0
 20
0.0
 30
0.0
210
0.0
220
0.0
230
1.0
  2
SOLID
 70
     1
 71
     0
 91
        1
 92
        1
 93
        1
 72
     2
 10
314775.9620689539
 20
1990816.03635711
 40
0.25
 50
0.0
 51
360.0
 73
     1
 97
        0
 75
     0
 76
     1
 98
        1
 10
0.0
 20
0.0
450
        0
451
        0
460
0.0
461
0.0
452
        0
462
0.0
453
        0
470

  0
HATCH
  5
310
330
66A
100
AcDbEntity
  8
Excavated STPs
100
AcDbHatch
 10
0.0
 20
0.0
 30
0.0
210
0.0
220
0.0
230
1.0
  2
SOLID
 70
     1
 71
     0
 91
        1
 92
        1
 93
        1
 72
     2
 10
314781.970501437
 20
1990815.99756647
 40
0.25
 50
0.0
 51
360.0
 73
     1
 97
        0
 75
     0
 76
     1
 98
        1
 10
0.0
 20
0.0
450
        0
451
        0
460
0.0
461
0.0
452
        0
462
0.0
453
        0
470

  0
HATCH
  5
311
330
66A
100
AcDbEntity
  8
Excavated STPs
100
AcDbHatch
 10
0.0
 20
0.0
 30
0.0
210
0.0
220
0.0
230
1.0
  2
SOLID
 70
     1
 71
     0
 91
        1
 92
        1
 93
        1
 72
     2
 10
314776.0083196052
 20
1990822.08512716
 40
0.25
 50
0.0
 51
360.0
 73
     1
 97
        0
 75
     0
 76
     1
 98
        1
 10
0.0
 20
0.0
450
        0
451
        0
460
0.0
461
0.0
452
        0
462
0.0
453
        0
470

  0
HATCH
  5
312
330
66A
100
AcDbEntity
  8
Excavated STPs
100
AcDbHatch
 10
0.0
 20
0.0
 30
0.0
210
0.0
220
0.0
230
1.0
  2
SOLID
 70
     1
 71
     0
 91
        1
 92
        1
 93
        1
 72
     2
 10
314782.030532894
 20
1990828.11197876
 40
0.25
 50
0.0
 51
360.0
 73
     1
 97
        0
 75
     0
 76
     1
 98
        1
 10
0.0
 20
0.0
450
        0
451
        0
460
0.0
461
0.0
452
        0
462
0.0
453
        0
470

  0
HATCH
  5
313
330
66A
100
AcDbEntity
  8
Excavated STPs
100
AcDbHatch
 10
0.0
 20
0.0
 30
0.0
210
0.0
220
0.0
230
1.0
  2
SOLID
 70
     1
 71
     0
 91
        1
 92
        1
 93
        1
 72
     2
 10
314781.9740939152
 20
1990822.00413026
 40
0.25
 50
0.0
 51
360.0
 73
     1
 97
        0
 75
     0
 76
     1
 98
        1
 10
0.0
 20
0.0
450
        0
451
        0
460
0.0
461
0.0
452
        0
462
0.0
453
        0
470

  0
HATCH
  5
314
330
66A
100
AcDbEntity
  8
Excavated STPs
100
AcDbHatch
 10
0.0
 20
0.0
 30
0.0
210
0.0
220
0.0
230
1.0
  2
SOLID
 70
     1
 71
     0
 91
        1
 92
        1
 93
        1
 72
     2
 10
314787.94646827
 20
1990827.9724233
 40
0.25
 50
0.0
 51
360.0
 73
     1
 97
        0
 75
     0
 76
     1
 98
        1
 10
0.0
 20
0.0
450
        0
451
        0
460
0.0
461
0.0
452
        0
462
0.0
453
        0
470

  0
HATCH
  5
315
330
66A
100
AcDbEntity
  8
Excavated STPs
100
AcDbHatch
 10
0.0
 20
0.0
 30
0.0
210
0.0
220
0.0
230
1.0
  2
SOLID
 70
     1
 71
     0
 91
        1
 92
        1
 93
        1
 72
     2
 10
314787.9865918961
 20
1990822.0871521
 40
0.25
 50
0.0
 51
360.0
 73
     1
 97
        0
 75
     0
 76
     1
 98
        1
 10
0.0
 20
0.0
450
        0
451
        0
460
0.0
461
0.0
452
        0
462
0.0
453
        0
470

  0
HATCH
  5
316
330
66A
100
AcDbEntity
  8
Excavated STPs
100
AcDbHatch
 10
0.0
 20
0.0
 30
0.0
210
0.0
220
0.0
230
1.0
  2
SOLID
 70
     1
 71
     0
 91
        1
 92
        1
 93
        1
 72
     2
 10
314793.602580911
 20
1990822.03675785
 40
0.25
 50
0.0
 51
360.0
 73
     1
 97
        0
 75
     0
 76
     1
 98
        1
 10
0.0
 20
0.0
450
        0
451
        0
460
0.0
461
0.0
452
        0
462
0.0
453
        0
470

  0
HATCH
  5
317
330
66A
100
AcDbEntity
  8
Excavated STPs
100
AcDbHatch
 10
0.0
 20
0.0
 30
0.0
210
0.0
220
0.0
230
1.0
  2
SOLID
 70
     1
 71
     0
 91
        1
 92
        1
 93
        1
 72
     2
 10
314793.9624802063
 20
1990828.010020629
 40
0.25
 50
0.0
 51
360.0
 73
     1
 97
        0
 75
     0
 76
     1
 98
        1
 10
0.0
 20
0.0
450
        0
451
        0
460
0.0
461
0.0
452
        0
462
0.0
453
        0
470

  0
HATCH
  5
318
330
66A
100
AcDbEntity
  8
Excavated STPs
100
AcDbHatch
 10
0.0
 20
0.0
 30
0.0
210
0.0
220
0.0
230
1.0
  2
SOLID
 70
     1
 71
     0
 91
        1
 92
        1
 93
        1
 72
     2
 10
314793.560633764
 20
1990834.040167779
 40
0.25
 50
0.0
 51
360.0
 73
     1
 97
        0
 75
     0
 76
     1
 98
        1
 10
0.0
 20
0.0
450
        0
451
        0
460
0.0
461
0.0
452
        0
462
0.0
453
        0
470

  0
HATCH
  5
319
330
66A
100
AcDbEntity
  8
Excavated STPs
100
AcDbHatch
 10
0.0
 20
0.0
 30
0.0
210
0.0
220
0.0
230
1.0
  2
SOLID
 70
     1
 71
     0
 91
        1
 92
        1
 93
        1
 72
     2
 10
314787.955675526
 20
1990833.760135459
 40
0.25
 50
0.0
 51
360.0
 73
     1
 97
        0
 75
     0
 76
     1
 98
        1
 10
0.0
 20
0.0
450
        0
451
        0
460
0.0
461
0.0
452
        0
462
0.0
453
        0
470

  0
HATCH
  5
31A
330
66A
100
AcDbEntity
  8
Excavated STPs
100
AcDbHatch
 10
0.0
 20
0.0
 30
0.0
210
0.0
220
0.0
230
1.0
  2
SOLID
 70
     1
 71
     0
 91
        1
 92
        1
 93
        1
 72
     2
 10
314782.004848866
 20
1990833.94762138
 40
0.25
 50
0.0
 51
360.0
 73
     1
 97
        0
 75
     0
 76
     1
 98
        1
 10
0.0
 20
0.0
450
        0
451
        0
460
0.0
461
0.0
452
        0
462
0.0
453
        0
470

  0
HATCH
  5
31B
330
66A
100
AcDbEntity
  8
Excavated STPs
100
AcDbHatch
 10
0.0
 20
0.0
 30
0.0
210
0.0
220
0.0
230
1.0
  2
SOLID
 70
     1
 71
     0
 91
        1
 92
        1
 93
        1
 72
     2
 10
314794.0394319091
 20
1990840.02124801
 40
0.25
 50
0.0
 51
360.0
 73
     1
 97
        0
 75
     0
 76
     1
 98
        1
 10
0.0
 20
0.0
450
        0
451
        0
460
0.0
461
0.0
452
        0
462
0.0
453
        0
470

  0
HATCH
  5
31C
330
66A
100
AcDbEntity
  8
Excavated STPs
100
AcDbHatch
 10
0.0
 20
0.0
 30
0.0
210
0.0
220
0.0
230
1.0
  2
SOLID
 70
     1
 71
     0
 91
        1
 92
        1
 93
        1
 72
     2
 10
314787.9766751134
 20
1990845.967106423
 40
0.25
 50
0.0
 51
360.0
 73
     1
 97
        0
 75
     0
 76
     1
 98
        1
 10
0.0
 20
0.0
450
        0
451
        0
460
0.0
461
0.0
452
        0
462
0.0
453
        0
470

  0
HATCH
  5
31D
330
66A
100
AcDbEntity
  8
Excavated STPs
100
AcDbHatch
 10
0.0
 20
0.0
 30
0.0
210
0.0
220
0.0
230
1.0
  2
SOLID
 70
     1
 71
     0
 91
        1
 92
        1
 93
        1
 72
     2
 10
314775.7736241981
 20
1990851.92378135
 40
0.25
 50
0.0
 51
360.0
 73
     1
 97
        0
 75
     0
 76
     1
 98
        1
 10
0.0
 20
0.0
450
        0
451
        0
460
0.0
461
0.0
452
        0
462
0.0
453
        0
470

  0
HATCH
  5
31E
330
66A
100
AcDbEntity
  8
Excavated STPs
100
AcDbHatch
 10
0.0
 20
0.0
 30
0.0
210
0.0
220
0.0
230
1.0
  2
SOLID
 70
     1
 71
     0
 91
        1
 92
        1
 93
        1
 72
     2
 10
314769.774814769
 20
1990845.98423522
 40
0.25
 50
0.0
 51
360.0
 73
     1
 97
        0
 75
     0
 76
     1
 98
        1
 10
0.0
 20
0.0
450
        0
451
        0
460
0.0
461
0.0
452
        0
462
0.0
453
        0
470

  0
HATCH
  5
31F
330
66A
100
AcDbEntity
  8
Excavated STPs
100
AcDbHatch
 10
0.0
 20
0.0
 30
0.0
210
0.0
220
0.0
230
1.0
  2
SOLID
 70
     1
 71
     0
 91
        1
 92
        1
 93
        1
 72
     2
 10
314769.9255058461
 20
1990853.01308287
 40
0.25
 50
0.0
 51
360.0
 73
     1
 97
        0
 75
     0
 76
     1
 98
        1
 10
0.0
 20
0.0
450
        0
451
        0
460
0.0
461
0.0
452
        0
462
0.0
453
        0
470

  0
HATCH
  5
320
330
66A
100
AcDbEntity
  8
Excavated STPs
100
AcDbHatch
 10
0.0
 20
0.0
 30
0.0
210
0.0
220
0.0
230
1.0
  2
SOLID
 70
     1
 71
     0
 91
        1
 92
        1
 93
        1
 72
     2
 10
314800.009886179
 20
1990846.01999345
 40
0.25
 50
0.0
 51
360.0
 73
     1
 97
        0
 75
     0
 76
     1
 98
        1
 10
0.0
 20
0.0
450
        0
451
        0
460
0.0
461
0.0
452
        0
462
0.0
453
        0
470

  0
HATCH
  5
321
330
66A
100
AcDbEntity
  8
Excavated STPs
100
AcDbHatch
 10
0.0
 20
0.0
 30
0.0
210
0.0
220
0.0
230
1.0
  2
SOLID
 70
     1
 71
     0
 91
        1
 92
        1
 93
        1
 72
     2
 10
314800.0598819331
 20
1990839.9407658
 40
0.25
 50
0.0
 51
360.0
 73
     1
 97
        0
 75
     0
 76
     1
 98
        1
 10
0.0
 20
0.0
450
        0
451
        0
460
0.0
461
0.0
452
        0
462
0.0
453
        0
470

  0
HATCH
  5
322
330
66A
100
AcDbEntity
  8
Excavated STPs
100
AcDbHatch
 10
0.0
 20
0.0
 30
0.0
210
0.0
220
0.0
230
1.0
  2
SOLID
 70
     1
 71
     0
 91
        1
 92
        1
 93
        1
 72
     2
 10
314806.5359770719
 20
1990840.56522887
 40
0.25
 50
0.0
 51
360.0
 73
     1
 97
        0
 75
     0
 76
     1
 98
        1
 10
0.0
 20
0.0
450
        0
451
        0
460
0.0
461
0.0
452
        0
462
0.0
453
        0
470

  0
HATCH
  5
323
330
66A
100
AcDbEntity
  8
Excavated STPs
100
AcDbHatch
 10
0.0
 20
0.0
 30
0.0
210
0.0
220
0.0
230
1.0
  2
SOLID
 70
     1
 71
     0
 91
        1
 92
        1
 93
        1
 72
     2
 10
314805.9932146912
 20
1990845.98040565
 40
0.25
 50
0.0
 51
360.0
 73
     1
 97
        0
 75
     0
 76
     1
 98
        1
 10
0.0
 20
0.0
450
        0
451
        0
460
0.0
461
0.0
452
        0
462
0.0
453
        0
470

  0
HATCH
  5
324
330
66A
100
AcDbEntity
  8
Excavated STPs
100
AcDbHatch
 10
0.0
 20
0.0
 30
0.0
210
0.0
220
0.0
230
1.0
  2
SOLID
 70
     1
 71
     0
 91
        1
 92
        1
 93
        1
 72
     2
 10
314812.001416944
 20
1990846.01945721
 40
0.25
 50
0.0
 51
360.0
 73
     1
 97
        0
 75
     0
 76
     1
 98
        1
 10
0.0
 20
0.0
450
        0
451
        0
460
0.0
461
0.0
452
        0
462
0.0
453
        0
470

  0
HATCH
  5
325
330
66A
100
AcDbEntity
  8
Excavated STPs
100
AcDbHatch
 10
0.0
 20
0.0
 30
0.0
210
0.0
220
0.0
230
1.0
  2
SOLID
 70
     1
 71
     0
 91
        1
 92
        1
 93
        1
 72
     2
 10
314806.0239239591
 20
1990852.04909097
 40
0.25
 50
0.0
 51
360.0
 73
     1
 97
        0
 75
     0
 76
     1
 98
        1
 10
0.0
 20
0.0
450
        0
451
        0
460
0.0
461
0.0
452
        0
462
0.0
453
        0
470

  0
HATCH
  5
326
330
66A
100
AcDbEntity
  8
Excavated STPs
100
AcDbHatch
 10
0.0
 20
0.0
 30
0.0
210
0.0
220
0.0
230
1.0
  2
SOLID
 70
     1
 71
     0
 91
        1
 92
        1
 93
        1
 72
     2
 10
314812.0158786722
 20
1990839.96776725
 40
0.25
 50
0.0
 51
360.0
 73
     1
 97
        0
 75
     0
 76
     1
 98
        1
 10
0.0
 20
0.0
450
        0
451
        0
460
0.0
461
0.0
452
        0
462
0.0
453
        0
470

  0
HATCH
  5
327
330
66A
100
AcDbEntity
  8
Excavated STPs
100
AcDbHatch
 10
0.0
 20
0.0
 30
0.0
210
0.0
220
0.0
230
1.0
  2
SOLID
 70
     1
 71
     0
 91
        1
 92
        1
 93
        1
 72
     2
 10
314818.042794301
 20
1990839.99012928
 40
0.25
 50
0.0
 51
360.0
 73
     1
 97
        0
 75
     0
 76
     1
 98
        1
 10
0.0
 20
0.0
450
        0
451
        0
460
0.0
461
0.0
452
        0
462
0.0
453
        0
470

  0
HATCH
  5
328
330
66A
100
AcDbEntity
  8
Excavated STPs
100
AcDbHatch
 10
0.0
 20
0.0
 30
0.0
210
0.0
220
0.0
230
1.0
  2
SOLID
 70
     1
 71
     0
 91
        1
 92
        1
 93
        1
 72
     2
 10
314818.022938337
 20
1990846.0518276
 40
0.25
 50
0.0
 51
360.0
 73
     1
 97
        0
 75
     0
 76
     1
 98
        1
 10
0.0
 20
0.0
450
        0
451
        0
460
0.0
461
0.0
452
        0
462
0.0
453
        0
470

  0
HATCH
  5
329
330
66A
100
AcDbEntity
  8
Excavated STPs
100
AcDbHatch
 10
0.0
 20
0.0
 30
0.0
210
0.0
220
0.0
230
1.0
  2
SOLID
 70
     1
 71
     0
 91
        1
 92
        1
 93
        1
 72
     2
 10
314818.0456165929
 20
1990852.01206444
 40
0.25
 50
0.0
 51
360.0
 73
     1
 97
        0
 75
     0
 76
     1
 98
        1
 10
0.0
 20
0.0
450
        0
451
        0
460
0.0
461
0.0
452
        0
462
0.0
453
        0
470

  0
HATCH
  5
32A
330
66A
100
AcDbEntity
  8
Excavated STPs
100
AcDbHatch
 10
0.0
 20
0.0
 30
0.0
210
0.0
220
0.0
230
1.0
  2
SOLID
 70
     1
 71
     0
 91
        1
 92
        1
 93
        1
 72
     2
 10
314818.050430463
 20
1990857.9929332
 40
0.25
 50
0.0
 51
360.0
 73
     1
 97
        0
 75
     0
 76
     1
 98
        1
 10
0.0
 20
0.0
450
        0
451
        0
460
0.0
461
0.0
452
        0
462
0.0
453
        0
470

  0
HATCH
  5
32B
330
66A
100
AcDbEntity
  8
Excavated STPs
100
AcDbHatch
 10
0.0
 20
0.0
 30
0.0
210
0.0
220
0.0
230
1.0
  2
SOLID
 70
     1
 71
     0
 91
        1
 92
        1
 93
        1
 72
     2
 10
314811.9569615321
 20
1990857.986204231
 40
0.25
 50
0.0
 51
360.0
 73
     1
 97
        0
 75
     0
 76
     1
 98
        1
 10
0.0
 20
0.0
450
        0
451
        0
460
0.0
461
0.0
452
        0
462
0.0
453
        0
470

  0
HATCH
  5
32C
330
66A
100
AcDbEntity
  8
Excavated STPs
100
AcDbHatch
 10
0.0
 20
0.0
 30
0.0
210
0.0
220
0.0
230
1.0
  2
SOLID
 70
     1
 71
     0
 91
        1
 92
        1
 93
        1
 72
     2
 10
314806.0316965551
 20
1990858.01428927
 40
0.25
 50
0.0
 51
360.0
 73
     1
 97
        0
 75
     0
 76
     1
 98
        1
 10
0.0
 20
0.0
450
        0
451
        0
460
0.0
461
0.0
452
        0
462
0.0
453
        0
470

  0
HATCH
  5
32D
330
66A
100
AcDbEntity
  8
Excavated STPs
100
AcDbHatch
 10
0.0
 20
0.0
 30
0.0
210
0.0
220
0.0
230
1.0
  2
SOLID
 70
     1
 71
     0
 91
        1
 92
        1
 93
        1
 72
     2
 10
314812.0157109481
 20
1990864.013798931
 40
0.25
 50
0.0
 51
360.0
 73
     1
 97
        0
 75
     0
 76
     1
 98
        1
 10
0.0
 20
0.0
450
        0
451
        0
460
0.0
461
0.0
452
        0
462
0.0
453
        0
470

  0
HATCH
  5
32E
330
66A
100
AcDbEntity
  8
Excavated STPs
100
AcDbHatch
 10
0.0
 20
0.0
 30
0.0
210
0.0
220
0.0
230
1.0
  2
SOLID
 70
     1
 71
     0
 91
        1
 92
        1
 93
        1
 72
     2
 10
314818.0256999551
 20
1990864.005691831
 40
0.25
 50
0.0
 51
360.0
 73
     1
 97
        0
 75
     0
 76
     1
 98
        1
 10
0.0
 20
0.0
450
        0
451
        0
460
0.0
461
0.0
452
        0
462
0.0
453
        0
470

  0
HATCH
  5
32F
330
66A
100
AcDbEntity
  8
Excavated STPs
100
AcDbHatch
 10
0.0
 20
0.0
 30
0.0
210
0.0
220
0.0
230
1.0
  2
SOLID
 70
     1
 71
     0
 91
        1
 92
        1
 93
        1
 72
     2
 10
314818.0076635191
 20
1990876.01810647
 40
0.25
 50
0.0
 51
360.0
 73
     1
 97
        0
 75
     0
 76
     1
 98
        1
 10
0.0
 20
0.0
450
        0
451
        0
460
0.0
461
0.0
452
        0
462
0.0
453
        0
470

  0
HATCH
  5
330
330
66A
100
AcDbEntity
  8
Excavated STPs
100
AcDbHatch
 10
0.0
 20
0.0
 30
0.0
210
0.0
220
0.0
230
1.0
  2
SOLID
 70
     1
 71
     0
 91
        1
 92
        1
 93
        1
 72
     2
 10
314823.6281915322
 20
1990875.35971266
 40
0.25
 50
0.0
 51
360.0
 73
     1
 97
        0
 75
     0
 76
     1
 98
        1
 10
0.0
 20
0.0
450
        0
451
        0
460
0.0
461
0.0
452
        0
462
0.0
453
        0
470

  0
HATCH
  5
331
330
66A
100
AcDbEntity
  8
Excavated STPs
100
AcDbHatch
 10
0.0
 20
0.0
 30
0.0
210
0.0
220
0.0
230
1.0
  2
SOLID
 70
     1
 71
     0
 91
        1
 92
        1
 93
        1
 72
     2
 10
314800.027341004
 20
1990834.02913396
 40
0.25
 50
0.0
 51
360.0
 73
     1
 97
        0
 75
     0
 76
     1
 98
        1
 10
0.0
 20
0.0
450
        0
451
        0
460
0.0
461
0.0
452
        0
462
0.0
453
        0
470

  0
HATCH
  5
332
330
66A
100
AcDbEntity
  8
Excavated STPs
100
AcDbHatch
 10
0.0
 20
0.0
 30
0.0
210
0.0
220
0.0
230
1.0
  2
SOLID
 70
     1
 71
     0
 91
        1
 92
        1
 93
        1
 72
     2
 10
314799.941978711
 20
1990828.10061753
 40
0.25
 50
0.0
 51
360.0
 73
     1
 97
        0
 75
     0
 76
     1
 98
        1
 10
0.0
 20
0.0
450
        0
451
        0
460
0.0
461
0.0
452
        0
462
0.0
453
        0
470

  0
HATCH
  5
333
330
66A
100
AcDbEntity
  8
Excavated STPs
100
AcDbHatch
 10
0.0
 20
0.0
 30
0.0
210
0.0
220
0.0
230
1.0
  2
SOLID
 70
     1
 71
     0
 91
        1
 92
        1
 93
        1
 72
     2
 10
314800.065997497
 20
1990822.022216069
 40
0.25
 50
0.0
 51
360.0
 73
     1
 97
        0
 75
     0
 76
     1
 98
        1
 10
0.0
 20
0.0
450
        0
451
        0
460
0.0
461
0.0
452
        0
462
0.0
453
        0
470

  0
HATCH
  5
334
330
66A
100
AcDbEntity
  8
Excavated STPs
100
AcDbHatch
 10
0.0
 20
0.0
 30
0.0
210
0.0
220
0.0
230
1.0
  2
SOLID
 70
     1
 71
     0
 91
        1
 92
        1
 93
        1
 72
     2
 10
314794.004236421
 20
1990815.969786689
 40
0.25
 50
0.0
 51
360.0
 73
     1
 97
        0
 75
     0
 76
     1
 98
        1
 10
0.0
 20
0.0
450
        0
451
        0
460
0.0
461
0.0
452
        0
462
0.0
453
        0
470

  0
HATCH
  5
335
330
66A
100
AcDbEntity
  8
Excavated STPs
100
AcDbHatch
 10
0.0
 20
0.0
 30
0.0
210
0.0
220
0.0
230
1.0
  2
SOLID
 70
     1
 71
     0
 91
        1
 92
        1
 93
        1
 72
     2
 10
314799.5759856931
 20
1990816.5306291
 40
0.25
 50
0.0
 51
360.0
 73
     1
 97
        0
 75
     0
 76
     1
 98
        1
 10
0.0
 20
0.0
450
        0
451
        0
460
0.0
461
0.0
452
        0
462
0.0
453
        0
470

  0
HATCH
  5
336
330
66A
100
AcDbEntity
  8
Excavated STPs
100
AcDbHatch
 10
0.0
 20
0.0
 30
0.0
210
0.0
220
0.0
230
1.0
  2
SOLID
 70
     1
 71
     0
 91
        1
 92
        1
 93
        1
 72
     2
 10
314787.5218310971
 20
1990816.153299241
 40
0.25
 50
0.0
 51
360.0
 73
     1
 97
        0
 75
     0
 76
     1
 98
        1
 10
0.0
 20
0.0
450
        0
451
        0
460
0.0
461
0.0
452
        0
462
0.0
453
        0
470

  0
HATCH
  5
337
330
66A
100
AcDbEntity
  8
Excavated STPs
100
AcDbHatch
 10
0.0
 20
0.0
 30
0.0
210
0.0
220
0.0
230
1.0
  2
SOLID
 70
     1
 71
     0
 91
        1
 92
        1
 93
        1
 72
     2
 10
314805.9151652471
 20
1990834.02014199
 40
0.25
 50
0.0
 51
360.0
 73
     1
 97
        0
 75
     0
 76
     1
 98
        1
 10
0.0
 20
0.0
450
        0
451
        0
460
0.0
461
0.0
452
        0
462
0.0
453
        0
470

  0
LWPOLYLINE
  5
33C
330
66A
100
AcDbEntity
  8
Driveway
370
    13
100
AcDbPolyline
 90
       10
 70
   128
 43
0.0
 10
314855.764259
 20
1990912.615547
 10
314850.484792
 20
1990907.057673
 10
314844.956746
 20
1990901.293009
 10
314840.14571
 20
1990895.288579
 10
314836.866551
 20
1990889.962258
 10
314836.757521
 20
1990885.526289
 10
314839.951632
 20
1990884.196092
 10
314842.370566
 20
1990883.814736
 10
314844.445654
 20
1990882.62551
 10
314845.06522
 20
1990882.012401
  0
LWPOLYLINE
  5
33F
330
66A
100
AcDbEntity
  8
Driveway
370
    13
100
AcDbPolyline
 90
       11
 70
   128
 43
0.0
 10
314832.869416
 20
1990869.216458
 10
314827.334203
 20
1990872.056855
 10
314823.94203
 20
1990876.181645
 10
314823.799488
 20
1990879.834611
 10
314825.357228
 20
1990882.080104
 10
314832.840167
 20
1990888.542361
 10
314834.95135
 20
1990892.973184
 10
314837.446452
 20
1990896.840146
 10
314839.658627
 20
1990898.968857
 10
314849.352477
 20
1990909.97258
 10
314853.903477
 20
1990914.076432
  0
LWPOLYLINE
  5
340
330
66A
100
AcDbEntity
  8
Modern House
370
    13
100
AcDbPolyline
 90
       12
 70
   128
 43
0.0
 10
314841.599902
 20
1990880.492606
 10
314843.020549
 20
1990870.84328
 10
314832.963135
 20
1990869.176533
 10
314833.752817
 20
1990863.756233
 10
314849.990189
 20
1990866.715655
 10
314849.263739
 20
1990871.083496
 10
314849.263739
 20
1990871.083496
 10
314848.369939
 20
1990877.578033
 10
314851.564553
 20
1990878.109246
 10
314850.845441
 20
1990882.386991
 10
314845.430367
 20
1990881.689515
 10
314841.599902
 20
1990880.492606
  0
HATCH
  5
345
330
66A
100
AcDbEntity
  8
Excavated STPs
100
AcDbHatch
 10
0.0
 20
0.0
 30
0.0
210
0.0
220
0.0
230
1.0
  2
SOLID
 70
     1
 71
     0
 91
        1
 92
        1
 93
        1
 72
     2
 10
314812.0239239592
 20
1990852.04909097
 40
0.25
 50
0.0
 51
360.0
 73
     1
 97
        0
 75
     0
 76
     1
 98
        1
 10
0.0
 20
0.0
450
        0
451
        0
460
0.0
461
0.0
452
        0
462
0.0
453
        0
470

  0
HATCH
  5
346
330
66A
100
AcDbEntity
  8
Excavated STPs
100
AcDbHatch
 10
0.0
 20
0.0
 30
0.0
210
0.0
220
0.0
230
1.0
  2
SOLID
 70
     1
 71
     0
 91
        1
 92
        1
 93
        1
 72
     2
 10
314816.1308194346
 20
1990870.368990044
 40
0.25
 50
0.0
 51
360.0
 73
     1
 97
        0
 75
     0
 76
     1
 98
        1
 10
0.0
 20
0.0
450
        0
451
        0
460
0.0
461
0.0
452
        0
462
0.0
453
        0
470

  0
HATCH
  5
347
330
66A
100
AcDbEntity
  8
Excavated STPs
100
AcDbHatch
 10
0.0
 20
0.0
 30
0.0
210
0.0
220
0.0
230
1.0
  2
SOLID
 70
     1
 71
     0
 91
        1
 92
        1
 93
        1
 72
     2
 10
314830.0154368101
 20
1990869.44740313
 40
0.25
 50
0.0
 51
360.0
 73
     1
 97
        0
 75
     0
 76
     1
 98
        1
 10
0.0
 20
0.0
450
        0
451
        0
460
0.0
461
0.0
452
        0
462
0.0
453
        0
470

  0
HATCH
  5
348
330
66A
100
AcDbEntity
  8
Excavated STPs
100
AcDbHatch
 10
0.0
 20
0.0
 30
0.0
210
0.0
220
0.0
230
1.0
  2
SOLID
 70
     1
 71
     0
 91
        1
 92
        1
 93
        1
 72
     2
 10
314824.0764769511
 20
1990869.91140051
 40
0.25
 50
0.0
 51
360.0
 73
     1
 97
        0
 75
     0
 76
     1
 98
        1
 10
0.0
 20
0.0
450
        0
451
        0
460
0.0
461
0.0
452
        0
462
0.0
453
        0
470

  0
HATCH
  5
349
330
66A
100
AcDbEntity
  8
Excavated STPs
100
AcDbHatch
 10
0.0
 20
0.0
 30
0.0
210
0.0
220
0.0
230
1.0
  2
SOLID
 70
     1
 71
     0
 91
        1
 92
        1
 93
        1
 72
     2
 10
314824.008647037
 20
1990864.00678575
 40
0.25
 50
0.0
 51
360.0
 73
     1
 97
        0
 75
     0
 76
     1
 98
        1
 10
0.0
 20
0.0
450
        0
451
        0
460
0.0
461
0.0
452
        0
462
0.0
453
        0
470

  0
HATCH
  5
34A
330
66A
100
AcDbEntity
  8
Excavated STPs
100
AcDbHatch
 10
0.0
 20
0.0
 30
0.0
210
0.0
220
0.0
230
1.0
  2
SOLID
 70
     1
 71
     0
 91
        1
 92
        1
 93
        1
 72
     2
 10
314854.679289438
 20
1990887.44674966
 40
0.25
 50
0.0
 51
360.0
 73
     1
 97
        0
 75
     0
 76
     1
 98
        1
 10
0.0
 20
0.0
450
        0
451
        0
460
0.0
461
0.0
452
        0
462
0.0
453
        0
470

  0
LWPOLYLINE
  5
34B
330
66A
100
AcDbEntity
  8
Units
  6
DGN Style 4
370
    13
100
AcDbPolyline
 90
        5
 70
   129
 43
0.0
 10
314827.013233
 20
1990867.001276
 10
314828.013233
 20
1990867.001276
 10
314828.013233
 20
1990868.001276
 10
314827.013233
 20
1990867.986289
 10
314827.013233
 20
1990867.001276
  0
LWPOLYLINE
  5
34C
330
66A
100
AcDbEntity
  8
Units
  6
DGN Style 4
370
    13
100
AcDbPolyline
 90
        4
 70
   128
 43
0.0
 10
314827.013233
 20
1990867.001276
 10
314827.013233
 20
1990866.001276
 10
314828.013233
 20
1990866.001276
 10
314828.013233
 20
1990867.001276
  0
TEXT
  5
34D
330
66A
100
AcDbEntity
  8
Modern House
  6
DGN Style 4
 62
     7
370
    13
100
AcDbText
 10
314836.599879
 20
1990866.611696
 30
0.0
 40
1.0
  1
Modern House
 50
9.191542
  7
Style-Garamond
 11
314836.440144
 21
1990867.598856
 31
0.0
100
AcDbText
 73
     3
  0
TEXT
  5
352
330
66A
100
AcDbEntity
  8
Areas
  6
DGN Style 4
 62
     7
370
    13
100
AcDbText
 10
314825.505328
 20
1990853.656932
 30
0.0
 40
2.0
  1
AREA 2
  7
Style-Garamond
 11
314825.505328
 21
1990855.656932
 31
0.0
100
AcDbText
 73
     3
  0
TEXT
  5
353
330
66A
100
AcDbEntity
  8
Areas
  6
DGN Style 4
 62
     7
370
    13
100
AcDbText
 10
314781.008595
 20
1990822.817815
 30
0.0
 40
2.0
  1
AREA 3
  7
Style-Garamond
 11
314781.008595
 21
1990824.817815
 31
0.0
100
AcDbText
 73
     3
  0
TEXT
  5
354
330
66A
100
AcDbEntity
  8
Areas
  6
DGN Style 4
 62
     7
370
    13
100
AcDbText
 10
314831.226336
 20
1990823.453673
 30
0.0
 40
2.0
  1
AREA 3
  7
Style-Garamond
 11
314831.226336
 21
1990825.453673
 31
0.0
100
AcDbText
 73
     3
  0
LWPOLYLINE
  5
378
330
66A
100
AcDbEntity
  8
Scale and North Arrow
  6
Continuous
 62
   250
370
     0
100
AcDbPolyline
 90
        5
 70
   129
 43
0.0
 10
314871.843881
 20
1990828.201973
 10
314903.61232
 20
1990828.201973
 10
314903.61232
 20
1990775.478193
 10
314871.843881
 20
1990775.478193
 10
314871.843881
 20
1990828.201973
  0
HATCH
  5
379
330
66A
100
AcDbEntity
  8
STPs
100
AcDbHatch
 10
0.0
 20
0.0
 30
0.0
210
0.0
220
0.0
230
1.0
  2
SOLID
 70
     1
 71
     0
 91
        1
 92
        1
 93
        1
 72
     2
 10
314876.5763900128
 20
1990821.029740664
 40
0.153382337066856
 50
0.0
 51
360.0
 73
     1
 97
        0
 75
     0
 76
     1
 98
        1
 10
0.0
 20
0.0
450
        0
451
        0
460
0.0
461
0.0
452
        0
462
0.0
453
        0
470

  0
LINE
  5
37C
330
66A
100
AcDbEntity
  8
Aqueduct
 62
   172
370
    13
100
AcDbLine
 10
314874.249962
 20
1990807.939248
 30
0.0
 11
314878.490668
 21
1990807.939248
 31
0.0
  0
LINE
  5
37D
330
66A
100
AcDbEntity
  8
Fence
370
    13
100
AcDbLine
 10
314874.379102
 20
1990804.422604
 30
0.0
 11
314878.619808
 21
1990804.422604
 31
0.0
  0
LINE
  5
37E
330
66A
100
AcDbEntity
  8
Road
370
    13
100
AcDbLine
 10
314874.379102
 20
1990801.092257
 30
0.0
 11
314878.619808
 21
1990801.092257
 31
0.0
  0
LWPOLYLINE
  5
387
330
66A
100
AcDbEntity
  8
Quadrats
100
AcDbPolyline
 90
        5
 70
   129
 43
0.0
 10
314875.878386
 20
1990812.470084
 10
314877.243819
 20
1990812.470084
 10
314877.243819
 20
1990811.104126
 10
314875.878386
 20
1990811.104126
 10
314875.878386
 20
1990812.470084
  0
TEXT
  5
388
330
66A
100
AcDbEntity
  8
Quadrats
 62
   250
100
AcDbText
 10
314876.191815
 20
1990811.325766
 30
0.0
 40
0.970469
  1
1
  7
Style-Garamond
 11
314876.191815
 21
1990812.296235
 31
0.0
100
AcDbText
 73
     3
  0
TEXT
  5
375
330
66A
100
AcDbEntity
  8
Trees
  6
DGN Style 3
 62
   250
370
    13
100
AcDbText
 10
314879.515205
 20
1990819.698953
 30
0.0
 40
1.227059
  1
Excavated shovel test pit
  7
Style-Garamond
 11
314879.515205
 21
1990820.926012
 31
0.0
100
AcDbText
 73
     3
  0
TEXT
  5
376
330
66A
100
AcDbEntity
  8
Trees
  6
DGN Style 3
 62
   250
370
    13
100
AcDbText
 10
314879.258221
 20
1990811.168715
 30
0.0
 40
1.227059
  1
Excavated test unit (Test Unit 1)
  7
Style-Garamond
 11
314879.258221
 21
1990812.395774
 31
0.0
100
AcDbText
 73
     3
  0
TEXT
  5
381
330
66A
100
AcDbEntity
  8
Trees
  6
DGN Style 3
 62
   250
370
    13
100
AcDbText
 10
314879.462393
 20
1990803.999298
 30
0.0
 40
1.227059
  1
Fence (modern)
  7
Style-Garamond
 11
314879.462393
 21
1990805.226357
 31
0.0
100
AcDbText
 73
     3
  0
TEXT
  5
386
330
66A
100
AcDbEntity
  8
STP labels
  6
DGN Style 3
 62
   250
100
AcDbText
 10
314875.820687
 20
1990819.455669
 30
0.0
 40
1.227059
  1
06
  7
Style-Garamond
 11
314875.820687
 21
1990820.682728
 31
0.0
100
AcDbText
 73
     3
  0
LINE
  5
39E
330
66A
100
AcDbEntity
  8
Aqueduct
 62
   172
370
    13
100
AcDbLine
 10
314874.249962
 20
1990808.93243
 30
0.0
 11
314878.490668
 21
1990808.93243
 31
0.0
  0
TEXT
  5
39F
330
66A
100
AcDbEntity
  8
Areas
  6
DGN Style 4
 62
     7
370
    13
100
AcDbText
 10
314827.342486
 20
1990866.264842
 30
0.0
 40
0.5
  1
1
  7
Style-Garamond
 11
314827.342486
 21
1990866.764842
 31
0.0
100
AcDbText
 73
     3
  0
TEXT
  5
3A0
330
66A
100
AcDbEntity
  8
Areas
  6
DGN Style 4
 62
     7
370
    13
100
AcDbText
 10
314827.318199
 20
1990867.277104
 30
0.0
 40
0.5
  1
2
  7
Style-Garamond
 11
314827.318199
 21
1990867.777104
 31
0.0
100
AcDbText
 73
     3
  0
TEXT
  5
380
330
66A
100
AcDbEntity
  8
Trees
  6
DGN Style 3
 62
   250
370
    13
100
AcDbText
 10
314879.357263
 20
1990807.74548
 30
0.0
 40
1.227059
  1
Gulley
  7
Style-Garamond
 11
314879.357263
 21
1990808.972539
 31
0.0
100
AcDbText
 73
     3
  0
TEXT
  5
382
330
66A
100
AcDbEntity
  8
Trees
  6
DGN Style 3
 62
   250
370
    13
100
AcDbText
 10
314879.486403
 20
1990800.511473
 30
0.0
 40
1.227059
  1
Driveway (modern)
  7
Style-Garamond
 11
314879.486403
 21
1990801.738532
 31
0.0
100
AcDbText
 73
     3
  0
CIRCLE
  5
3A1
330
66A
100
AcDbEntity
  8
Scale and North Arrow
370
    13
100
AcDbCircle
 10
314819.161707
 20
1990777.760924
 30
0.0
 40
2.876712384945679
  0
LWPOLYLINE
  5
3A2
330
66A
100
AcDbEntity
  8
Scale and North Arrow
370
    13
100
AcDbPolyline
 90
        4
 70
   129
 43
0.0
 10
314816.284994
 20
1990777.760924
 10
314819.161707
 20
1990780.637636
 10
314822.038419
 20
1990777.760924
 10
314816.284994
 20
1990777.760924
  0
LINE
  5
3A3
330
66A
100
AcDbEntity
  8
Scale and North Arrow
370
    13
100
AcDbLine
 10
314819.161707
 20
1990777.760924
 30
0.0
 11
314819.161707
 21
1990774.884211
 31
0.0
  0
LWPOLYLINE
  5
3A4
330
66A
100
AcDbEntity
  8
Trees
370
    13
100
AcDbPolyline
 90
        5
 70
   129
 43
0.0
 10
314839.160645
 20
1990775.420939
 10
314839.160645
 20
1990776.420939
 10
314829.160645
 20
1990776.420939
 10
314829.160645
 20
1990775.420939
 10
314839.160645
 20
1990775.420939
  0
LWPOLYLINE
  5
3A7
330
66A
100
AcDbEntity
  8
Trees
370
    13
100
AcDbPolyline
 90
        5
 70
   129
 43
0.0
 10
314849.160645
 20
1990776.420939
 10
314849.160645
 20
1990777.420939
 10
314839.160645
 20
1990777.420939
 10
314839.160645
 20
1990776.420939
 10
314849.160645
 20
1990776.420939
  0
SOLID
  5
3AA
330
66A
100
AcDbEntity
  8
Trees
370
    13
100
AcDbTrace
 10
-314839.160645
 20
1990776.420939
 30
0.0
 11
-314839.160645
 21
1990777.420939
 31
0.0
 12
-314829.160645
 22
1990776.420939
 32
0.0
 13
-314829.160645
 23
1990777.420939
 33
0.0
210
0.0
220
0.0
230
-1.0
  0
SOLID
  5
3AD
330
66A
100
AcDbEntity
  8
Trees
370
    13
100
AcDbTrace
 10
-314849.160645
 20
1990775.420939
 30
0.0
 11
-314849.160645
 21
1990776.420939
 31
0.0
 12
-314839.160645
 22
1990775.420939
 32
0.0
 13
-314839.160645
 23
1990776.420939
 33
0.0
210
0.0
220
0.0
230
-1.0
  0
TEXT
  5
3B0
330
66A
100
AcDbEntity
  8
Scale and North Arrow
370
    13
100
AcDbText
 10
314828.177277
 20
1990778.427958
 30
0.0
 40
2.0
  1
0
  7
Style-Garamond
 11
314828.177277
 21
1990780.427958
 31
0.0
100
AcDbText
 73
     3
  0
TEXT
  5
3B1
330
66A
100
AcDbEntity
  8
Scale and North Arrow
370
    13
100
AcDbText
 10
314838.177277
 20
1990778.427958
 30
0.0
 40
2.0
  1
10
  7
Style-Garamond
 11
314838.177277
 21
1990780.427958
 31
0.0
100
AcDbText
 73
     3
  0
TEXT
  5
3B2
330
66A
100
AcDbEntity
  8
Scale and North Arrow
370
    13
100
AcDbText
 10
314848.177277
 20
1990778.427958
 30
0.0
 40
2.0
  1
20
  7
Style-Garamond
 11
314848.177277
 21
1990780.427958
 31
0.0
100
AcDbText
 73
     3
  0
TEXT
  5
3B3
330
66A
100
AcDbEntity
  8
Scale and North Arrow
370
    13
100
AcDbText
 10
314828.64845
 20
1990772.616821
 30
0.0
 40
2.0
  1
Meters
  7
Style-Garamond
 11
314828.64845
 21
1990774.616821
 31
0.0
100
AcDbText
 73
     3
  0
OLE2FRAME
  5
3B5
330
66A
100
AcDbEntity
  8
Quadrats
  6
Continuous
370
     0
100
AcDbOle2Frame
 70
     2
  3
Picture (Enhanced Metafile)
 10
314912.153179
 20
1990788.38611
 30
0.0
 11
314929.736711
 21
1990775.440754
 31
0.0
 71
     3
 72
     1
 73
     1
 90
    13440
310
81555309DB9C80381341391FD86284603E410000000000000000854964F2C638
310
1341391FD86284603E410000000000000000854964F2C63813411449D5707760
310
3E4100000000000000005309DB9C803813411449D57077603E41000000000000
310
0000000000000000000000010000020000000000000000000100000000340000
310
D0CF11E0A1B11AE1000000000000000000000000000000003E000300FEFF0900
310
0600000000000000000000000100000001000000000000000010000002000000
310
01000000FEFFFFFF0000000000000000FFFFFFFFFFFFFFFFFFFFFFFFFFFFFFFF
310
FFFFFFFFFFFFFFFFFFFFFFFFFFFFFFFFFFFFFFFFFFFFFFFFFFFFFFFFFFFFFFFF
310
FFFFFFFFFFFFFFFFFFFFFFFFFFFFFFFFFFFFFFFFFFFFFFFFFFFFFFFFFFFFFFFF
310
FFFFFFFFFFFFFFFFFFFFFFFFFFFFFFFFFFFFFFFFFFFFFFFFFFFFFFFFFFFFFFFF
310
FFFFFFFFFFFFFFFFFFFFFFFFFFFFFFFFFFFFFFFFFFFFFFFFFFFFFFFFFFFFFFFF
310
FFFFFFFFFFFFFFFFFFFFFFFFFFFFFFFFFFFFFFFFFFFFFFFFFFFFFFFFFFFFFFFF
310
FFFFFFFFFFFFFFFFFFFFFFFFFFFFFFFFFFFFFFFFFFFFFFFFFFFFFFFFFFFFFFFF
310
FFFFFFFFFFFFFFFFFFFFFFFFFFFFFFFFFFFFFFFFFFFFFFFFFFFFFFFFFFFFFFFF
310
FFFFFFFFFFFFFFFFFFFFFFFFFFFFFFFFFFFFFFFFFFFFFFFFFFFFFFFFFFFFFFFF
310
FFFFFFFFFFFFFFFFFFFFFFFFFFFFFFFFFFFFFFFFFFFFFFFFFFFFFFFFFFFFFFFF
310
FFFFFFFFFFFFFFFFFFFFFFFFFFFFFFFFFFFFFFFFFFFFFFFFFFFFFFFFFFFFFFFF
310
FFFFFFFFFFFFFFFFFFFFFFFFFFFFFFFFFFFFFFFFFFFFFFFFFFFFFFFFFFFFFFFF
310
FFFFFFFFFFFFFFFFFFFFFFFFFFFFFFFFFFFFFFFFFFFFFFFFFFFFFFFFFFFFFFFF
310
FFFFFFFFFFFFFFFFFFFFFFFFFFFFFFFFFFFFFFFFFFFFFFFFFFFFFFFFFFFFFFFF
310
FDFFFFFF18000000FEFFFFFFFEFFFFFF05000000060000000700000008000000
310
090000000A0000000B0000000C0000000D0000000E0000000F00000010000000
310
11000000120000001300000014000000150000001600000017000000FEFFFFFF
310
FEFFFFFFFFFFFFFFFFFFFFFFFFFFFFFFFFFFFFFFFFFFFFFFFFFFFFFFFFFFFFFF
310
FFFFFFFFFFFFFFFFFFFFFFFFFFFFFFFFFFFFFFFFFFFFFFFFFFFFFFFFFFFFFFFF
310
FFFFFFFFFFFFFFFFFFFFFFFFFFFFFFFFFFFFFFFFFFFFFFFFFFFFFFFFFFFFFFFF
310
FFFFFFFFFFFFFFFFFFFFFFFFFFFFFFFFFFFFFFFFFFFFFFFFFFFFFFFFFFFFFFFF
310
FFFFFFFFFFFFFFFFFFFFFFFFFFFFFFFFFFFFFFFFFFFFFFFFFFFFFFFFFFFFFFFF
310
FFFFFFFFFFFFFFFFFFFFFFFFFFFFFFFFFFFFFFFFFFFFFFFFFFFFFFFFFFFFFFFF
310
FFFFFFFFFFFFFFFFFFFFFFFFFFFFFFFFFFFFFFFFFFFFFFFFFFFFFFFFFFFFFFFF
310
FFFFFFFFFFFFFFFFFFFFFFFFFFFFFFFFFFFFFFFFFFFFFFFFFFFFFFFFFFFFFFFF
310
FFFFFFFFFFFFFFFFFFFFFFFFFFFFFFFFFFFFFFFFFFFFFFFFFFFFFFFFFFFFFFFF
310
FFFFFFFFFFFFFFFFFFFFFFFFFFFFFFFFFFFFFFFFFFFFFFFFFFFFFFFFFFFFFFFF
310
FFFFFFFFFFFFFFFFFFFFFFFFFFFFFFFFFFFFFFFFFFFFFFFFFFFFFFFFFFFFFFFF
310
FFFFFFFFFFFFFFFFFFFFFFFFFFFFFFFFFFFFFFFFFFFFFFFFFFFFFFFFFFFFFFFF
310
FFFFFFFFFFFFFFFFFFFFFFFFFFFFFFFFFFFFFFFFFFFFFFFFFFFFFFFFFFFFFFFF
310
52006F006F007400200045006E00740072007900000000000000000000000000
310
0000000000000000000000000000000000000000000000000000000000000000
310
16000500FFFFFFFFFFFFFFFF020000001903000000000000C000000000000046
310
00000000000000000000000040F478D70614CD0103000000C000000000000000
310
01004F006C006500000000000000000000000000000000000000000000000000
310
0000000000000000000000000000000000000000000000000000000000000000
310
0A000201FFFFFFFFFFFFFFFFFFFFFFFF00000000000000000000000000000000
310
0000000000000000000000000000000000000000000000001400000000000000
310
010043006F006D0070004F0062006A0000000000000000000000000000000000
310
0000000000000000000000000000000000000000000000000000000000000000
310
120002010100000003000000FFFFFFFF00000000000000000000000000000000
310
0000000000000000000000000000000000000000010000006F00000000000000
310
43004F004E00540045004E005400530000000000000000000000000000000000
310
0000000000000000000000000000000000000000000000000000000000000000
310
12000201FFFFFFFFFFFFFFFFFFFFFFFF00000000000000000000000000000000
310
0000000000000000000000000000000000000000040000008027000000000000
310
FEFFFFFF02000000FEFFFFFFFFFFFFFFFFFFFFFFFFFFFFFFFFFFFFFFFFFFFFFF
310
FFFFFFFFFFFFFFFFFFFFFFFFFFFFFFFFFFFFFFFFFFFFFFFFFFFFFFFFFFFFFFFF
310
FFFFFFFFFFFFFFFFFFFFFFFFFFFFFFFFFFFFFFFFFFFFFFFFFFFFFFFFFFFFFFFF
310
FFFFFFFFFFFFFFFFFFFFFFFFFFFFFFFFFFFFFFFFFFFFFFFFFFFFFFFFFFFFFFFF
310
FFFFFFFFFFFFFFFFFFFFFFFFFFFFFFFFFFFFFFFFFFFFFFFFFFFFFFFFFFFFFFFF
310
FFFFFFFFFFFFFFFFFFFFFFFFFFFFFFFFFFFFFFFFFFFFFFFFFFFFFFFFFFFFFFFF
310
FFFFFFFFFFFFFFFFFFFFFFFFFFFFFFFFFFFFFFFFFFFFFFFFFFFFFFFFFFFFFFFF
310
FFFFFFFFFFFFFFFFFFFFFFFFFFFFFFFFFFFFFFFFFFFFFFFFFFFFFFFFFFFFFFFF
310
FFFFFFFFFFFFFFFFFFFFFFFFFFFFFFFFFFFFFFFFFFFFFFFFFFFFFFFFFFFFFFFF
310
FFFFFFFFFFFFFFFFFFFFFFFFFFFFFFFFFFFFFFFFFFFFFFFFFFFFFFFFFFFFFFFF
310
FFFFFFFFFFFFFFFFFFFFFFFFFFFFFFFFFFFFFFFFFFFFFFFFFFFFFFFFFFFFFFFF
310
FFFFFFFFFFFFFFFFFFFFFFFFFFFFFFFFFFFFFFFFFFFFFFFFFFFFFFFFFFFFFFFF
310
FFFFFFFFFFFFFFFFFFFFFFFFFFFFFFFFFFFFFFFFFFFFFFFFFFFFFFFFFFFFFFFF
310
FFFFFFFFFFFFFFFFFFFFFFFFFFFFFFFFFFFFFFFFFFFFFFFFFFFFFFFFFFFFFFFF
310
FFFFFFFFFFFFFFFFFFFFFFFFFFFFFFFFFFFFFFFFFFFFFFFFFFFFFFFFFFFFFFFF
310
FFFFFFFFFFFFFFFFFFFFFFFFFFFFFFFFFFFFFFFFFFFFFFFFFFFFFFFFFFFFFFFF
310
0100000200000000000000000000000000000000D8526C086565656565656565
310
6565656565656565656565656565656565656565656565656565656565656565
310
0100FEFF030A0000FFFFFFFF1903000000000000C0000000000000461C000000
310
506963747572652028456E68616E636564204D65746166696C652900FFFFFFFF
310
0E00000017000000537461746963456E68616E6365644D65746166696C6500F4
310
39B2710000000000000000000000006565656565656565656565656565966565
310
6565656565656565656565656565656565656565656565656565656565656565
310
6565656565656565656565656565652165656565656565656565656565656565
310
6565656565656565656565656565656565656565656565656565656565656565
310
6565656565656565656565656565656565656565656565656565656565656565
310
6565656565656565656565656565656565656565656565656565656565656565
310
6565656565656565656565656565656565966565656565656565656565656565
310
6565656565656565656565656565656565656565656565656565656565656565
310
6565658A09656565656565656565656565656565656565656565656565656565
310
6565656565656565656565656565656565656565656565656565656565656565
310
65656565656565656565656565656565656565BF656517656565656565656565
310
74000000010000006C0000002A00000076FFFFFFB6000000DDFFFFFF21050000
310
27EFFFFF38160000BAFBFFFF20454D460000010008270000FE00000005000000
310
0D0000005800000000000000000400000003000040010000F000000041006400
310
6F00620065002000530079007300740000000000000000000100000074000000
310
2A00000076FFFFFFB6000000DDFFFFFF2105000027EFFFFF38160000BAFBFFFF
310
20454D460000010008270000FE000000050000000D0000005800000000000000
310
000400000003000040010000F0000000410064006F0062006500200053007900
310
7300740065006D0073000000110000000C00000008000000120000000C000000
310
010000000A0000001000000000000000000000000C0000001000000000000000
310
000000000900000010000000EC0400009F0300000B00000010000000A4010000
310
35010000520000004C01000001000000ECFFFFFF000000000000000000000000
310
90010000000000000702012241007200690061006C0000000000000000000000
310
0000000000000000000000000000000000000000000000000000000000000000
310
0000000000000000000000000000000000000000000000000000000000000000
310
0000000000000000000000000000000000000000000000000000000000000000
310
00000000000000000000000014D413005A523500C8E6430300000000A0D41300
310
38DB570E40D413008704AE013CD4130038DB570E6CE643038438B901ACE64303
310
0000000000000000000000000000000000000000000000000000000000000000
310
000000000000000000000000D800000074B9C60138200B0CD844210234D61300
310
90D4130038200B0CA8D413000000000000000000000000000000000000000000
310
00000000010101010101010101010000250000000C0000000100000018000000
310
0C00000000000000120000000C00000001000000160000000C00000018000000
310
24000000240000000000803F00000080000000800000803FC04BA743004F17C3
310
0200000054000000C800000070000000C8FFFFFF8A000000D0FFFFFF02000000
310
010000000100000000000000000000000D0000004C000000000000004F010000
310
59FFFFFF9F01000071FFFFFF680000004C00650073006C006900650020004300
310
6F006F0070006500720000000B0000000B0000000A0000000400000004000000
310
0B000000060000000E0000000B0000000B0000000B0000000B0000000B000000
310
0B0000000A00000004000000040000000B000000060000000E0000000B000000
310
0B0000000B0000000B00000023000000200000000000803F0000000000000000
310
0000803F0000000000000000180000000C00000000000000120000000C000000
310
01000000160000000C0000001800000024000000240000000000803F00000080
310
000000800000803F0051A74300C2EEC20200000054000000A000000070000000
310
D3FFFFFF84000000DBFFFFFF0200000001000000010000000000000000000000
310
090000004C000000000000004F01000079FFFFFF8B01000091FFFFFF60000000
310
41007500670075007300740020003200300000000D0000000B0000000B000000
310
0B0000000A00000006000000060000000B0000000D0000000B0000000B000000
310
0B0000000A00000006000000060000000B00000023000000200000000000803F
310
00000000000000000000803F0000000000000000180000000C00000000000000
310
120000000C00000001000000160000000C000000180000002400000024000000
310
0000803F00000080000000800000803F00E5D44300C2EEC20200000054000000
310
580000008E000000D3FFFFFF8E000000DBFFFFFF020000000100000001000000
310
0000000000000000010000004C00000000000000AA01000079FFFFFFAA010000
310
91FFFFFF50000000310000000E0000000E00000023000000200000000000803F
310
00000000000000000000803F0000000000000000180000000C00000000000000
310
120000000C00000001000000160000000C000000180000002400000024000000
310
0000803F00000080000000800000803FC0C5D94300C2EEC20200000054000000
310
5800000091000000D3FFFFFF91000000DBFFFFFF020000000100000001000000
310
0000000000000000010000004C00000000000000B401000079FFFFFFB4010000
310
91FFFFFF50000000310000000F0000000F00000023000000200000000000803F
310
00000000000000000000803F0000000000000000270000001800000002000000
310
010000000000000000000000250000000C000000020000005F00000034000000
310
030000002C000000000000002C00000000000000002201000200000000000000
310
0C0C0C000000000000000000250000000C000000030000003A0000000C000000
310
040000005B000000380000002B00000078FFFFFFB4000000DBFFFFFF01000000
310
05000000050000001A028FFF85008FFF85006AFE1A026AFE1A028FFF5F000000
310
34000000040000002C000000000000002C000000000000000022010002000000
310
00000000121111000000000000000000250000000C0000000400000028000000
310
0C000000030000003A0000000C000000040000005A0000002C0000002B000000
310
CFFFFFFFB4000000D1FFFFFF010000000200000002000000850070FF1A0270FF
310
3A0000000C000000040000005A0000002C0000006B000000C4FFFFFF6D000000
310
DBFFFFFF010000000200000002000000450150FF45018FFF5F00000034000000
310
030000002C000000000000002C00000000000000002201000200000000000000
310
0C0C0C000000000000000000250000000C00000003000000280000000C000000
310
040000003A0000000C000000040000005A0000002C0000002B000000DBFFFFFF
310
2D000000DDFFFFFF010000000200000002000000850095FF850095FF3A000000
310
0C000000040000005A0000002C0000002B000000C7FFFFFF2D000000C9FFFFFF
310
010000000200000002000000850057FF850057FF5F0000003400000004000000
310
2C000000000000002C000000000000000022010002000000000000000E0E0D00
310
0000000000000000250000000C00000004000000280000000C00000003000000
310
3A0000000C000000040000005B000000380000002900000075FFFFFFB7000000
310
DEFFFFFF010000000500000005000000210296FF7F0096FF7F0063FE210263FE
310
210296FF520000004C01000003000000E8FFFFFF000000000000000000000000
310
9001000000000000000002224D0079007200690061006400200052006F006D00
310
61006E0000000000000000000000000000000000000000000000000000000000
310
0000000000000000000000000000000000000000000000000000000000000000
310
0000000000000000000000000000000000000000000000000000000000000000
310
00000000000000000000000014D413005A523500ACE6430300000000A0D41300
310
B4A90B0C40D413008704AE013CD41300B4A90B0C6CE643038438B901ACE64303
310
0000000000000000000000000000000000000000000000000000000000000000
310
000000000000000000000000D800000074B9C60138200B0CD844210234D61300
310
3CD9570E40D9570EA8D413000000000000000000000000000000000000000000
310
00000000010101010101010101010000250000000C0000000300000028000000
310
0C00000001000000180000000C00000000000000120000000C00000001000000
310
160000000C0000001800000024000000240000000000803F0000008000000080
310
0000803F0030704300A83EC302000000540000005800000050000000BCFFFFFF
310
55000000C3FFFFFF020000000100000001000000000000000000000002000000
310
4C00000000000000F000000035FFFFFF0001000049FFFFFF5000000077007700
310
120000001200000023000000200000000000803F00000000000000000000803F
310
0000000000000000180000000C00000000000000120000000C00000001000000
310
160000000C0000001800000024000000240000000000803F0000008000000080
310
0000803FC0C1894300A83EC30200000054000000580000005C000000BCFFFFFF
310
5C000000C3FFFFFF020000000100000001000000000000000000000001000000
310
4C000000000000001401000035FFFFFF1401000049FFFFFF5000000077000000
310
040000000400000023000000200000000000803F00000000000000000000803F
310
0000000000000000180000000C00000000000000120000000C00000001000000
310
160000000C0000001800000024000000240000000000803F0000008000000080
310
0000803FC0FC914300A83EC302000000540000007800000061000000BAFFFFFF
310
6C000000C3FFFFFF020000000100000001000000000000000000000005000000
310
4C00000000000000240100002DFFFFFF4401000049FFFFFF580000002E006400
310
6100610063000000050000000E0000000C0000000C000000050000000E000000
310
0C0000000C00000023000000200000000000803F00000000000000000000803F
310
0000000000000000180000000C00000000000000120000000C00000001000000
310
160000000C0000001800000024000000240000000000803F0000008000000080
310
0000803F00C3AB4300A83EC302000000540000005800000073000000BCFFFFFF
310
73000000C3FFFFFF020000000100000001000000000000000000000001000000
310
4C000000000000005801000035FFFFFF5801000049FFFFFF5000000073000000
310
050000000500000023000000200000000000803F00000000000000000000803F
310
0000000000000000180000000C00000000000000120000000C00000001000000
310
160000000C0000001800000024000000240000000000803F0000008000000080
310
0000803F004FB04300A83EC302000000540000005800000076000000BCFFFFFF
310
77000000C3FFFFFF020000000100000001000000000000000000000002000000
310
4C000000000000006101000035FFFFFF6501000049FFFFFF500000002E006F00
310
050000000500000023000000200000000000803F00000000000000000000803F
310
0000000000000000180000000C00000000000000120000000C00000001000000
310
160000000C0000001800000024000000240000000000803F0000008000000080
310
0000803F003CB94300A83EC30200000054000000580000007B000000BCFFFFFF
310
7B000000C3FFFFFF020000000100000001000000000000000000000001000000
310
4C000000000000007201000035FFFFFF7201000049FFFFFF5000000072000000
310
050000000500000023000000200000000000803F00000000000000000000803F
310
0000000000000000180000000C00000000000000120000000C00000001000000
310
160000000C0000001800000024000000240000000000803F0000008000000080
310
0000803F4000BD4300A83EC30200000054000000580000007E000000BCFFFFFF
310
7E000000C2FFFFFF020000000100000001000000000000000000000001000000
310
4C000000000000007A01000035FFFFFF7A01000045FFFFFF5000000067000000
310
050000000500000023000000200000000000803F00000000000000000000803F
310
0000000000000000130000000C00000002000000270000001800000001000000
310
00000000CB8E4D0000000000250000000C00000001000000280000000C000000
310
020000005F00000034000000020000002C000000000000002C00000000000000
310
0022010002000000000000000C0C0C000000000000000000250000000C000000
310
02000000280000000C000000040000003A0000000C000000040000003B000000
310
080000001B00000010000000AD000000E4FEFFFF58000000C400000039000000
310
91FFFFFF4C000000AEFFFFFF2A000000AE00D2FEAE00D2FEAE00D2FEAE00CEFE
310
AE00C9FEAF00C3FEAF00BFFEAF00BCFEAF00BAFEAF00B8FEB000B7FEB100B6FE
310
B200B6FEB500B6FEBB00B6FEC800B6FED200BAFED800C2FEDF00CBFEE200D4FE
310
E200DFFEE200E6FEE000ECFEDE00F3FEDB00F9FED700FEFED20002FFCD0005FF
310
C70007FFBF0007FFB90007FFB50006FFB30005FFB00003FFAF0001FFAE00FFFE
310
AD00FCFEAD00F8FEAD00F2FEAD00F1FEAD00ECFEAD00E4FE3D00000008000000
310
1B00000010000000A1000000B3FEFFFF58000000240100003000000090FFFFFF
310
51000000AFFFFFFF420000009C00B2FE9900B2FE9900B2FE9800B2FE9700B2FE
310
9700B3FE9700B4FE9800B5FE9A00B5FE9C00B5FE9E00B6FE9F00B7FEA100B8FE
310
A100BAFEA200BEFEA200C2FEA300C6FEA300CAFEA200ECFEA200ECFEA200ECFE
310
A100F9FEA10000FF9F0002FF9E0004FF9B0006FF980006FF950007FF930007FF
310
930007FF920007FF920008FF920008FF920009FF930009FF940009FF970009FF
310
9F0009FFAD0009FFAE0009FFB20009FFB8000AFFBC000AFFBF000AFFC1000AFF
310
CC000AFFD40008FFDA0005FFE10002FFE600FDFEEA00F6FEEE00EFFEF000E8FE
310
F000DFFEF000D2FEEC00C8FEE300BFFEDA00B7FECE00B3FEBD00B3FEAF00B3FE
310
AF00B3FEAF00B3FEAA00B3FEA500B3FEA100B3FE3D000000080000003C000000
310
080000003F000000180000009F8601009F8601006179FEFF6179FEFF13000000
310
0C000000020000003A0000000C000000040000003B000000080000001B000000
310
1000000019010000D2FEFFFF58000000580000005500000094FFFFFF61000000
310
A2FFFFFF0F0000001B01D9FE1E01DFFE1F01E4FE0D01E4FE0D01E4FE0D01E4FE
310
0B01E4FE0801E4FE0301E4FE0901D4FE0E01C8FE1201C0FE1301C3FE1501C9FE
310
1901D2FE3D000000080000001B0000001000000003010000DBFEFFFF58000000
310
6C0100004D00000090FFFFFF6D000000AFFFFFFF54000000FE00EBFEFA00F6FE
310
F700FCFEF40002FFF00006FFEB0006FFEA0006FFEA0007FFEA0008FFEA0008FF
310
EA0009FFEC0009FFEE0009FFF30009FFFA0009FFFC0009FF000109FF070109FF
310
080109FF080109FF080108FF080107FF070107FF050107FF030107FF010106FF
310
FF0005FFFD0003FFFB0001FFFB00FFFEFB00FBFEFE00F4FE0201E8FE1401E8FE
310
1E01E7FE2101E7FE2401F3FE2401F3FE2401F3FE2701FAFE2801FFFE280101FF
310
280103FF280104FF260105FF250106FF220106FF1F0107FF1E0107FF1D0107FF
310
1D0108FF1D0109FF1E0109FF1F0109FF220109FF280109FF310109FF380109FF
310
3D0109FF410109FF420109FF420109FF420109FF420109FF430109FF430108FF
310
430107FF420107FF400107FF3C0106FF390105FF370101FF3501FEFE3101F4FE
310
2B01E5FE2301CDFE1C01BCFE1701B2FE1401B2FE1401B2FE1401B2FE0E01BFFE
310
0801CDFE0301DBFE3D000000080000003C000000080000003F00000018000000
310
9F8601009F8601006179FEFF6179FEFF130000000C0000000200000027000000
310
180000000400000000000000B35A150000000000250000000C00000004000000
310
280000000C000000010000003A0000000C000000040000003B00000008000000
310
1B000000100000004E010000BDFEFFFF58000000580000006000000087FFFFFF
310
75000000A2FFFFFF0F0000005401CCFE5901D8FE5C01E2FE3601E1FE3601E1FE
310
3601E1FE3201E1FE2C01E1FE2301E2FE2E01C1FE3701A9FE400198FE42019EFE
310
4701ABFE4E01BDFE3D000000080000001B0000001000000022010000D0FEFFFF
310
580000006C0100004E0000007DFFFFFF8D000000BBFFFFFF540000001701F1FE
310
0E0107FF090114FF040120FFFC0027FFF10028FFEF0029FFEE002AFFEE002BFF
310
EE002DFFEF002EFFF2002EFFF7002DFF01012DFF10012DFF13012DFF1C012EFF
310
2A012EFF2B012EFF2C012DFF2C012DFF2C012BFF2A012AFF27012AFF220129FF
310
1E0128FF190125FF150123FF12011EFF120119FF120112FF170103FF2001EAFE
310
4501E9FE5A01E9FE5E01E9FE660100FF660100FF660100FF6C0110FF6E0119FF
310
6E011DFF6E0121FF6D0124FF6A0126FF670128FF620129FF5A012AFF58012AFF
310
57012BFF57012CFF57012EFF59012EFF5B012EFF61012EFF6D012DFF81012DFF
310
8D012DFF98012EFFA0012EFFA2012FFFA2012FFFA2012FFFA3012FFFA4012EFF
310
A4012DFFA4012BFFA3012AFFA0012AFF960129FF900125FF8B011EFF870117FF
310
7F0103FF7401E3FE6301B2FE55018FFE4B017BFE45017BFE45017BFE45017BFE
310
380196FE2D01B2FE2201D0FE3D000000080000003C000000080000003F000000
310
180000009F8601009F8601006179FEFF6179FEFF130000000C00000002000000
310
27000000180000000100000000000000CB8E4D0000000000250000000C000000
310
01000000280000000C000000040000003A0000000C000000040000003B000000
310
080000001B00000010000000BF010000B7FEFFFF58000000780100007E000000
310
8FFFFFFF9A000000AFFFFFFF57000000C101B5FEC201B3FEC301B2FEC301B1FE
310
C401B1FEC501B1FEC601B1FEC601B2FEC601B3FEC801CAFEC801CAFEC801CAFE
310
C801CBFEC801CCFEC701CCFEC701CDFEC701CDFEC601CDFEC601CDFEC501CCFE
310
C401CAFEC101C3FEBD01BDFEB801B9FEB301B5FEAD01B2FEA701B2FEA201B2FE
310
9D01B4FE9901B7FE9401BBFE9101C0FE8E01C6FE8C01CCFE8B01D3FE8B01DAFE
310
8B01E7FE8E01F1FE9501F9FE9C0100FFA30104FFAC0104FFB20104FFB70102FF
310
BC01FFFEC001FBFEC401F7FEC601F2FEC701F1FEC801F0FEC801F0FEC901F0FE
310
CA01F1FECA01F2FECA01F3FEC801F6FEC501FAFEC201FEFEBD0102FFB80105FF
310
B20107FFAD0109FFA60109FF9F0109FF980107FF920103FF8B01FFFE8601FAFE
310
8201F4FE7E01EDFE7C01E5FE7C01DDFE7C01D4FE7E01CCFE8201C5FE8601BEFE
310
8B01B9FE9201B5FE9801B1FE9F01B0FEA701B0FEAA01B0FEAE01B0FEB201B1FE
310
B601B3FEBA01B4FEBF01B7FE3D000000080000003C000000080000003F000000
310
180000009F8601009F8601006179FEFF6179FEFF130000000C00000002000000
310
3A0000000C000000040000003B000000080000001B0000001000000000020000
310
B6FEFFFF58000000E40100009A0000008FFFFFFFB0000000AEFFFFFF72000000
310
0102B5FE0202B4FE0202B2FE0202B1FE0302B1FE0402B1FE0402B1FE0402B1FE
310
0502B1FE0502B3FE0502B6FE0602BBFE0702C7FE0702C7FE0702C7FE0702C8FE
310
0702C8FE0602C8FE0602C8FE0502C8FE0502C7FE0202C1FEFF01BDFEFA01B9FE
310
F601B5FEF101B3FEEB01B3FEE601B3FEE201B5FEDF01B8FEDD01BBFEDB01BEFE
310
DB01C2FEDB01C6FEDD01CAFEE001CCFEE301CEFEE901D1FEF201D4FEF901D6FE
310
FE01D8FE0102DAFE0402DCFE0702DFFE0902E2FE0C02E6FE0D02E9FE0D02EDFE
310
0D02F4FE0A02FBFE040200FFFE0105FFF70108FFEF0108FFE80108FFE00106FF
310
D90101FFD70102FFD60104FFD60105FFD50107FFD50108FFD40108FFD30108FF
310
D30107FFD30105FFD20103FFD201FBFED101ECFED101EBFED101EBFED201EBFE
310
D301EBFED301EBFED401ECFEDA01FDFEE40106FFF00106FFF60106FFFA0104FF
310
FE0100FF0102FDFE0302F8FE0302F4FE0302F1FE0202EEFE0002EBFEFE01E8FE
310
FC01E6FEF901E4FEF601E3FEF101E1FEEB01DFFEE201DCFEDD01DAFEDA01D7FE
310
D701D5FED501D2FED301CFFED201CCFED101C9FED101C6FED101C1FED401BCFE
310
D901B7FEDE01B3FEE501B0FEED01B0FEF001B0FEF301B1FEF601B2FEF901B3FE
310
FC01B4FE0002B6FE3D000000080000003C000000080000003F00000018000000
310
9F8601009F8601006179FEFF6179FEFF27000000180000000400000001000000
310
0000000000000000250000000C00000004000000280000000C00000001000000
310
5F00000034000000010000002C000000000000002C0000000000000000220100
310
0200000000000000121111000000000000000000250000000C00000001000000
310
280000000C000000020000003A0000000C000000040000005A0000002C000000
310
2B000000C4FFFFFFB4000000C6FFFFFF010000000200000002000000850050FF
310
1A0250FF520000004C01000002000000ECFFFFFF000000000000000000000000
310
9001000000000000000002224D0079007200690061006400200052006F006D00
310
61006E0000000000000000000000000000000000000000000000000000000000
310
0000000000000000000000000000000000000000000000000000000000000000
310
0000000000000000000000000000000000000000000000000000000000000000
310
000000000000000000000000703F3500D4713700E8D3130084D41300E0C53600
310
0200000040D413008704AE013CD413006CE643036CE643034C5C2509ACE64303
310
0000000000000000000000000000000000000000000000000000000000000000
310
000000000000000000000000D800000074B9C60138200B0CD844210234D61300
310
90D4130038200B0CA8D413000000000000000000000000000000000000000000
310
00000000010101010101010101010000250000000C0000000200000028000000
310
0C00000003000000180000000C00000000000000120000000C00000001000000
310
160000000C0000001800000024000000240000000000803F0000008000000080
310
0000803F00635743004F17C302000000540000005800000048000000C8FFFFFF
310
48000000D0FFFFFF020000000100000001000000000000000000000001000000
310
4C00000000000000D700000059FFFFFFD700000071FFFFFF5000000043000000
310
040000000400000023000000200000000000803F00000000000000000000803F
310
0000000000000000180000000C00000000000000120000000C00000001000000
310
160000000C0000001800000024000000240000000000803F0000008000000080
310
0000803F80AB6343004F17C30200000054000000580000004C000000CAFFFFFF
310
4C000000CFFFFFFF020000000100000001000000000000000000000001000000
310
4C00000000000000E40000005DFFFFFFE40000006DFFFFFF5000000072000000
310
040000000400000023000000200000000000803F00000000000000000000803F
310
0000000000000000180000000C00000000000000120000000C00000001000000
310
160000000C0000001800000024000000240000000000803F0000008000000080
310
0000803F006B6A43004F17C30200000054000000580000004E000000CAFFFFFF
310
4E000000D0FFFFFF020000000100000001000000000000000000000001000000
310
4C00000000000000EA0000005DFFFFFFEA00000071FFFFFF5000000065000000
310
040000000400000023000000200000000000803F00000000000000000000803F
310
0000000000000000180000000C00000000000000120000000C00000001000000
310
160000000C0000001800000024000000240000000000803F0000008000000080
310
0000803F00157543004F17C302000000540000005800000052000000CAFFFFFF
310
52000000D0FFFFFF020000000100000001000000000000000000000001000000
310
4C00000000000000F50000005DFFFFFFF500000071FFFFFF5000000061000000
310
040000000400000023000000200000000000803F00000000000000000000803F
310
0000000000000000180000000C00000000000000120000000C00000001000000
310
160000000C0000001800000024000000240000000000803F0000008000000080
310
0000803F00427F43004F17C302000000540000005800000055000000CAFFFFFF
310
55000000D0FFFFFF020000000100000001000000000000000000000001000000
310
4C00000000000000FF0000005DFFFFFFFF00000071FFFFFF5000000074000000
310
040000000400000023000000200000000000803F00000000000000000000803F
310
0000000000000000180000000C00000000000000120000000C00000001000000
310
160000000C0000001800000024000000240000000000803F0000008000000080
310
0000803F80168343004F17C302000000540000005800000057000000C8FFFFFF
310
5D000000D0FFFFFF020000000100000001000000000000000000000002000000
310
4C000000000000000601000059FFFFFF1601000071FFFFFF5000000065006400
310
0A0000000A00000023000000200000000000803F00000000000000000000803F
310
0000000000000000180000000C00000000000000120000000C00000001000000
310
160000000C0000001800000024000000240000000000803F0000008000000080
310
0000803F00AE9043004F17C302000000540000005800000060000000C8FFFFFF
310
60000000D0FFFFFF020000000100000001000000000000000000000001000000
310
4C000000000000002101000059FFFFFF2101000071FFFFFF5000000062000000
310
040000000400000023000000200000000000803F00000000000000000000803F
310
0000000000000000180000000C00000000000000120000000C00000001000000
310
160000000C0000001800000024000000240000000000803F0000008000000080
310
0000803F80A99643004F17C302000000540000005800000064000000CAFFFFFF
310
64000000CFFFFFFF020000000100000001000000000000000000000001000000
310
4C000000000000002D0100005DFFFFFF2D0100006DFFFFFF5000000079000000
310
050000000500000023000000200000000000803F00000000000000000000803F
310
0000000000000000180000000C00000000000000120000000C00000001000000
310
160000000C0000001800000024000000240000000000803F0000008000000080
310
0000803F40EE9B43004F17C302000000540000005800000068000000CAFFFFFF
310
68000000CFFFFFFF020000000100000001000000000000000000000001000000
310
4C00000000000000380100005DFFFFFF380100006DFFFFFF500000003A000000
310
040000000400000023000000200000000000803F00000000000000000000803F
310
0000000000000000180000000C00000000000000120000000C00000001000000
310
160000000C0000001800000024000000240000000000803F0000008000000080
310
0000803F80F6864300C2EEC20200000054000000580000005A000000D3FFFFFF
310
5A000000DBFFFFFF020000000100000001000000000000000000000001000000
310
4C000000000000000E01000079FFFFFF0E01000091FFFFFF5000000044000000
310
040000000400000023000000200000000000803F00000000000000000000803F
310
0000000000000000180000000C00000000000000120000000C00000001000000
310
160000000C0000001800000024000000240000000000803F0000008000000080
310
0000803F400D8E4300C2EEC20200000054000000580000005F000000D4FFFFFF
310
5F000000DBFFFFFF020000000100000001000000000000000000000001000000
310
4C000000000000001C0100007DFFFFFF1C01000091FFFFFF5000000061000000
310
040000000400000023000000200000000000803F00000000000000000000803F
310
0000000000000000180000000C00000000000000120000000C00000001000000
310
160000000C0000001800000024000000240000000000803F0000008000000080
310
0000803FC023934300C2EEC202000000540000005800000062000000D4FFFFFF
310
62000000DBFFFFFF020000000100000001000000000000000000000001000000
310
4C00000000000000260100007DFFFFFF2601000091FFFFFF5000000074000000
310
040000000400000023000000200000000000803F00000000000000000000803F
310
0000000000000000180000000C00000000000000120000000C00000001000000
310
160000000C0000001800000024000000240000000000803F0000008000000080
310
0000803F4099964300C2EEC202000000540000005800000064000000D4FFFFFF
310
67000000DBFFFFFF020000000100000001000000000000000000000002000000
310
4C000000000000002D0100007DFFFFFF3501000091FFFFFF5000000065003A00
310
0A0000000A00000023000000200000000000803F00000000000000000000803F
310
0000000000000000280000000C00000001000000280000000C00000002000000
310
280000000C000000040000000E00000014000000000000001000000014000000
310
7C666901946769010468690154686901646869018468690194686901E0686901
310
386969017869690188696901106A6901546A6901986A6901006B6901506B6901
310
606B6901806B6901906B6901DC6B6901346C6901746C6901846C69010C6D6901
310
386D6901D46D6901FC6D69014C6E69015C6E69017C6E69018C6E6901D86E6901
310
43004F004E00540045004E005400530000000000000000000000000000000000
310
0000000000000000000000000000000000000000000000000000000000000000
310
12000000FFFFFFFFFFFFFFFFFFFFFFFF00000000000000000000000000000000
310
0000000000000000000000000000000000000000FEFFFFFF0000000000000000
310
0000000000000000000000000000000000000000000000000000000000000000
310
0000000000000000000000000000000000000000000000000000000000000000
310
00000000FFFFFFFFFFFFFFFFFFFFFFFF00000000000000000000000000000000
310
0000000000000000000000000000000000000000000000000000000000000000
310
0000000000000000000000000000000000000000000000000000000000000000
310
0000000000000000000000000000000000000000000000000000000000000000
310
00000000FFFFFFFFFFFFFFFFFFFFFFFF00000000000000000000000000000000
310
0000000000000000000000000000000000000000000000000000000000000000
310
0000000000000000000000000000000000000000000000000000000000000000
310
0000000000000000000000000000000000000000000000000000000000000000
310
00000000FFFFFFFFFFFFFFFFFFFFFFFF00000000000000000000000000000000
310
0000000000000000000000000000000000000000000000000000000000000000
  1
OLE
1001
ACAD
1000
OLEBEGIN
1070
    70
1070
     1
1070
    71
1070
     0
1070
    40
1040
0.0
1070
    41
1040
17.583531
1070
    42
1040
12.945356
1070
    72
1070
     0
1070
     3
1000

1070
    90
1071
        0
1070
    43
1040
0.0
1070
     4
1000

1070
    91
1071
        0
1070
    44
1040
0.0
1000
OLEEND
  0
HATCH
  5
3B8
330
66A
100
AcDbEntity
  8
Excavated STPs
100
AcDbHatch
 10
0.0
 20
0.0
 30
0.0
210
0.0
220
0.0
230
1.0
  2
SOLID
 70
     1
 71
     0
 91
        1
 92
        1
 93
        1
 72
     2
 10
314824.011864429
 20
1990840.007077324
 40
0.25
 50
0.0
 51
360.0
 73
     1
 97
        0
 75
     0
 76
     1
 98
        1
 10
0.0
 20
0.0
450
        0
451
        0
460
0.0
461
0.0
452
        0
462
0.0
453
        0
470

  0
HATCH
  5
3C9
330
66A
100
AcDbEntity
  8
Excavated STPs
100
AcDbHatch
 10
0.0
 20
0.0
 30
0.0
210
0.0
220
0.0
230
1.0
  2
SOLID
 70
     1
 71
     0
 91
        1
 92
        1
 93
        1
 72
     2
 10
314835.880100857
 20
1990882.05922707
 40
0.25
 50
0.0
 51
360.0
 73
     1
 97
        0
 75
     0
 76
     1
 98
        1
 10
0.0
 20
0.0
450
        0
451
        0
460
0.0
461
0.0
452
        0
462
0.0
453
        0
470

  0
TEXT
  5
3CB
330
66A
100
AcDbEntity
  8
STP labels
  6
DGN Style 3
 62
   250
100
AcDbText
 10
314815.198742
 20
1990868.663882
 30
0.0
 40
1.227059
  1
06
  7
Style-Garamond
 11
314815.198742
 21
1990869.890941
 31
0.0
100
AcDbText
 73
     3
  0
TEXT
  5
3CC
330
66A
100
AcDbEntity
  8
STP labels
  6
DGN Style 3
 62
   250
100
AcDbText
 10
314817.228821
 20
1990862.252679
 30
0.0
 40
1.227059
  1
05
  7
Style-Garamond
 11
314817.228821
 21
1990863.479738
 31
0.0
100
AcDbText
 73
     3
  0
TEXT
  5
3CD
330
66A
100
AcDbEntity
  8
STP labels
  6
DGN Style 3
 62
   250
100
AcDbText
 10
314823.203053
 20
1990862.252679
 30
0.0
 40
1.227059
  1
05
  7
Style-Garamond
 11
314823.203053
 21
1990863.479738
 31
0.0
100
AcDbText
 73
     3
  0
TEXT
  5
3CE
330
66A
100
AcDbEntity
  8
STP labels
  6
DGN Style 3
 62
   250
100
AcDbText
 10
314829.177285
 20
1990862.252679
 30
0.0
 40
1.227059
  1
05
  7
Style-Garamond
 11
314829.177285
 21
1990863.479738
 31
0.0
100
AcDbText
 73
     3
  0
TEXT
  5
3CF
330
66A
100
AcDbEntity
  8
STP labels
  6
DGN Style 3
 62
   250
100
AcDbText
 10
314823.11605
 20
1990868.083682
 30
0.0
 40
1.227059
  1
06
  7
Style-Garamond
 11
314823.11605
 21
1990869.310741
 31
0.0
100
AcDbText
 73
     3
  0
TEXT
  5
3D0
330
66A
100
AcDbEntity
  8
STP labels
  6
DGN Style 3
 62
   250
100
AcDbText
 10
314829.206287
 20
1990867.706553
 30
0.0
 40
1.227059
  1
06
  7
Style-Garamond
 11
314829.206287
 21
1990868.933612
 31
0.0
100
AcDbText
 73
     3
  0
TEXT
  5
3D1
330
66A
100
AcDbEntity
  8
STP labels
  6
DGN Style 3
 62
   250
100
AcDbText
 10
314822.826038
 20
1990873.334487
 30
0.0
 40
1.227059
  1
07
  7
Style-Garamond
 11
314822.826038
 21
1990874.561546
 31
0.0
100
AcDbText
 73
     3
  0
TEXT
  5
3D2
330
66A
100
AcDbEntity
  8
STP labels
  6
DGN Style 3
 62
   250
100
AcDbText
 10
314823.203053
 20
1990856.015536
 30
0.0
 40
1.227059
  1
04
  7
Style-Garamond
 11
314823.203053
 21
1990857.242595
 31
0.0
100
AcDbText
 73
     3
  0
TEXT
  5
3D3
330
66A
100
AcDbEntity
  8
STP labels
  6
DGN Style 3
 62
   250
100
AcDbText
 10
314810.991678
 20
1990862.252679
 30
0.0
 40
1.227059
  1
05
  7
Style-Garamond
 11
314810.991678
 21
1990863.479738
 31
0.0
100
AcDbText
 73
     3
  0
TEXT
  5
3D4
330
66A
100
AcDbEntity
  8
STP labels
  6
DGN Style 3
 62
   250
100
AcDbText
 10
314816.96591
 20
1990856.015536
 30
0.0
 40
1.227059
  1
04
  7
Style-Garamond
 11
314816.96591
 21
1990857.242595
 31
0.0
100
AcDbText
 73
     3
  0
TEXT
  5
3D5
330
66A
100
AcDbEntity
  8
STP labels
  6
DGN Style 3
 62
   250
100
AcDbText
 10
314811.109582
 20
1990856.015536
 30
0.0
 40
1.227059
  1
04
  7
Style-Garamond
 11
314811.109582
 21
1990857.242595
 31
0.0
100
AcDbText
 73
     3
  0
TEXT
  5
3D6
330
66A
100
AcDbEntity
  8
STP labels
  6
DGN Style 3
 62
   250
100
AcDbText
 10
314805.253255
 20
1990856.015536
 30
0.0
 40
1.227059
  1
04
  7
Style-Garamond
 11
314805.253255
 21
1990857.242595
 31
0.0
100
AcDbText
 73
     3
  0
TEXT
  5
3D7
330
66A
100
AcDbEntity
  8
STP labels
  6
DGN Style 3
 62
   250
100
AcDbText
 10
314829.206287
 20
1990856.015536
 30
0.0
 40
1.227059
  1
04
  7
Style-Garamond
 11
314829.206287
 21
1990857.242595
 31
0.0
100
AcDbText
 73
     3
  0
TEXT
  5
3D8
330
66A
100
AcDbEntity
  8
STP labels
  6
DGN Style 3
 62
   250
100
AcDbText
 10
314835.093516
 20
1990856.015536
 30
0.0
 40
1.227059
  1
04
  7
Style-Garamond
 11
314835.093516
 21
1990857.242595
 31
0.0
100
AcDbText
 73
     3
  0
TEXT
  5
3D9
330
66A
100
AcDbEntity
  8
STP labels
  6
DGN Style 3
 62
   250
100
AcDbText
 10
314840.980745
 20
1990856.015536
 30
0.0
 40
1.227059
  1
03
  7
Style-Garamond
 11
314840.980745
 21
1990857.242595
 31
0.0
100
AcDbText
 73
     3
  0
TEXT
  5
3DA
330
66A
100
AcDbEntity
  8
STP labels
  6
DGN Style 3
 62
   250
100
AcDbText
 10
314846.867974
 20
1990856.015536
 30
0.0
 40
1.227059
  1
03
  7
Style-Garamond
 11
314846.867974
 21
1990857.242595
 31
0.0
100
AcDbText
 73
     3
  0
TEXT
  5
3DB
330
66A
100
AcDbEntity
  8
STP labels
  6
DGN Style 3
 62
   250
100
AcDbText
 10
314853.19022
 20
1990856.015536
 30
0.0
 40
1.227059
  1
02
  7
Style-Garamond
 11
314853.19022
 21
1990857.242595
 31
0.0
100
AcDbText
 73
     3
  0
TEXT
  5
3DC
330
66A
100
AcDbEntity
  8
STP labels
  6
DGN Style 3
 62
   250
100
AcDbText
 10
314840.893741
 20
1990861.933569
 30
0.0
 40
1.227059
  1
04
  7
Style-Garamond
 11
314840.893741
 21
1990863.160628
 31
0.0
100
AcDbText
 73
     3
  0
TEXT
  5
3DD
330
66A
100
AcDbEntity
  8
STP labels
  6
DGN Style 3
 62
   250
100
AcDbText
 10
314847.099983
 20
1990861.933569
 30
0.0
 40
1.227059
  1
04
  7
Style-Garamond
 11
314847.099983
 21
1990863.160628
 31
0.0
100
AcDbText
 73
     3
  0
TEXT
  5
3DE
330
66A
100
AcDbEntity
  8
STP labels
  6
DGN Style 3
 62
   250
100
AcDbText
 10
314853.509232
 20
1990862.223669
 30
0.0
 40
1.227059
  1
03
  7
Style-Garamond
 11
314853.509232
 21
1990863.450728
 31
0.0
100
AcDbText
 73
     3
  0
TEXT
  5
3DF
330
66A
100
AcDbEntity
  8
STP labels
  6
DGN Style 3
 62
   250
100
AcDbText
 10
314859.164452
 20
1990862.223669
 30
0.0
 40
1.227059
  1
01
  7
Style-Garamond
 11
314859.164452
 21
1990863.450728
 31
0.0
100
AcDbText
 73
     3
  0
TEXT
  5
3E0
330
66A
100
AcDbEntity
  8
STP labels
  6
DGN Style 3
 62
   250
100
AcDbText
 10
314865.196687
 20
1990862.223669
 30
0.0
 40
1.227059
  1
01
  7
Style-Garamond
 11
314865.196687
 21
1990863.450728
 31
0.0
100
AcDbText
 73
     3
  0
TEXT
  5
3E1
330
66A
100
AcDbEntity
  8
STP labels
  6
DGN Style 3
 62
   250
100
AcDbText
 10
314859.164452
 20
1990868.255904
 30
0.0
 40
1.227059
  1
02
  7
Style-Garamond
 11
314859.164452
 21
1990869.482963
 31
0.0
100
AcDbText
 73
     3
  0
TEXT
  5
3E2
330
66A
100
AcDbEntity
  8
STP labels
  6
DGN Style 3
 62
   250
100
AcDbText
 10
314853.132217
 20
1990868.255904
 30
0.0
 40
1.227059
  1
04
  7
Style-Garamond
 11
314853.132217
 21
1990869.482963
 31
0.0
100
AcDbText
 73
     3
  0
TEXT
  5
3E3
330
66A
100
AcDbEntity
  8
STP labels
  6
DGN Style 3
 62
   250
100
AcDbText
 10
314864.935677
 20
1990868.255904
 30
0.0
 40
1.227059
  1
02
  7
Style-Garamond
 11
314864.935677
 21
1990869.482963
 31
0.0
100
AcDbText
 73
     3
  0
TEXT
  5
3E4
330
66A
100
AcDbEntity
  8
STP labels
  6
DGN Style 3
 62
   250
100
AcDbText
 10
314871.228922
 20
1990868.255904
 30
0.0
 40
1.227059
  1
01
  7
Style-Garamond
 11
314871.228922
 21
1990869.482963
 31
0.0
100
AcDbText
 73
     3
  0
TEXT
  5
3E5
330
66A
100
AcDbEntity
  8
STP labels
  6
DGN Style 3
 62
   250
100
AcDbText
 10
314864.964678
 20
1990874.088746
 30
0.0
 40
1.227059
  1
03
  7
Style-Garamond
 11
314864.964678
 21
1990875.315805
 31
0.0
100
AcDbText
 73
     3
  0
TEXT
  5
3E6
330
66A
100
AcDbEntity
  8
STP labels
  6
DGN Style 3
 62
   250
100
AcDbText
 10
314859.019447
 20
1990874.088746
 30
0.0
 40
1.227059
  1
03
  7
Style-Garamond
 11
314859.019447
 21
1990875.315805
 31
0.0
100
AcDbText
 73
     3
  0
TEXT
  5
3E7
330
66A
100
AcDbEntity
  8
STP labels
  6
DGN Style 3
 62
   250
100
AcDbText
 10
314853.161219
 20
1990874.755975
 30
0.0
 40
1.227059
  1
05
  7
Style-Garamond
 11
314853.161219
 21
1990875.983034
 31
0.0
100
AcDbText
 73
     3
  0
TEXT
  5
3E8
330
66A
100
AcDbEntity
  8
STP labels
  6
DGN Style 3
 62
   250
100
AcDbText
 10
314853.161219
 20
1990879.948759
 30
0.0
 40
1.227059
  1
06
  7
Style-Garamond
 11
314853.161219
 21
1990881.175818
 31
0.0
100
AcDbText
 73
     3
  0
TEXT
  5
3E9
330
66A
100
AcDbEntity
  8
STP labels
  6
DGN Style 3
 62
   250
100
AcDbText
 10
314858.816439
 20
1990879.948759
 30
0.0
 40
1.227059
  1
04
  7
Style-Garamond
 11
314858.816439
 21
1990881.175818
 31
0.0
100
AcDbText
 73
     3
  0
TEXT
  5
3EA
330
66A
100
AcDbEntity
  8
STP labels
  6
DGN Style 3
 62
   250
100
AcDbText
 10
314865.02268
 20
1990879.948759
 30
0.0
 40
1.227059
  1
04
  7
Style-Garamond
 11
314865.02268
 21
1990881.175818
 31
0.0
100
AcDbText
 73
     3
  0
TEXT
  5
3EB
330
66A
100
AcDbEntity
  8
STP labels
  6
DGN Style 3
 62
   250
100
AcDbText
 10
314865.02268
 20
1990886.155001
 30
0.0
 40
1.227059
  1
05
  7
Style-Garamond
 11
314865.02268
 21
1990887.38206
 31
0.0
100
AcDbText
 73
     3
  0
TEXT
  5
3EC
330
66A
100
AcDbEntity
  8
STP labels
  6
DGN Style 3
 62
   250
100
AcDbText
 10
314859.918482
 20
1990885.547683
 30
0.0
 40
1.227059
  1
05
  7
Style-Garamond
 11
314859.918482
 21
1990886.774742
 31
0.0
100
AcDbText
 73
     3
  0
TEXT
  5
3ED
330
66A
100
AcDbEntity
  8
STP labels
  6
DGN Style 3
 62
   250
100
AcDbText
 10
314853.422229
 20
1990885.547683
 30
0.0
 40
1.227059
  1
07
  7
Style-Garamond
 11
314853.422229
 21
1990886.774742
 31
0.0
100
AcDbText
 73
     3
  0
TEXT
  5
3EE
330
66A
100
AcDbEntity
  8
STP labels
  6
DGN Style 3
 62
   250
100
AcDbText
 10
314847.215987
 20
1990886.156892
 30
0.0
 40
1.227059
  1
07
  7
Style-Garamond
 11
314847.215987
 21
1990887.383951
 31
0.0
100
AcDbText
 73
     3
  0
TEXT
  5
3EF
330
66A
100
AcDbEntity
  8
STP labels
  6
DGN Style 3
 62
   250
100
AcDbText
 10
314853.422229
 20
1990891.783753
 30
0.0
 40
1.227059
  1
08
  7
Style-Garamond
 11
314853.422229
 21
1990893.010812
 31
0.0
100
AcDbText
 73
     3
  0
TEXT
  5
3F0
330
66A
100
AcDbEntity
  8
STP labels
  6
DGN Style 3
 62
   250
100
AcDbText
 10
314847.186159
 20
1990891.783753
 30
0.0
 40
1.227059
  1
05
  7
Style-Garamond
 11
314847.186159
 21
1990893.010812
 31
0.0
100
AcDbText
 73
     3
  0
TEXT
  5
3F1
330
66A
100
AcDbEntity
  8
STP labels
  6
DGN Style 3
 62
   250
100
AcDbText
 10
314859.193483
 20
1990891.783753
 30
0.0
 40
1.227059
  1
06
  7
Style-Garamond
 11
314859.193483
 21
1990893.010812
 31
0.0
100
AcDbText
 73
     3
  0
TEXT
  5
3F2
330
66A
100
AcDbEntity
  8
STP labels
  6
DGN Style 3
 62
   250
100
AcDbText
 10
314859.193483
 20
1990898.020896
 30
0.0
 40
1.227059
  1
07
  7
Style-Garamond
 11
314859.193483
 21
1990899.247955
 31
0.0
100
AcDbText
 73
     3
  0
TEXT
  5
3F3
330
66A
100
AcDbEntity
  8
STP labels
  6
DGN Style 3
 62
   250
100
AcDbText
 10
314853.248221
 20
1990898.020896
 30
0.0
 40
1.227059
  1
09
  7
Style-Garamond
 11
314853.248221
 21
1990899.247955
 31
0.0
100
AcDbText
 73
     3
  0
TEXT
  5
3F4
330
66A
100
AcDbEntity
  8
STP labels
  6
DGN Style 3
 62
   250
100
AcDbText
 10
314847.302959
 20
1990898.020896
 30
0.0
 40
1.227059
  1
06
  7
Style-Garamond
 11
314847.302959
 21
1990899.247955
 31
0.0
100
AcDbText
 73
     3
  0
TEXT
  5
3F5
330
66A
100
AcDbEntity
  8
STP labels
  6
DGN Style 3
 62
   250
100
AcDbText
 10
314859.193483
 20
1990903.966158
 30
0.0
 40
1.227059
  1
08
  7
Style-Garamond
 11
314859.193483
 21
1990905.193217
 31
0.0
100
AcDbText
 73
     3
  0
TEXT
  5
3F6
330
66A
100
AcDbEntity
  8
STP labels
  6
DGN Style 3
 62
   250
100
AcDbText
 10
314853.248221
 20
1990903.966158
 30
0.0
 40
1.227059
  1
10
  7
Style-Garamond
 11
314853.248221
 21
1990905.193217
 31
0.0
100
AcDbText
 73
     3
  0
TEXT
  5
3F7
330
66A
100
AcDbEntity
  8
STP labels
  6
DGN Style 3
 62
   250
100
AcDbText
 10
314859.106479
 20
1990909.943992
 30
0.0
 40
1.227059
  1
09
  7
Style-Garamond
 11
314859.106479
 21
1990911.171051
 31
0.0
100
AcDbText
 73
     3
  0
TEXT
  5
3F8
330
66A
100
AcDbEntity
  8
STP labels
  6
DGN Style 3
 62
   250
100
AcDbText
 10
314841.198412
 20
1990891.783753
 30
0.0
 40
1.227059
  1
06
  7
Style-Garamond
 11
314841.198412
 21
1990893.010812
 31
0.0
100
AcDbText
 73
     3
  0
TEXT
  5
3F9
330
66A
100
AcDbEntity
  8
STP labels
  6
DGN Style 3
 62
   250
100
AcDbText
 10
314841.198412
 20
1990885.796006
 30
0.0
 40
1.227059
  1
05
  7
Style-Garamond
 11
314841.198412
 21
1990887.023065
 31
0.0
100
AcDbText
 73
     3
  0
TEXT
  5
3FA
330
66A
100
AcDbEntity
  8
Driveway
  6
DGN Style 3
 62
   250
100
AcDbText
 10
314835.127358
 20
1990879.915313
 30
0.0
 40
1.227059
  1
05
  7
Style-Garamond
 11
314835.127358
 21
1990881.142372
 31
0.0
100
AcDbText
 73
     3
  0
SPLINE
  5
3FB
330
66A
100
AcDbEntity
  8
Road
  6
Continuous
370
    13
100
AcDbSpline
210
0.0
220
0.0
230
1.0
 70
     8
 71
     3
 72
    16
 73
    12
 74
     0
 42
0.0000000001
 43
0.0000000001
 40
0.0
 40
0.0
 40
0.0
 40
0.0
 40
0.1111111111111111
 40
0.2222222222222222
 40
0.3333333333333333
 40
0.4444444444444445
 40
0.5555555555555556
 40
0.6666666666666669
 40
0.7777777777777779
 40
0.8888888888888891
 40
1.0
 40
1.0
 40
1.0
 40
1.0
 10
314844.2487747161
 20
1990881.320301332
 30
0.0
 10
314842.0629606042
 20
1990882.87067764
 30
0.0
 10
314839.918831944
 20
1990883.16738264
 30
0.0
 10
314836.5298484569
 20
1990884.235152202
 30
0.0
 10
314836.5298484569
 20
1990884.235152202
 30
0.0
 10
314835.352045487
 20
1990882.09959031
 30
0.0
 10
314835.3787941032
 20
1990881.38188569
 30
0.0
 10
314835.3787941032
 20
1990881.38188569
 30
0.0
 10
314834.2195820134
 20
1990878.133452575
 30
0.0
 10
314833.6143978723
 20
1990875.880147753
 30
0.0
 10
314833.6143978723
 20
1990874.83757388
 30
0.0
 10
314838.9053755356
 20
1990870.604748521
 30
0.0
  0
SPLINE
  5
3FD
330
66A
100
AcDbEntity
  8
Driveway
  6
DGN Style 4
370
    13
100
AcDbSpline
210
0.0
220
0.0
230
1.0
 70
     8
 71
     3
 72
    10
 73
     6
 74
     0
 42
0.0000000001
 43
0.0000000001
 40
0.0
 40
0.0
 40
0.0
 40
0.0
 40
0.3333333333333333
 40
0.6666666666666666
 40
1.0
 40
1.0
 40
1.0
 40
1.0
 10
314838.9053755357
 20
1990870.60474852
 30
0.0
 10
314839.3525332773
 20
1990870.235404998
 30
0.0
 10
314839.3525332773
 20
1990870.235404998
 30
0.0
 10
314839.3609655104
 20
1990870.236802415
 30
0.0
 10
314839.3778635377
 20
1990870.239602811
 30
0.0
 10
314839.3778635377
 20
1990870.239602811
 30
0.0
  0
HATCH
  5
3FF
330
66A
100
AcDbEntity
  8
Excavated STPs
100
AcDbHatch
 10
0.0
 20
0.0
 30
0.0
210
0.0
220
0.0
230
1.0
  2
SOLID
 70
     1
 71
     0
 91
        1
 92
        1
 93
        1
 72
     2
 10
314781.970501437
 20
1990809.99756647
 40
0.25
 50
0.0
 51
360.0
 73
     1
 97
        0
 75
     0
 76
     1
 98
        1
 10
0.0
 20
0.0
450
        0
451
        0
460
0.0
461
0.0
452
        0
462
0.0
453
        0
470

  0
HATCH
  5
400
330
66A
100
AcDbEntity
  8
Excavated STPs
100
AcDbHatch
 10
0.0
 20
0.0
 30
0.0
210
0.0
220
0.0
230
1.0
  2
SOLID
 70
     1
 71
     0
 91
        1
 92
        1
 93
        1
 72
     2
 10
314781.970501437
 20
1990803.99756647
 40
0.25
 50
0.0
 51
360.0
 73
     1
 97
        0
 75
     0
 76
     1
 98
        1
 10
0.0
 20
0.0
450
        0
451
        0
460
0.0
461
0.0
452
        0
462
0.0
453
        0
470

  0
HATCH
  5
401
330
66A
100
AcDbEntity
  8
Excavated STPs
100
AcDbHatch
 10
0.0
 20
0.0
 30
0.0
210
0.0
220
0.0
230
1.0
  2
SOLID
 70
     1
 71
     0
 91
        1
 92
        1
 93
        1
 72
     2
 10
314787.970501437
 20
1990809.99756647
 40
0.25
 50
0.0
 51
360.0
 73
     1
 97
        0
 75
     0
 76
     1
 98
        1
 10
0.0
 20
0.0
450
        0
451
        0
460
0.0
461
0.0
452
        0
462
0.0
453
        0
470

  0
HATCH
  5
402
330
66A
100
AcDbEntity
  8
Excavated STPs
100
AcDbHatch
 10
0.0
 20
0.0
 30
0.0
210
0.0
220
0.0
230
1.0
  2
SOLID
 70
     1
 71
     0
 91
        1
 92
        1
 93
        1
 72
     2
 10
314775.935063589
 20
1990804.003145289
 40
0.25
 50
0.0
 51
360.0
 73
     1
 97
        0
 75
     0
 76
     1
 98
        1
 10
0.0
 20
0.0
450
        0
451
        0
460
0.0
461
0.0
452
        0
462
0.0
453
        0
470

  0
HATCH
  5
403
330
66A
100
AcDbEntity
  8
Excavated STPs
100
AcDbHatch
 10
0.0
 20
0.0
 30
0.0
210
0.0
220
0.0
230
1.0
  2
SOLID
 70
     1
 71
     0
 91
        1
 92
        1
 93
        1
 72
     2
 10
314787.9766751134
 20
1990839.967106423
 40
0.25
 50
0.0
 51
360.0
 73
     1
 97
        0
 75
     0
 76
     1
 98
        1
 10
0.0
 20
0.0
450
        0
451
        0
460
0.0
461
0.0
452
        0
462
0.0
453
        0
470

  0
SPLINE
  5
404
330
66A
100
AcDbEntity
  8
Fence
  6
DGN Style 4
370
    13
100
AcDbSpline
210
0.0
220
0.0
230
1.0
 70
     8
 71
     3
 72
    10
 73
     6
 74
     0
 42
0.0000000001
 43
0.0000000001
 40
0.0
 40
0.0
 40
0.0
 40
0.0
 40
0.3333333333333333
 40
0.6666666666666666
 40
1.0
 40
1.0
 40
1.0
 40
1.0
 10
314780.466275716
 20
1990851.65008013
 30
0.0
 10
314771.960283002
 20
1990854.00604223
 30
0.0
 10
314761.6767364521
 20
1990856.820199059
 30
0.0
 10
314743.314538966
 20
1990861.67534873
 30
0.0
 10
314743.314538966
 20
1990861.67534873
 30
0.0
 10
314743.314538966
 20
1990861.67534873
 30
0.0
  0
LWPOLYLINE
  5
415
330
66A
100
AcDbEntity
  8
Road
  6
Continuous
370
    13
100
AcDbPolyline
 90
        4
 70
   128
 43
0.0
 10
314768.616856
 20
1990866.440224
 10
314766.109866
 20
1990864.741209
 42
-0.212598
 10
314765.308909
 20
1990864.598228
 10
314740.54208
 20
1990870.719694
  0
LWPOLYLINE
  5
425
330
66A
100
AcDbEntity
  8
Road
  6
Continuous
370
    13
100
AcDbPolyline
 90
       22
 70
   128
 43
0.0
 10
314739.255071
 20
1990866.612318
 10
314764.685645
 20
1990860.673608
 42
-0.007593
 10
314764.71511
 20
1990860.666253
 10
314775.815395
 20
1990857.715899
 42
-0.037714
 10
314775.957654
 20
1990857.666347
 10
314781.855406
 20
1990855.099004
 42
-0.187637
 10
314782.370053
 20
1990854.588324
 10
314783.553199
 20
1990851.926838
 42
-0.11552
 10
314783.63855
 20
1990851.478901
 10
314783.602357
 20
1990850.612175
 42
-0.070748
 10
314783.551116
 20
1990850.335295
 10
314783.097968
 20
1990848.987116
 42
-0.030418
 10
314783.052307
 20
1990848.874459
 10
314782.391594
 20
1990847.492198
 42
-0.053939
 10
314782.278477
 20
1990847.309207
 10
314781.125862
 20
1990845.828476
 42
-0.089872
 10
314780.860149
 20
1990845.590639
 10
314779.277452
 20
1990844.618463
 42
-0.123412
 10
314778.813689
 20
1990844.472331
 10
314767.653093
 20
1990843.805585
 10
314767.653093
 20
1990843.805585
 10
314767.653093
 20
1990843.805585
  0
LWPOLYLINE
  5
43A
330
66A
100
AcDbEntity
  8
Driveway
  6
Continuous
370
    13
100
AcDbPolyline
 90
       13
 70
   128
 43
0.0
 10
314777.031776
 20
1990831.91522
 10
314779.148601
 20
1990832.531735
 42
0.122138
 10
314779.564785
 20
1990832.773619
 10
314783.04326
 20
1990836.143544
 42
0.192476
 10
314783.346623
 20
1990836.821134
 10
314783.501526
 20
1990840.630113
 42
-0.021426
 10
314783.50867
 20
1990840.71548
 10
314783.804666
 20
1990843.045904
 42
-0.078016
 10
314783.890997
 20
1990843.343825
 10
314784.994515
 20
1990845.701459
 42
0.02755
 10
314785.035633
 20
1990845.803609
 10
314785.784676
 20
1990848.007666
 10
314785.784676
 20
1990848.007666
  0
LWPOLYLINE
  5
446
330
66A
100
AcDbEntity
  8
Road
  6
Continuous
370
    13
100
AcDbPolyline
 90
       13
 70
   128
 43
0.0
 10
314771.760062
 20
1990865.303537
 10
314772.426458
 20
1990863.141626
 42
0.252138
 10
314773.102051
 20
1990862.476205
 10
314786.121656
 20
1990858.678271
 42
-0.047242
 10
314786.296875
 20
1990858.608642
 10
314792.754038
 20
1990855.306985
 42
-0.028878
 10
314792.853597
 20
1990855.248598
 10
314797.349159
 20
1990852.250658
 42
-0.033897
 10
314797.45649
 20
1990852.16806
 10
314799.604772
 20
1990850.269842
 42
-0.067032
 10
314799.779422
 20
1990850.067982
 10
314800.269329
 20
1990849.319229
 10
314800.269329
 20
1990849.319229
  0
TEXT
  5
452
330
66A
100
AcDbEntity
  8
STP labels
  6
DGN Style 3
 62
   250
100
AcDbText
 10
314805.253255
 20
1990850.145529
 30
0.0
 40
1.227059
  1
03
  7
Style-Garamond
 11
314805.253255
 21
1990851.372588
 31
0.0
100
AcDbText
 73
     3
  0
TEXT
  5
453
330
66A
100
AcDbEntity
  8
STP labels
  6
DGN Style 3
 62
   250
100
AcDbText
 10
314811.123261
 20
1990850.145529
 30
0.0
 40
1.227059
  1
03
  7
Style-Garamond
 11
314811.123261
 21
1990851.372588
 31
0.0
100
AcDbText
 73
     3
  0
TEXT
  5
454
330
66A
100
AcDbEntity
  8
STP labels
  6
DGN Style 3
 62
   250
100
AcDbText
 10
314816.993268
 20
1990850.145529
 30
0.0
 40
1.227059
  1
03
  7
Style-Garamond
 11
314816.993268
 21
1990851.372588
 31
0.0
100
AcDbText
 73
     3
  0
TEXT
  5
455
330
66A
100
AcDbEntity
  8
STP labels
  6
DGN Style 3
 62
   250
100
AcDbText
 10
314822.863274
 20
1990850.145529
 30
0.0
 40
1.227059
  1
03
  7
Style-Garamond
 11
314822.863274
 21
1990851.372588
 31
0.0
100
AcDbText
 73
     3
  0
TEXT
  5
456
330
66A
100
AcDbEntity
  8
STP labels
  6
DGN Style 3
 62
   250
100
AcDbText
 10
314829.171937
 20
1990850.145529
 30
0.0
 40
1.227059
  1
03
  7
Style-Garamond
 11
314829.171937
 21
1990851.372588
 31
0.0
100
AcDbText
 73
     3
  0
TEXT
  5
457
330
66A
100
AcDbEntity
  8
STP labels
  6
DGN Style 3
 62
   250
100
AcDbText
 10
314835.4806
 20
1990850.145529
 30
0.0
 40
1.227059
  1
03
  7
Style-Garamond
 11
314835.4806
 21
1990851.372588
 31
0.0
100
AcDbText
 73
     3
  0
TEXT
  5
458
330
66A
100
AcDbEntity
  8
STP labels
  6
DGN Style 3
 62
   250
100
AcDbText
 10
314841.189673
 20
1990850.145529
 30
0.0
 40
1.227059
  1
02
  7
Style-Garamond
 11
314841.189673
 21
1990851.372588
 31
0.0
100
AcDbText
 73
     3
  0
TEXT
  5
459
330
66A
100
AcDbEntity
  8
STP labels
  6
DGN Style 3
 62
   250
100
AcDbText
 10
314847.089757
 20
1990849.869544
 30
0.0
 40
1.227059
  1
02
  7
Style-Garamond
 11
314847.089757
 21
1990851.096603
 31
0.0
100
AcDbText
 73
     3
  0
TEXT
  5
45A
330
66A
100
AcDbEntity
  8
STP labels
  6
DGN Style 3
 62
   250
100
AcDbText
 10
314847.089757
 20
1990845.411311
 30
0.0
 40
1.227059
  1
01
  7
Style-Garamond
 11
314847.089757
 21
1990846.63837
 31
0.0
100
AcDbText
 73
     3
  0
TEXT
  5
45B
330
66A
100
AcDbEntity
  8
STP labels
  6
DGN Style 3
 62
   250
100
AcDbText
 10
314841.189673
 20
1990843.978307
 30
0.0
 40
1.227059
  1
01
  7
Style-Garamond
 11
314841.189673
 21
1990845.205366
 31
0.0
100
AcDbText
 73
     3
  0
TEXT
  5
45C
330
66A
100
AcDbEntity
  8
STP labels
  6
DGN Style 3
 62
   250
100
AcDbText
 10
314834.541468
 20
1990843.978307
 30
0.0
 40
1.227059
  1
02
  7
Style-Garamond
 11
314834.541468
 21
1990845.205366
 31
0.0
100
AcDbText
 73
     3
  0
TEXT
  5
45D
330
66A
100
AcDbEntity
  8
STP labels
  6
DGN Style 3
 62
   250
100
AcDbText
 10
314829.081769
 20
1990843.978307
 30
0.0
 40
1.227059
  1
02
  7
Style-Garamond
 11
314829.081769
 21
1990845.205366
 31
0.0
100
AcDbText
 73
     3
  0
TEXT
  5
45E
330
66A
100
AcDbEntity
  8
STP labels
  6
DGN Style 3
 62
   250
100
AcDbText
 10
314823.102098
 20
1990843.978307
 30
0.0
 40
1.227059
  1
02
  7
Style-Garamond
 11
314823.102098
 21
1990845.205366
 31
0.0
100
AcDbText
 73
     3
  0
TEXT
  5
45F
330
66A
100
AcDbEntity
  8
STP labels
  6
DGN Style 3
 62
   250
100
AcDbText
 10
314817.122428
 20
1990843.978307
 30
0.0
 40
1.227059
  1
02
  7
Style-Garamond
 11
314817.122428
 21
1990845.205366
 31
0.0
100
AcDbText
 73
     3
  0
TEXT
  5
460
330
66A
100
AcDbEntity
  8
STP labels
  6
DGN Style 3
 62
   250
100
AcDbText
 10
314829.156051
 20
1990838.294061
 30
0.0
 40
1.227059
  1
01
  7
Style-Garamond
 11
314829.156051
 21
1990839.52112
 31
0.0
100
AcDbText
 73
     3
  0
TEXT
  5
461
330
66A
100
AcDbEntity
  8
STP labels
  6
DGN Style 3
 62
   250
100
AcDbText
 10
314834.875736
 20
1990838.294061
 30
0.0
 40
1.227059
  1
01
  7
Style-Garamond
 11
314834.875736
 21
1990839.52112
 31
0.0
100
AcDbText
 73
     3
  0
TEXT
  5
462
330
66A
100
AcDbEntity
  8
STP labels
  6
DGN Style 3
 62
   250
100
AcDbText
 10
314847.317907
 20
1990838.294061
 30
0.0
 40
1.227059
  1
01
  7
Style-Garamond
 11
314847.317907
 21
1990839.52112
 31
0.0
100
AcDbText
 73
     3
  0
TEXT
  5
463
330
66A
100
AcDbEntity
  8
STP labels
  6
DGN Style 3
 62
   250
100
AcDbText
 10
314853.297578
 20
1990838.294061
 30
0.0
 40
1.227059
  1
12
  7
Style-Garamond
 11
314853.297578
 21
1990839.52112
 31
0.0
100
AcDbText
 73
     3
  0
TEXT
  5
464
330
66A
100
AcDbEntity
  8
STP labels
  6
DGN Style 3
 62
   250
100
AcDbText
 10
314853.297578
 20
1990844.273731
 30
0.0
 40
1.227059
  1
11
  7
Style-Garamond
 11
314853.297578
 21
1990845.50079
 31
0.0
100
AcDbText
 73
     3
  0
TEXT
  5
465
330
66A
100
AcDbEntity
  8
STP labels
  6
DGN Style 3
 62
   250
100
AcDbText
 10
314859.277249
 20
1990844.273731
 30
0.0
 40
1.227059
  1
12
  7
Style-Garamond
 11
314859.277249
 21
1990845.50079
 31
0.0
100
AcDbText
 73
     3
  0
TEXT
  5
466
330
66A
100
AcDbEntity
  8
STP labels
  6
DGN Style 3
 62
   250
100
AcDbText
 10
314859.277249
 20
1990838.294061
 30
0.0
 40
1.227059
  1
13
  7
Style-Garamond
 11
314859.277249
 21
1990839.52112
 31
0.0
100
AcDbText
 73
     3
  0
TEXT
  5
467
330
66A
100
AcDbEntity
  8
STP labels
  6
DGN Style 3
 62
   250
100
AcDbText
 10
314853.143709
 20
1990849.906696
 30
0.0
 40
1.227059
  1
01
  7
Style-Garamond
 11
314853.143709
 21
1990851.133755
 31
0.0
100
AcDbText
 73
     3
  0
TEXT
  5
468
330
66A
100
AcDbEntity
  8
STP labels
  6
DGN Style 3
 62
   250
100
AcDbText
 10
314841.221508
 20
1990832.073764
 30
0.0
 40
1.227059
  1
01
  7
Style-Garamond
 11
314841.221508
 21
1990833.300823
 31
0.0
100
AcDbText
 73
     3
  0
TEXT
  5
469
330
66A
100
AcDbEntity
  8
STP labels
  6
DGN Style 3
 62
   250
100
AcDbText
 10
314835.241838
 20
1990832.073764
 30
0.0
 40
1.227059
  1
01
  7
Style-Garamond
 11
314835.241838
 21
1990833.300823
 31
0.0
100
AcDbText
 73
     3
  0
TEXT
  5
46A
330
66A
100
AcDbEntity
  8
STP labels
  6
DGN Style 3
 62
   250
100
AcDbText
 10
314829.262167
 20
1990832.073764
 30
0.0
 40
1.227059
  1
01
  7
Style-Garamond
 11
314829.262167
 21
1990833.300823
 31
0.0
100
AcDbText
 73
     3
  0
TEXT
  5
46B
330
66A
100
AcDbEntity
  8
STP labels
  6
DGN Style 3
 62
   250
100
AcDbText
 10
314823.282497
 20
1990832.073764
 30
0.0
 40
1.227059
  1
01
  7
Style-Garamond
 11
314823.282497
 21
1990833.300823
 31
0.0
100
AcDbText
 73
     3
  0
TEXT
  5
46C
330
66A
100
AcDbEntity
  8
STP labels
  6
DGN Style 3
 62
   250
100
AcDbText
 10
314817.302826
 20
1990832.073764
 30
0.0
 40
1.227059
  1
01
  7
Style-Garamond
 11
314817.302826
 21
1990833.300823
 31
0.0
100
AcDbText
 73
     3
  0
TEXT
  5
46D
330
66A
100
AcDbEntity
  8
STP labels
  6
DGN Style 3
 62
   250
100
AcDbText
 10
314810.870038
 20
1990832.965411
 30
0.0
 40
1.227059
  1
01
  7
Style-Garamond
 11
314810.870038
 21
1990834.19247
 31
0.0
100
AcDbText
 73
     3
  0
TEXT
  5
46E
330
66A
100
AcDbEntity
  8
STP labels
  6
DGN Style 3
 62
   250
100
AcDbText
 10
314811.315727
 20
1990837.646555
 30
0.0
 40
1.227059
  1
01
  7
Style-Garamond
 11
314811.315727
 21
1990838.873614
 31
0.0
100
AcDbText
 73
     3
  0
TEXT
  5
46F
330
66A
100
AcDbEntity
  8
STP labels
  6
DGN Style 3
 62
   250
100
AcDbText
 10
314817.36968
 20
1990838.166683
 30
0.0
 40
1.227059
  1
01
  7
Style-Garamond
 11
314817.36968
 21
1990839.393742
 31
0.0
100
AcDbText
 73
     3
  0
TEXT
  5
470
330
66A
100
AcDbEntity
  8
STP labels
  6
DGN Style 3
 62
   250
100
AcDbText
 10
314823.445934
 20
1990838.166683
 30
0.0
 40
1.227059
  1
01
  7
Style-Garamond
 11
314823.445934
 21
1990839.393742
 31
0.0
100
AcDbText
 73
     3
  0
TEXT
  5
471
330
66A
100
AcDbEntity
  8
STP labels
  6
DGN Style 3
 62
   250
100
AcDbText
 10
314805.380626
 20
1990826.017998
 30
0.0
 40
1.227059
  1
02
  7
Style-Garamond
 11
314805.380626
 21
1990827.245057
 31
0.0
100
AcDbText
 73
     3
  0
TEXT
  5
472
330
66A
100
AcDbEntity
  8
STP labels
  6
DGN Style 3
 62
   250
100
AcDbText
 10
314811.174592
 20
1990826.017998
 30
0.0
 40
1.227059
  1
02
  7
Style-Garamond
 11
314811.174592
 21
1990827.245057
 31
0.0
100
AcDbText
 73
     3
  0
TEXT
  5
473
330
66A
100
AcDbEntity
  8
STP labels
  6
DGN Style 3
 62
   250
100
AcDbText
 10
314817.525671
 20
1990826.017998
 30
0.0
 40
1.227059
  1
02
  7
Style-Garamond
 11
314817.525671
 21
1990827.245057
 31
0.0
100
AcDbText
 73
     3
  0
TEXT
  5
474
330
66A
100
AcDbEntity
  8
STP labels
  6
DGN Style 3
 62
   250
100
AcDbText
 10
314823.393919
 20
1990826.017998
 30
0.0
 40
1.227059
  1
02
  7
Style-Garamond
 11
314823.393919
 21
1990827.245057
 31
0.0
100
AcDbText
 73
     3
  0
TEXT
  5
476
330
66A
100
AcDbEntity
  8
STP labels
  6
DGN Style 3
 62
   250
100
AcDbText
 10
314828.519351
 20
1990826.017998
 30
0.0
 40
1.227059
  1
02
  7
Style-Garamond
 11
314828.519351
 21
1990827.245057
 31
0.0
100
AcDbText
 73
     3
  0
TEXT
  5
477
330
66A
100
AcDbEntity
  8
STP labels
  6
DGN Style 3
 62
   250
100
AcDbText
 10
314835.204697
 20
1990826.017998
 30
0.0
 40
1.227059
  1
02
  7
Style-Garamond
 11
314835.204697
 21
1990827.245057
 31
0.0
100
AcDbText
 73
     3
  0
TEXT
  5
478
330
66A
100
AcDbEntity
  8
STP labels
  6
DGN Style 3
 62
   250
100
AcDbText
 10
314841.221508
 20
1990826.017998
 30
0.0
 40
1.227059
  1
02
  7
Style-Garamond
 11
314841.221508
 21
1990827.245057
 31
0.0
100
AcDbText
 73
     3
  0
TEXT
  5
479
330
66A
100
AcDbEntity
  8
STP labels
  6
DGN Style 3
 62
   250
100
AcDbText
 10
314847.23832
 20
1990826.017998
 30
0.0
 40
1.227059
  1
03
  7
Style-Garamond
 11
314847.23832
 21
1990827.245057
 31
0.0
100
AcDbText
 73
     3
  0
TEXT
  5
47A
330
66A
100
AcDbEntity
  8
STP labels
  6
DGN Style 3
 62
   250
100
AcDbText
 10
314853.255131
 20
1990826.017998
 30
0.0
 40
1.227059
  1
14
  7
Style-Garamond
 11
314853.255131
 21
1990827.245057
 31
0.0
100
AcDbText
 73
     3
  0
TEXT
  5
47B
330
66A
100
AcDbEntity
  8
STP labels
  6
DGN Style 3
 62
   250
100
AcDbText
 10
314859.271943
 20
1990826.017998
 30
0.0
 40
1.227059
  1
15
  7
Style-Garamond
 11
314859.271943
 21
1990827.245057
 31
0.0
100
AcDbText
 73
     3
  0
TEXT
  5
47C
330
66A
100
AcDbEntity
  8
STP labels
  6
DGN Style 3
 62
   250
100
AcDbText
 10
314859.271943
 20
1990832.03481
 30
0.0
 40
1.227059
  1
14
  7
Style-Garamond
 11
314859.271943
 21
1990833.261869
 31
0.0
100
AcDbText
 73
     3
  0
TEXT
  5
47D
330
66A
100
AcDbEntity
  8
STP labels
  6
DGN Style 3
 62
   250
100
AcDbText
 10
314853.255131
 20
1990832.03481
 30
0.0
 40
1.227059
  1
13
  7
Style-Garamond
 11
314853.255131
 21
1990833.261869
 31
0.0
100
AcDbText
 73
     3
  0
TEXT
  5
47E
330
66A
100
AcDbEntity
  8
STP labels
  6
DGN Style 3
 62
   250
100
AcDbText
 10
314846.829771
 20
1990832.03481
 30
0.0
 40
1.227059
  1
02
  7
Style-Garamond
 11
314846.829771
 21
1990833.261869
 31
0.0
100
AcDbText
 73
     3
  0
TEXT
  5
47F
330
66A
100
AcDbEntity
  8
STP labels
  6
DGN Style 3
 62
   250
100
AcDbText
 10
314804.888203
 20
1990820.065943
 30
0.0
 40
1.227059
  1
07
  7
Style-Garamond
 11
314804.888203
 21
1990821.293002
 31
0.0
100
AcDbText
 73
     3
  0
TEXT
  5
480
330
66A
100
AcDbEntity
  8
STP labels
  6
DGN Style 3
 62
   250
100
AcDbText
 10
314811.280709
 20
1990819.592638
 30
0.0
 40
1.227059
  1
03
  7
Style-Garamond
 11
314811.280709
 21
1990820.819697
 31
0.0
100
AcDbText
 73
     3
  0
TEXT
  5
481
330
66A
100
AcDbEntity
  8
STP labels
  6
DGN Style 3
 62
   250
100
AcDbText
 10
314817.180792
 20
1990819.592638
 30
0.0
 40
1.227059
  1
03
  7
Style-Garamond
 11
314817.180792
 21
1990820.819697
 31
0.0
100
AcDbText
 73
     3
  0
TEXT
  5
482
330
66A
100
AcDbEntity
  8
STP labels
  6
DGN Style 3
 62
   250
100
AcDbText
 10
314823.080875
 20
1990819.592638
 30
0.0
 40
1.227059
  1
03
  7
Style-Garamond
 11
314823.080875
 21
1990820.819697
 31
0.0
100
AcDbText
 73
     3
  0
TEXT
  5
483
330
66A
100
AcDbEntity
  8
STP labels
  6
DGN Style 3
 62
   250
100
AcDbText
 10
314828.471599
 20
1990819.592638
 30
0.0
 40
1.227059
  1
03
  7
Style-Garamond
 11
314828.471599
 21
1990820.819697
 31
0.0
100
AcDbText
 73
     3
  0
TEXT
  5
484
330
66A
100
AcDbEntity
  8
STP labels
  6
DGN Style 3
 62
   250
100
AcDbText
 10
314835.178168
 20
1990819.592638
 30
0.0
 40
1.227059
  1
03
  7
Style-Garamond
 11
314835.178168
 21
1990820.819697
 31
0.0
100
AcDbText
 73
     3
  0
TEXT
  5
485
330
66A
100
AcDbEntity
  8
STP labels
  6
DGN Style 3
 62
   250
100
AcDbText
 10
314841.34142
 20
1990819.592638
 30
0.0
 40
1.227059
  1
03
  7
Style-Garamond
 11
314841.34142
 21
1990820.819697
 31
0.0
100
AcDbText
 73
     3
  0
TEXT
  5
486
330
66A
100
AcDbEntity
  8
STP labels
  6
DGN Style 3
 62
   250
100
AcDbText
 10
314847.504673
 20
1990819.592638
 30
0.0
 40
1.227059
  1
04
  7
Style-Garamond
 11
314847.504673
 21
1990820.819697
 31
0.0
100
AcDbText
 73
     3
  0
TEXT
  5
487
330
66A
100
AcDbEntity
  8
STP labels
  6
DGN Style 3
 62
   250
100
AcDbText
 10
314853.667925
 20
1990819.592638
 30
0.0
 40
1.227059
  1
15
  7
Style-Garamond
 11
314853.667925
 21
1990820.819697
 31
0.0
100
AcDbText
 73
     3
  0
TEXT
  5
488
330
66A
100
AcDbEntity
  8
STP labels
  6
DGN Style 3
 62
   250
100
AcDbText
 10
314805.805092
 20
1990813.648328
 30
0.0
 40
1.227059
  1
04
  7
Style-Garamond
 11
314805.805092
 21
1990814.875387
 31
0.0
100
AcDbText
 73
     3
  0
TEXT
  5
489
330
66A
100
AcDbEntity
  8
STP labels
  6
DGN Style 3
 62
   250
100
AcDbText
 10
314811.195816
 20
1990813.648328
 30
0.0
 40
1.227059
  1
04
  7
Style-Garamond
 11
314811.195816
 21
1990814.875387
 31
0.0
100
AcDbText
 73
     3
  0
TEXT
  5
48A
330
66A
100
AcDbEntity
  8
STP labels
  6
DGN Style 3
 62
   250
100
AcDbText
 10
314817.265685
 20
1990813.648328
 30
0.0
 40
1.227059
  1
04
  7
Style-Garamond
 11
314817.265685
 21
1990814.875387
 31
0.0
100
AcDbText
 73
     3
  0
TEXT
  5
48B
330
66A
100
AcDbEntity
  8
STP labels
  6
DGN Style 3
 62
   250
100
AcDbText
 10
314823.335555
 20
1990813.648328
 30
0.0
 40
1.227059
  1
04
  7
Style-Garamond
 11
314823.335555
 21
1990814.875387
 31
0.0
100
AcDbText
 73
     3
  0
TEXT
  5
48C
330
66A
100
AcDbEntity
  8
STP labels
  6
DGN Style 3
 62
   250
100
AcDbText
 10
314828.726278
 20
1990813.648328
 30
0.0
 40
1.227059
  1
04
  7
Style-Garamond
 11
314828.726278
 21
1990814.875387
 31
0.0
100
AcDbText
 73
     3
  0
TEXT
  5
48D
330
66A
100
AcDbEntity
  8
STP labels
  6
DGN Style 3
 62
   250
100
AcDbText
 10
314835.178168
 20
1990814.115381
 30
0.0
 40
1.227059
  1
04
  7
Style-Garamond
 11
314835.178168
 21
1990815.34244
 31
0.0
100
AcDbText
 73
     3
  0
TEXT
  5
48F
330
66A
100
AcDbEntity
  8
STP labels
  6
DGN Style 3
 62
   250
100
AcDbText
 10
314847.65748
 20
1990814.115381
 30
0.0
 40
1.227059
  1
05
  7
Style-Garamond
 11
314847.65748
 21
1990815.34244
 31
0.0
100
AcDbText
 73
     3
  0
TEXT
  5
490
330
66A
100
AcDbEntity
  8
STP labels
  6
DGN Style 3
 62
   250
100
AcDbText
 10
314828.726278
 20
1990807.637787
 30
0.0
 40
1.227059
  1
05
  7
Style-Garamond
 11
314828.726278
 21
1990808.864846
 31
0.0
100
AcDbText
 73
     3
  0
TEXT
  5
491
330
66A
100
AcDbEntity
  8
STP labels
  6
DGN Style 3
 62
   250
100
AcDbText
 10
314835.432848
 20
1990807.637787
 30
0.0
 40
1.227059
  1
05
  7
Style-Garamond
 11
314835.432848
 21
1990808.864846
 31
0.0
100
AcDbText
 73
     3
  0
TEXT
  5
493
330
66A
100
AcDbEntity
  8
STP labels
  6
DGN Style 3
 62
   250
100
AcDbText
 10
314823.250662
 20
1990807.958773
 30
0.0
 40
1.227059
  1
05
  7
Style-Garamond
 11
314823.250662
 21
1990809.185832
 31
0.0
100
AcDbText
 73
     3
  0
TEXT
  5
494
330
66A
100
AcDbEntity
  8
STP labels
  6
DGN Style 3
 62
   250
100
AcDbText
 10
314817.308132
 20
1990807.958773
 30
0.0
 40
1.227059
  1
05
  7
Style-Garamond
 11
314817.308132
 21
1990809.185832
 31
0.0
100
AcDbText
 73
     3
  0
TEXT
  5
495
330
66A
100
AcDbEntity
  8
STP labels
  6
DGN Style 3
 62
   250
100
AcDbText
 10
314811.365602
 20
1990807.958773
 30
0.0
 40
1.227059
  1
05
  7
Style-Garamond
 11
314811.365602
 21
1990809.185832
 31
0.0
100
AcDbText
 73
     3
  0
TEXT
  5
496
330
66A
100
AcDbEntity
  8
STP labels
  6
DGN Style 3
 62
   250
100
AcDbText
 10
314805.423072
 20
1990807.958773
 30
0.0
 40
1.227059
  1
05
  7
Style-Garamond
 11
314805.423072
 21
1990809.185832
 31
0.0
100
AcDbText
 73
     3
  0
TEXT
  5
497
330
66A
100
AcDbEntity
  8
STP labels
  6
DGN Style 3
 62
   250
100
AcDbText
 10
314799.480543
 20
1990807.958773
 30
0.0
 40
1.227059
  1
06
  7
Style-Garamond
 11
314799.480543
 21
1990809.185832
 31
0.0
100
AcDbText
 73
     3
  0
TEXT
  5
498
330
66A
100
AcDbEntity
  8
STP labels
  6
DGN Style 3
 62
   250
100
AcDbText
 10
314799.480543
 20
1990802.016244
 30
0.0
 40
1.227059
  1
07
  7
Style-Garamond
 11
314799.480543
 21
1990803.243303
 31
0.0
100
AcDbText
 73
     3
  0
TEXT
  5
499
330
66A
100
AcDbEntity
  8
STP labels
  6
DGN Style 3
 62
   250
100
AcDbText
 10
314805.423072
 20
1990802.016244
 30
0.0
 40
1.227059
  1
06
  7
Style-Garamond
 11
314805.423072
 21
1990803.243303
 31
0.0
100
AcDbText
 73
     3
  0
TEXT
  5
49A
330
66A
100
AcDbEntity
  8
STP labels
  6
DGN Style 3
 62
   250
100
AcDbText
 10
314810.917071
 20
1990801.258228
 30
0.0
 40
1.227059
  1
06
  7
Style-Garamond
 11
314810.917071
 21
1990802.485287
 31
0.0
100
AcDbText
 73
     3
  0
TEXT
  5
49B
330
66A
100
AcDbEntity
  8
STP labels
  6
DGN Style 3
 62
   250
100
AcDbText
 10
314817.234391
 20
1990802.129844
 30
0.0
 40
1.227059
  1
06
  7
Style-Garamond
 11
314817.234391
 21
1990803.356903
 31
0.0
100
AcDbText
 73
     3
  0
TEXT
  5
49C
330
66A
100
AcDbEntity
  8
STP labels
  6
DGN Style 3
 62
   250
100
AcDbText
 10
314829.215517
 20
1990802.674604
 30
0.0
 40
1.227059
  1
06
  7
Style-Garamond
 11
314829.215517
 21
1990803.901663
 31
0.0
100
AcDbText
 73
     3
  0
TEXT
  5
49D
330
66A
100
AcDbEntity
  8
STP labels
  6
DGN Style 3
 62
   250
100
AcDbText
 10
314793.249227
 20
1990801.99931
 30
0.0
 40
1.227059
  1
07
  7
Style-Garamond
 11
314793.249227
 21
1990803.226369
 31
0.0
100
AcDbText
 73
     3
  0
TEXT
  5
49E
330
66A
100
AcDbEntity
  8
STP labels
  6
DGN Style 3
 62
   250
100
AcDbText
 10
314793.249227
 20
1990807.96309
 30
0.0
 40
1.227059
  1
06
  7
Style-Garamond
 11
314793.249227
 21
1990809.190149
 31
0.0
100
AcDbText
 73
     3
  0
TEXT
  5
49F
330
66A
100
AcDbEntity
  8
STP labels
  6
DGN Style 3
 62
   250
100
AcDbText
 10
314793.249227
 20
1990796.03553
 30
0.0
 40
1.227059
  1
08
  7
Style-Garamond
 11
314793.249227
 21
1990797.262589
 31
0.0
100
AcDbText
 73
     3
  0
TEXT
  5
4A0
330
66A
100
AcDbEntity
  8
STP labels
  6
DGN Style 3
 62
   250
100
AcDbText
 10
314787.285447
 20
1990807.96309
 30
0.0
 40
1.227059
  1
07
  7
Style-Garamond
 11
314787.285447
 21
1990809.190149
 31
0.0
100
AcDbText
 73
     3
  0
TEXT
  5
4A1
330
66A
100
AcDbEntity
  8
STP labels
  6
DGN Style 3
 62
   250
100
AcDbText
 10
314787.285447
 20
1990801.99931
 30
0.0
 40
1.227059
  1
08
  7
Style-Garamond
 11
314787.285447
 21
1990803.226369
 31
0.0
100
AcDbText
 73
     3
  0
TEXT
  5
4A2
330
66A
100
AcDbEntity
  8
STP labels
  6
DGN Style 3
 62
   250
100
AcDbText
 10
314787.285447
 20
1990796.03553
 30
0.0
 40
1.227059
  1
09
  7
Style-Garamond
 11
314787.285447
 21
1990797.262589
 31
0.0
100
AcDbText
 73
     3
  0
TEXT
  5
4A3
330
66A
100
AcDbEntity
  8
STP labels
  6
DGN Style 3
 62
   250
100
AcDbText
 10
314787.285447
 20
1990790.07175
 30
0.0
 40
1.227059
  1
10
  7
Style-Garamond
 11
314787.285447
 21
1990791.298809
 31
0.0
100
AcDbText
 73
     3
  0
TEXT
  5
4A4
330
66A
100
AcDbEntity
  8
STP labels
  6
DGN Style 3
 62
   250
100
AcDbText
 10
314781.321667
 20
1990790.07175
 30
0.0
 40
1.227059
  1
08
  7
Style-Garamond
 11
314781.321667
 21
1990791.298809
 31
0.0
100
AcDbText
 73
     3
  0
TEXT
  5
4A5
330
66A
100
AcDbEntity
  8
STP labels
  6
DGN Style 3
 62
   250
100
AcDbText
 10
314775.357887
 20
1990790.07175
 30
0.0
 40
1.227059
  1
09
  7
Style-Garamond
 11
314775.357887
 21
1990791.298809
 31
0.0
100
AcDbText
 73
     3
  0
TEXT
  5
4A6
330
66A
100
AcDbEntity
  8
STP labels
  6
DGN Style 3
 62
   250
100
AcDbText
 10
314769.394107
 20
1990790.07175
 30
0.0
 40
1.227059
  1
07
  7
Style-Garamond
 11
314769.394107
 21
1990791.298809
 31
0.0
100
AcDbText
 73
     3
  0
TEXT
  5
4A7
330
66A
100
AcDbEntity
  8
STP labels
  6
DGN Style 3
 62
   250
100
AcDbText
 10
314775.111175
 20
1990796.146238
 30
0.0
 40
1.227059
  1
08
  7
Style-Garamond
 11
314775.111175
 21
1990797.373297
 31
0.0
100
AcDbText
 73
     3
  0
TEXT
  5
4A8
330
66A
100
AcDbEntity
  8
STP labels
  6
DGN Style 3
 62
   250
100
AcDbText
 10
314781.336655
 20
1990796.146238
 30
0.0
 40
1.227059
  1
07
  7
Style-Garamond
 11
314781.336655
 21
1990797.373297
 31
0.0
100
AcDbText
 73
     3
  0
TEXT
  5
4A9
330
66A
100
AcDbEntity
  8
STP labels
  6
DGN Style 3
 62
   250
100
AcDbText
 10
314781.336655
 20
1990784.012602
 30
0.0
 40
1.227059
  1
09
  7
Style-Garamond
 11
314781.336655
 21
1990785.239661
 31
0.0
100
AcDbText
 73
     3
  0
TEXT
  5
4AA
330
66A
100
AcDbEntity
  8
STP labels
  6
DGN Style 3
 62
   250
100
AcDbText
 10
314775.443201
 20
1990784.012602
 30
0.0
 40
1.227059
  1
10
  7
Style-Garamond
 11
314775.443201
 21
1990785.239661
 31
0.0
100
AcDbText
 73
     3
  0
TEXT
  5
4AB
330
66A
100
AcDbEntity
  8
STP labels
  6
DGN Style 3
 62
   250
100
AcDbText
 10
314775.443201
 20
1990778.119148
 30
0.0
 40
1.227059
  1
11
  7
Style-Garamond
 11
314775.443201
 21
1990779.346207
 31
0.0
100
AcDbText
 73
     3
  0
TEXT
  5
4AC
330
66A
100
AcDbEntity
  8
STP labels
  6
DGN Style 3
 62
   250
100
AcDbText
 10
314769.20112
 20
1990783.957248
 30
0.0
 40
1.227059
  1
08
  7
Style-Garamond
 11
314769.20112
 21
1990785.184307
 31
0.0
100
AcDbText
 73
     3
  0
TEXT
  5
4AD
330
66A
100
AcDbEntity
  8
STP labels
  6
DGN Style 3
 62
   250
100
AcDbText
 10
314769.20112
 20
1990777.812934
 30
0.0
 40
1.227059
  1
09
  7
Style-Garamond
 11
314769.20112
 21
1990779.039993
 31
0.0
100
AcDbText
 73
     3
  0
TEXT
  5
4AE
330
66A
100
AcDbEntity
  8
STP labels
  6
DGN Style 3
 62
   250
100
AcDbText
 10
314775.111175
 20
1990802.290552
 30
0.0
 40
1.227059
  1
07
  7
Style-Garamond
 11
314775.111175
 21
1990803.517611
 31
0.0
100
AcDbText
 73
     3
  0
TEXT
  5
4AF
330
66A
100
AcDbEntity
  8
STP labels
  6
DGN Style 3
 62
   250
100
AcDbText
 10
314769.411403
 20
1990802.290552
 30
0.0
 40
1.227059
  1
05
  7
Style-Garamond
 11
314769.411403
 21
1990803.517611
 31
0.0
100
AcDbText
 73
     3
  0
TEXT
  5
4B0
330
66A
100
AcDbEntity
  8
STP labels
  6
DGN Style 3
 62
   250
100
AcDbText
 10
314769.411403
 20
1990807.990324
 30
0.0
 40
1.227059
  1
04
  7
Style-Garamond
 11
314769.411403
 21
1990809.217383
 31
0.0
100
AcDbText
 73
     3
  0
TEXT
  5
4B1
330
66A
100
AcDbEntity
  8
STP labels
  6
DGN Style 3
 62
   250
100
AcDbText
 10
314775.111175
 20
1990807.990324
 30
0.0
 40
1.227059
  1
06
  7
Style-Garamond
 11
314775.111175
 21
1990809.217383
 31
0.0
100
AcDbText
 73
     3
  0
TEXT
  5
4B2
330
66A
100
AcDbEntity
  8
STP labels
  6
DGN Style 3
 62
   250
100
AcDbText
 10
314781.115305
 20
1990808.268803
 30
0.0
 40
1.227059
  1
05
  7
Style-Garamond
 11
314781.115305
 21
1990809.495862
 31
0.0
100
AcDbText
 73
     3
  0
TEXT
  5
4B3
330
66A
100
AcDbEntity
  8
STP labels
  6
DGN Style 3
 62
   250
100
AcDbText
 10
314781.115305
 20
1990802.258219
 30
0.0
 40
1.227059
  1
06
  7
Style-Garamond
 11
314781.115305
 21
1990803.485278
 31
0.0
100
AcDbText
 73
     3
  0
TEXT
  5
4B4
330
66A
100
AcDbEntity
  8
STP labels
  6
DGN Style 3
 62
   250
100
AcDbText
 10
314769.411403
 20
1990814.000908
 30
0.0
 40
1.227059
  1
03
  7
Style-Garamond
 11
314769.411403
 21
1990815.227967
 31
0.0
100
AcDbText
 73
     3
  0
TEXT
  5
4B5
330
66A
100
AcDbEntity
  8
STP labels
  6
DGN Style 3
 62
   250
100
AcDbText
 10
314775.421987
 20
1990814.000908
 30
0.0
 40
1.227059
  1
05
  7
Style-Garamond
 11
314775.421987
 21
1990815.227967
 31
0.0
100
AcDbText
 73
     3
  0
TEXT
  5
4B6
330
66A
100
AcDbEntity
  8
STP labels
  6
DGN Style 3
 62
   250
100
AcDbText
 10
314781.059967
 20
1990814.000908
 30
0.0
 40
1.227059
  1
04
  7
Style-Garamond
 11
314781.059967
 21
1990815.227967
 31
0.0
100
AcDbText
 73
     3
  0
TEXT
  5
4B7
330
66A
100
AcDbEntity
  8
STP labels
  6
DGN Style 3
 62
   250
100
AcDbText
 10
314786.697947
 20
1990814.000908
 30
0.0
 40
1.227059
  1
06
  7
Style-Garamond
 11
314786.697947
 21
1990815.227967
 31
0.0
100
AcDbText
 73
     3
  0
TEXT
  5
4B8
330
66A
100
AcDbEntity
  8
STP labels
  6
DGN Style 3
 62
   250
100
AcDbText
 10
314787.479128
 20
1990820.112889
 30
0.0
 40
1.227059
  1
05
  7
Style-Garamond
 11
314787.479128
 21
1990821.339948
 31
0.0
100
AcDbText
 73
     3
  0
TEXT
  5
4B9
330
66A
100
AcDbEntity
  8
STP labels
  6
DGN Style 3
 62
   250
100
AcDbText
 10
314781.317427
 20
1990820.112889
 30
0.0
 40
1.227059
  1
03
  7
Style-Garamond
 11
314781.317427
 21
1990821.339948
 31
0.0
100
AcDbText
 73
     3
  0
TEXT
  5
4BA
330
66A
100
AcDbEntity
  8
STP labels
  6
DGN Style 3
 62
   250
100
AcDbText
 10
314775.155727
 20
1990820.112889
 30
0.0
 40
1.227059
  1
04
  7
Style-Garamond
 11
314775.155727
 21
1990821.339948
 31
0.0
100
AcDbText
 73
     3
  0
TEXT
  5
4BB
330
66A
100
AcDbEntity
  8
STP labels
  6
DGN Style 3
 62
   250
100
AcDbText
 10
314793.040557
 20
1990820.112889
 30
0.0
 40
1.227059
  1
04
  7
Style-Garamond
 11
314793.040557
 21
1990821.339948
 31
0.0
100
AcDbText
 73
     3
  0
TEXT
  5
4BC
330
66A
100
AcDbEntity
  8
STP labels
  6
DGN Style 3
 62
   250
100
AcDbText
 10
314799.349043
 20
1990820.112889
 30
0.0
 40
1.227059
  1
04
  7
Style-Garamond
 11
314799.349043
 21
1990821.339948
 31
0.0
100
AcDbText
 73
     3
  0
TEXT
  5
4BD
330
66A
100
AcDbEntity
  8
STP labels
  6
DGN Style 3
 62
   250
100
AcDbText
 10
314799.349043
 20
1990826.421376
 30
0.0
 40
1.227059
  1
03
  7
Style-Garamond
 11
314799.349043
 21
1990827.648435
 31
0.0
100
AcDbText
 73
     3
  0
TEXT
  5
4BE
330
66A
100
AcDbEntity
  8
STP labels
  6
DGN Style 3
 62
   250
100
AcDbText
 10
314793.040557
 20
1990826.421376
 30
0.0
 40
1.227059
  1
03
  7
Style-Garamond
 11
314793.040557
 21
1990827.648435
 31
0.0
100
AcDbText
 73
     3
  0
TEXT
  5
4BF
330
66A
100
AcDbEntity
  8
STP labels
  6
DGN Style 3
 62
   250
100
AcDbText
 10
314787.285447
 20
1990826.421376
 30
0.0
 40
1.227059
  1
04
  7
Style-Garamond
 11
314787.285447
 21
1990827.648435
 31
0.0
100
AcDbText
 73
     3
  0
TEXT
  5
4C0
330
66A
100
AcDbEntity
  8
STP labels
  6
DGN Style 3
 62
   250
100
AcDbText
 10
314781.219722
 20
1990826.357125
 30
0.0
 40
1.227059
  1
02
  7
Style-Garamond
 11
314781.219722
 21
1990827.584184
 31
0.0
100
AcDbText
 73
     3
  0
TEXT
  5
4C1
330
66A
100
AcDbEntity
  8
STP labels
  6
DGN Style 3
 62
   250
100
AcDbText
 10
314781.198311
 20
1990831.956793
 30
0.0
 40
1.227059
  1
01
  7
Style-Garamond
 11
314781.198311
 21
1990833.183852
 31
0.0
100
AcDbText
 73
     3
  0
TEXT
  5
4C2
330
66A
100
AcDbEntity
  8
STP labels
  6
DGN Style 3
 62
   250
100
AcDbText
 10
314787.230109
 20
1990831.956793
 30
0.0
 40
1.227059
  1
03
  7
Style-Garamond
 11
314787.230109
 21
1990833.183852
 31
0.0
100
AcDbText
 73
     3
  0
TEXT
  5
4C3
330
66A
100
AcDbEntity
  8
STP labels
  6
DGN Style 3
 62
   250
100
AcDbText
 10
314792.929882
 20
1990832.288918
 30
0.0
 40
1.227059
  1
02
  7
Style-Garamond
 11
314792.929882
 21
1990833.515977
 31
0.0
100
AcDbText
 73
     3
  0
TEXT
  5
4C4
330
66A
100
AcDbEntity
  8
STP labels
  6
DGN Style 3
 62
   250
100
AcDbText
 10
314799.487387
 20
1990832.288918
 30
0.0
 40
1.227059
  1
02
  7
Style-Garamond
 11
314799.487387
 21
1990833.515977
 31
0.0
100
AcDbText
 73
     3
  0
TEXT
  5
4C5
330
66A
100
AcDbEntity
  8
STP labels
  6
DGN Style 3
 62
   250
100
AcDbText
 10
314805.148423
 20
1990832.288918
 30
0.0
 40
1.227059
  1
01
  7
Style-Garamond
 11
314805.148423
 21
1990833.515977
 31
0.0
100
AcDbText
 73
     3
  0
TEXT
  5
4C6
330
66A
100
AcDbEntity
  8
STP labels
  6
DGN Style 3
 62
   250
100
AcDbText
 10
314805.701799
 20
1990838.682326
 30
0.0
 40
1.227059
  1
01
  7
Style-Garamond
 11
314805.701799
 21
1990839.909385
 31
0.0
100
AcDbText
 73
     3
  0
TEXT
  5
4C7
330
66A
100
AcDbEntity
  8
STP labels
  6
DGN Style 3
 62
   250
100
AcDbText
 10
314799.337975
 20
1990837.990399
 30
0.0
 40
1.227059
  1
01
  7
Style-Garamond
 11
314799.337975
 21
1990839.217458
 31
0.0
100
AcDbText
 73
     3
  0
TEXT
  5
4C8
330
66A
100
AcDbEntity
  8
STP labels
  6
DGN Style 3
 62
   250
100
AcDbText
 10
314792.936646
 20
1990837.990399
 30
0.0
 40
1.227059
  1
01
  7
Style-Garamond
 11
314792.936646
 21
1990839.217458
 31
0.0
100
AcDbText
 73
     3
  0
TEXT
  5
4C9
330
66A
100
AcDbEntity
  8
STP labels
  6
DGN Style 3
 62
   250
100
AcDbText
 10
314786.997691
 20
1990837.990399
 30
0.0
 40
1.227059
  1
02
  7
Style-Garamond
 11
314786.997691
 21
1990839.217458
 31
0.0
100
AcDbText
 73
     3
  0
TEXT
  5
4CA
330
66A
100
AcDbEntity
  8
STP labels
  6
DGN Style 3
 62
   250
100
AcDbText
 10
314787.412723
 20
1990843.913296
 30
0.0
 40
1.227059
  1
01
  7
Style-Garamond
 11
314787.412723
 21
1990845.140355
 31
0.0
100
AcDbText
 73
     3
  0
TEXT
  5
4CB
330
66A
100
AcDbEntity
  8
STP labels
  6
DGN Style 3
 62
   250
100
AcDbText
 10
314799.144294
 20
1990844.190067
 30
0.0
 40
1.227059
  1
01
  7
Style-Garamond
 11
314799.144294
 21
1990845.417126
 31
0.0
100
AcDbText
 73
     3
  0
TEXT
  5
4CC
330
66A
100
AcDbEntity
  8
STP labels
  6
DGN Style 3
 62
   250
100
AcDbText
 10
314805.314436
 20
1990844.190067
 30
0.0
 40
1.227059
  1
02
  7
Style-Garamond
 11
314805.314436
 21
1990845.417126
 31
0.0
100
AcDbText
 73
     3
  0
TEXT
  5
4CD
330
66A
100
AcDbEntity
  8
STP labels
  6
DGN Style 3
 62
   250
100
AcDbText
 10
314775.065522
 20
1990849.822354
 30
0.0
 40
1.227059
  1
01
  7
Style-Garamond
 11
314775.065522
 21
1990851.049413
 31
0.0
100
AcDbText
 73
     3
  0
TEXT
  5
4CE
330
66A
100
AcDbEntity
  8
STP labels
  6
DGN Style 3
 62
   250
100
AcDbText
 10
314769.158233
 20
1990851.033227
 30
0.0
 40
1.227059
  1
01
  7
Style-Garamond
 11
314769.158233
 21
1990852.260286
 31
0.0
100
AcDbText
 73
     3
  0
TEXT
  5
4CF
330
66A
100
AcDbEntity
  8
Well
 62
   250
100
AcDbText
 10
314769.158233
 20
1990844.058601
 30
0.0
 40
1.227059
  1
02
  7
Style-Garamond
 11
314769.158233
 21
1990845.28566
 31
0.0
100
AcDbText
 73
     3
  0
CIRCLE
  5
4D5
330
66A
100
AcDbEntity
  8
Well
370
    13
100
AcDbCircle
 10
314860.205805
 20
1990857.973052
 30
0.0
 40
1.290755151550545
  0
CIRCLE
  5
4D6
330
66A
100
AcDbEntity
  8
Well
370
    13
100
AcDbCircle
 10
314860.205805
 20
1990857.973052
 30
0.0
 40
1.588286079950735
  0
HATCH
  5
4D4
330
66A
100
AcDbEntity
  8
Well
 62
    12
370
    13
100
AcDbHatch
 10
0.0
 20
0.0
 30
0.0
210
0.0
220
0.0
230
1.0
  2
SOLID
 70
     1
 71
     0
 91
        1
 92
        1
 93
        1
 72
     2
 10
314860.2058048101
 20
1990857.973051669
 40
0.8068913055419921
 50
0.0
 51
360.0
 73
     1
 97
        0
 75
     0
 76
     1
 98
        1
 10
0.0
 20
0.0
450
        0
451
        0
460
0.0
461
0.0
452
        0
462
0.0
453
        0
470

  0
TEXT
  5
4EA
330
66A
100
AcDbEntity
  8
Trees
  6
DGN Style 3
 62
   250
370
    13
100
AcDbText
 10
314879.515205
 20
1990823.847808
 30
0.0
 40
1.227059
  1
Well
  7
Style-Garamond
 11
314879.515205
 21
1990825.074867
 31
0.0
100
AcDbText
 73
     3
  0
LWPOLYLINE
  5
4F9
330
66A
100
AcDbEntity
  8
Fence
100
AcDbPolyline
 90
       10
 70
   128
 43
0.0
 10
314811.801448
 20
1990836.914602
 10
314810.56559
 20
1990832.352056
 42
-0.091202
 10
314810.409386
 20
1990832.025714
 10
314808.960323
 20
1990830.031277
 42
0.03314
 10
314808.889755
 20
1990829.919235
 10
314804.388795
 20
1990821.597686
 42
-0.016484
 10
314804.35554
 20
1990821.540771
 10
314799.787485
 20
1990814.282778
 42
0.002409
 10
314799.782391
 20
1990814.274598
 10
314796.776478
 20
1990809.394937
  0
LWPOLYLINE
  5
50A
330
66A
100
AcDbEntity
  8
Fence
100
AcDbPolyline
 90
        6
 70
   128
 43
0.0
 10
314796.776478
 20
1990809.394937
 10
314787.95274
 20
1990802.080312
 42
-0.006901
 10
314787.931248
 20
1990802.062991
 10
314781.155837
 20
1990796.754946
 10
314781.155837
 20
1990796.754946
 10
314781.155837
 20
1990796.754946
  0
LINE
  5
50E
330
66A
100
AcDbEntity
  8
Fence
100
AcDbLine
 10
314781.155837
 20
1990796.754946
 30
0.0
 11
314774.884316
 21
1990791.863345
 31
0.0
  0
LWPOLYLINE
  5
50F
330
66A
100
AcDbEntity
  8
Fence
100
AcDbPolyline
 90
       28
 70
   128
 43
0.0
 10
314875.264102
 20
1990866.424177
 10
314871.208255
 20
1990863.471174
 42
0.006533
 10
314871.187331
 20
1990863.455518
 10
314861.046755
 20
1990855.65886
 42
-0.010259
 10
314861.01372
 20
1990855.634522
 10
314851.178526
 20
1990848.695531
 42
-0.01833
 10
314851.117128
 20
1990848.655501
 10
314845.270468
 20
1990845.14198
 42
-0.012827
 10
314845.225833
 20
1990845.116692
 10
314830.725385
 20
1990837.385913
 42
-0.113648
 10
314830.292077
 20
1990837.269026
 10
314820.62509
 20
1990836.909671
 42
0.008752
 10
314820.590138
 20
1990836.907759
 10
314816.511066
 20
1990836.61289
 42
0.014159
 10
314816.454728
 20
1990836.60721
 10
314813.430909
 20
1990836.215593
 42
-0.163688
 10
314812.805415
 20
1990836.339592
 10
314807.221103
 20
1990839.538457
 42
0.007596
 10
314807.194512
 20
1990839.553157
 10
314801.111921
 20
1990842.796116
 42
-0.018285
 10
314801.048704
 20
1990842.83285
 10
314797.229906
 20
1990845.242762
 42
0.116494
 10
314796.795126
 20
1990845.392174
 10
314794.138553
 20
1990845.656209
 42
-0.092046
 10
314793.78795
 20
1990845.758029
 10
314789.385592
 20
1990847.973336
 42
0.007069
 10
314789.360159
 20
1990847.985687
 10
314786.144444
 20
1990849.49149
  0
LINE
  5
52C
330
66A
100
AcDbEntity
  8
Road
  6
Continuous
370
    13
100
AcDbLine
 10
314785.784676
 20
1990848.007666
 30
0.0
 11
314786.144444
 21
1990849.49149
 31
0.0
  0
CIRCLE
  5
52D
330
66A
100
AcDbEntity
  8
Well
370
    13
100
AcDbCircle
 10
314876.562827
 20
1990824.598324
 30
0.0
 40
1.290755151550545
  0
HATCH
  5
52E
330
66A
100
AcDbEntity
  8
Well
 62
    12
370
    13
100
AcDbHatch
 10
0.0
 20
0.0
 30
0.0
210
0.0
220
0.0
230
1.0
  2
SOLID
 70
     1
 71
     0
 91
        1
 92
        1
 93
        1
 72
     2
 10
314876.5628265199
 20
1990824.598324387
 40
0.8068913055419921
 50
0.0
 51
360.0
 73
     1
 97
        0
 75
     0
 76
     1
 98
        1
 10
0.0
 20
0.0
450
        0
451
        0
460
0.0
461
0.0
452
        0
462
0.0
453
        0
470

  0
INSERT
  5
530
330
66A
100
AcDbEntity
  8
CONNEX
100
AcDbBlockReference
  2
POINT
 10
314877.376299
 20
1990824.553168
 30
0.0
  0
INSERT
  5
531
330
66A
100
AcDbEntity
  8
CONNEX
100
AcDbBlockReference
  2
POINT
 10
314877.825661
 20
1990824.459085
 30
0.0
  0
CIRCLE
  5
532
330
66A
100
AcDbEntity
  8
Well
370
    13
100
AcDbCircle
 10
314876.562827
 20
1990824.598324
 30
0.0
 40
1.588286079950735
  0
LWPOLYLINE
  5
54B
330
66A
100
AcDbEntity
  8
Outbuildings
100
AcDbPolyline
 90
       26
 70
   128
 43
0.0
 10
314822.683856
 20
1990842.274577
 10
314822.434072
 20
1990841.875961
 42
-0.025562
 10
314822.375463
 20
1990841.79226
 10
314821.836375
 20
1990841.100505
 42
-0.016768
 10
314821.793407
 20
1990841.049026
 10
314821.601004
 20
1990840.833624
 42
0.032916
 10
314821.520028
 20
1990840.729985
 10
314821.337611
 20
1990840.461877
 42
-0.071146
 10
314821.146791
 20
1990840.252683
 10
314820.879564
 20
1990840.032468
 10
314820.789544
 20
1990839.837796
 10
314820.885891
 20
1990839.66822
 10
314820.815695
 20
1990839.524753
 10
314820.831953
 20
1990839.509322
 42
0.00828
 10
314820.856349
 20
1990839.486924
 10
314821.022318
 20
1990839.339539
 10
314821.061264
 20
1990839.323733
 10
314822.767071
 20
1990837.990119
 42
0.012383
 10
314822.80683
 20
1990837.960593
 10
314823.105694
 20
1990837.749917
 42
-0.019975
 10
314823.169083
 20
1990837.70133
 10
314823.491335
 20
1990837.433239
 42
-0.005995
 10
314823.509582
 20
1990837.417684
 10
314823.889398
 20
1990837.085977
 42
0.032784
 10
314823.993494
 20
1990837.006456
 10
314825.027798
 20
1990836.318716
  0
LINE
  5
55F
330
66A
100
AcDbEntity
  8
Outbuildings
100
AcDbLine
 10
314825.027798
 20
1990836.318716
 30
0.0
 11
314827.428617
 21
1990834.242226
 31
0.0
  0
LWPOLYLINE
  5
56D
330
66A
100
AcDbEntity
  8
Fence
100
AcDbPolyline
 90
        6
 70
   128
 43
0.0
 10
314814.694499
 20
1990873.229029
 10
314809.32339
 20
1990868.057921
 10
314805.557327
 20
1990862.29799
 10
314802.499038
 20
1990855.295765
 10
314801.26259
 20
1990850.03565
 10
314797.030161
 20
1990845.368814
  0
LINE
  5
56F
330
66A
100
AcDbEntity
  8
Outbuildings
100
AcDbLine
 10
314809.14485
 20
1990854.798891
 30
0.0
 11
314809.846094
 21
1990853.622153
 31
0.0
  0
LINE
  5
570
330
66A
100
AcDbEntity
  8
Outbuildings
100
AcDbLine
 10
314809.968192
 20
1990854.167898
 30
0.0
 11
314809.847725
 21
1990854.041456
 31
0.0
  0
LWPOLYLINE
  5
571
330
66A
100
AcDbEntity
  8
Outbuildings
100
AcDbPolyline
 90
        3
 70
   128
 43
0.0
 10
314806.067333
 20
1990851.940217
 10
314805.78157
 20
1990852.173511
 10
314805.78157
 20
1990852.173511
  0
LINE
  5
572
330
66A
100
AcDbEntity
  8
Fence
100
AcDbLine
 10
314780.466276
 20
1990851.65008
 30
0.0
 11
314783.596423
 21
1990850.470092
 31
0.0
  0
LINE
  5
574
330
66A
100
AcDbEntity
  8
Road
  6
Continuous
100
AcDbLine
 10
314777.031776
 20
1990831.91522
 30
0.0
 11
314774.124176
 21
1990835.442033
 31
0.0
  0
LWPOLYLINE
  5
575
330
66A
100
AcDbEntity
  8
Modern House
370
    13
100
AcDbPolyline
 90
        3
 70
   128
 43
0.0
 10
314767.113838
 20
1990838.573676
 10
314774.124176
 20
1990835.442033
 10
314774.09803
 20
1990822.351665
  0
TEXT
  5
577
330
66A
100
AcDbEntity
  8
Modern House
 62
   250
100
AcDbText
 10
314763.468405
 20
1990832.624586
 30
0.0
 40
1.0
  1
Modern House
  7
Style-Garamond
 11
314763.468405
 21
1990833.624586
 31
0.0
100
AcDbText
 73
     3
  0
LWPOLYLINE
  5
578
330
66A
100
AcDbEntity
  8
Historical Structure
100
AcDbPolyline
 90
        5
 70
   129
 43
0.0
 10
314822.747143
 20
1990869.692383
 10
314822.873935
 20
1990869.628484
 10
314823.226957
 20
1990870.12558
 10
314823.063158
 20
1990870.222435
 10
314822.747143
 20
1990869.692383
  0
LINE
  5
579
330
66A
100
AcDbEntity
  8
Historical Structure
100
AcDbLine
 10
314825.791778
 20
1990868.080119
 30
0.0
 11
314825.974185
 21
1990868.244978
 31
0.0
  0
LWPOLYLINE
  5
57A
330
66A
100
AcDbEntity
  8
Historical Structure
100
AcDbPolyline
 90
        4
 70
   128
 43
0.0
 10
314825.974185
 20
1990868.244978
 10
314826.381436
 20
1990868.088503
 10
314826.613347
 20
1990867.924445
 10
314826.898896
 20
1990867.678772
  0
LINE
  5
57B
330
66A
100
AcDbEntity
  8
Historical Structure
100
AcDbLine
 10
314825.791778
 20
1990868.080119
 30
0.0
 11
314826.785734
 21
1990867.490263
 31
0.0
  0
HATCH
  5
594
330
66A
100
AcDbEntity
  8
Trees
  6
Continuous
 62
     1
370
    13
100
AcDbHatch
 10
0.0
 20
0.0
 30
0.0
210
0.0
220
0.0
230
1.0
  2
SOLID
 70
     1
 71
     0
 91
        1
 92
        1
 93
        2
 72
     4
 94
        3
 73
     0
 74
     0
 95
       11
 96
        7
 40
0.0
 40
0.0
 40
0.0
 40
0.0
 40
0.25
 40
0.5
 40
0.75
 40
1.0
 40
1.0
 40
1.0
 40
1.0
 10
314876.3511514808
 20
1990790.961412429
 10
314876.2062169101
 20
1990791.128892377
 10
314876.1128146312
 20
1990791.370449995
 10
314876.2835153478
 20
1990791.499280724
 10
314876.4026837727
 20
1990791.357566922
 10
314876.4509952963
 20
1990791.180424669
 10
314876.4760826852
 20
1990791.064929517
 72
     4
 94
        3
 73
     0
 74
     0
 95
       51
 96
       47
 40
0.0
 40
0.0
 40
0.0
 40
0.0
 40
0.0227272727272727
 40
0.0454545454545455
 40
0.0681818181818182
 40
0.0909090909090909
 40
0.1136363636363636
 40
0.1363636363636364
 40
0.1590909090909091
 40
0.1818181818181819
 40
0.2045454545454546
 40
0.2272727272727273
 40
0.25
 40
0.2727272727272727
 40
0.2954545454545455
 40
0.3181818181818182
 40
0.3409090909090909
 40
0.3636363636363636
 40
0.3863636363636363
 40
0.409090909090909
 40
0.4318181818181819
 40
0.4545454545454544
 40
0.4772727272727272
 40
0.5
 40
0.5227272727272726
 40
0.5454545454545455
 40
0.568181818181818
 40
0.5909090909090909
 40
0.6136363636363634
 40
0.6363636363636363
 40
0.659090909090909
 40
0.6818181818181816
 40
0.7045454545454543
 40
0.7272727272727271
 40
0.7499999999999997
 40
0.7727272727272724
 40
0.7954545454545451
 40
0.8181818181818178
 40
0.8409090909090902
 40
0.8636363636363631
 40
0.8863636363636359
 40
0.9090909090909086
 40
0.9318181818181813
 40
0.9545454545454539
 40
0.9772727272727268
 40
1.0
 40
1.0
 40
1.0
 40
1.0
 10
314876.4760826852
 20
1990791.064929517
 10
314876.422979936
 20
1990791.41389044
 10
314876.5949316949
 20
1990791.570669984
 10
314876.746653835
 20
1990791.431591356
 10
314876.746653835
 20
1990791.272283109
 10
314876.7087233
 20
1990791.14331929
 10
314876.6682640626
 20
1990791.05734341
 10
314876.807342691
 20
1990791.297570132
 10
314876.9413639148
 20
1990791.350672881
 10
314877.0500981152
 20
1990791.24193868
 10
314877.0500981152
 20
1990791.112974861
 10
314876.8655028448
 20
1990790.903092566
 10
314876.7567686443
 20
1990790.903092566
 10
314876.7112520023
 20
1990790.857575925
 10
314876.8806750589
 20
1990790.885391651
 10
314877.05515552
 20
1990790.885391651
 10
314877.0880286503
 20
1990790.847461116
 10
314877.1209017807
 20
1990790.771600046
 10
314877.1209017807
 20
1990790.655279738
 10
314876.9464213196
 20
1990790.607234394
 10
314876.8301010122
 20
1990790.632521418
 10
314876.7137807046
 20
1990790.688152869
 10
314876.8553880354
 20
1990790.54907424
 10
314876.9489500218
 20
1990790.402409506
 10
314876.8427445237
 20
1990790.268388281
 10
314876.7087233
 20
1990790.268388281
 10
314876.6632066579
 20
1990790.450454849
 10
314876.5974603972
 20
1990790.662865846
 10
314876.5974603972
 20
1990790.561717752
 10
314876.625276123
 20
1990790.36447897
 10
314876.5772307785
 20
1990790.250687365
 10
314876.4432095547
 20
1990790.250687365
 10
314876.3521762707
 20
1990790.326548435
 10
314876.4153938291
 20
1990790.54907424
 10
314876.4659678758
 20
1990790.71091119
 10
314876.2889587124
 20
1990790.37459378
 10
314876.1245930606
 20
1990790.341720649
 10
314876.0462032881
 20
1990790.465627064
 10
314876.0462032881
 20
1990790.607234394
 10
314876.2232124515
 20
1990790.703325083
 10
314876.407807722
 20
1990790.812059283
 10
314876.1549374885
 20
1990790.748841725
 10
314876.0335597764
 20
1990790.849989819
 10
314876.0335597764
 20
1990790.935965698
 10
314876.0588467997
 20
1990791.05734341
 10
314876.1625235955
 20
1990791.090216541
 10
314876.3511514808
 20
1990790.961412429
 97
        0
 75
     0
 76
     1
 98
        1
 10
0.0
 20
0.0
450
        0
451
        0
460
0.0
461
0.0
452
        0
462
0.0
453
        0
470

  0
HATCH
  5
599
330
66A
100
AcDbEntity
  8
Trees
  6
Continuous
 62
    34
370
    13
100
AcDbHatch
 10
0.0
 20
0.0
 30
0.0
210
0.0
220
0.0
230
1.0
  2
SOLID
 70
     1
 71
     0
 91
        1
 92
        1
 93
        2
 72
     4
 94
        3
 73
     0
 74
     0
 95
       11
 96
        7
 40
0.0
 40
0.0
 40
0.0
 40
0.0
 40
0.25
 40
0.5
 40
0.75
 40
1.0
 40
1.0
 40
1.0
 40
1.0
 10
314876.3511514808
 20
1990787.919095862
 10
314876.2062169101
 20
1990788.08657581
 10
314876.1128146312
 20
1990788.328133428
 10
314876.2835153478
 20
1990788.456964158
 10
314876.4026837727
 20
1990788.315250355
 10
314876.4509952963
 20
1990788.138108102
 10
314876.4760826852
 20
1990788.02261295
 72
     4
 94
        3
 73
     0
 74
     0
 95
       51
 96
       47
 40
0.0
 40
0.0
 40
0.0
 40
0.0
 40
0.0227272727272727
 40
0.0454545454545455
 40
0.0681818181818182
 40
0.0909090909090909
 40
0.1136363636363636
 40
0.1363636363636364
 40
0.1590909090909091
 40
0.1818181818181819
 40
0.2045454545454546
 40
0.2272727272727273
 40
0.25
 40
0.2727272727272727
 40
0.2954545454545455
 40
0.3181818181818182
 40
0.3409090909090909
 40
0.3636363636363636
 40
0.3863636363636363
 40
0.409090909090909
 40
0.4318181818181819
 40
0.4545454545454544
 40
0.4772727272727272
 40
0.5
 40
0.5227272727272726
 40
0.5454545454545455
 40
0.568181818181818
 40
0.5909090909090909
 40
0.6136363636363634
 40
0.6363636363636363
 40
0.659090909090909
 40
0.6818181818181816
 40
0.7045454545454543
 40
0.7272727272727271
 40
0.7499999999999997
 40
0.7727272727272724
 40
0.7954545454545451
 40
0.8181818181818178
 40
0.8409090909090902
 40
0.8636363636363631
 40
0.8863636363636359
 40
0.9090909090909086
 40
0.9318181818181813
 40
0.9545454545454539
 40
0.9772727272727268
 40
1.0
 40
1.0
 40
1.0
 40
1.0
 10
314876.4760826852
 20
1990788.02261295
 10
314876.422979936
 20
1990788.371573873
 10
314876.5949316949
 20
1990788.528353418
 10
314876.746653835
 20
1990788.389274789
 10
314876.746653835
 20
1990788.229966542
 10
314876.7087233
 20
1990788.101002723
 10
314876.6682640626
 20
1990788.015026843
 10
314876.807342691
 20
1990788.255253565
 10
314876.9413639148
 20
1990788.308356314
 10
314877.0500981152
 20
1990788.199622114
 10
314877.0500981152
 20
1990788.070658295
 10
314876.8655028448
 20
1990787.860776001
 10
314876.7567686443
 20
1990787.860776001
 10
314876.7112520023
 20
1990787.815259359
 10
314876.8806750589
 20
1990787.843075084
 10
314877.05515552
 20
1990787.843075084
 10
314877.0880286503
 20
1990787.805144549
 10
314877.1209017807
 20
1990787.729283479
 10
314877.1209017807
 20
1990787.612963172
 10
314876.9464213196
 20
1990787.564917827
 10
314876.8301010122
 20
1990787.590204851
 10
314876.7137807046
 20
1990787.645836302
 10
314876.8553880354
 20
1990787.506757674
 10
314876.9489500218
 20
1990787.360092938
 10
314876.8427445237
 20
1990787.226071715
 10
314876.7087233
 20
1990787.226071715
 10
314876.6632066579
 20
1990787.408138283
 10
314876.5974603972
 20
1990787.620549279
 10
314876.5974603972
 20
1990787.519401185
 10
314876.625276123
 20
1990787.322162403
 10
314876.5772307785
 20
1990787.208370798
 10
314876.4432095547
 20
1990787.208370798
 10
314876.3521762707
 20
1990787.284231869
 10
314876.4153938291
 20
1990787.506757674
 10
314876.4659678758
 20
1990787.668594624
 10
314876.2889587124
 20
1990787.332277212
 10
314876.1245930606
 20
1990787.299404082
 10
314876.0462032881
 20
1990787.423310497
 10
314876.0462032881
 20
1990787.564917827
 10
314876.2232124515
 20
1990787.661008517
 10
314876.407807722
 20
1990787.769742716
 10
314876.1549374885
 20
1990787.706525159
 10
314876.0335597764
 20
1990787.807673252
 10
314876.0335597764
 20
1990787.893649131
 10
314876.0588467997
 20
1990788.015026843
 10
314876.1625235955
 20
1990788.047899974
 10
314876.3511514808
 20
1990787.919095862
 97
        0
 75
     0
 76
     1
 98
        1
 10
0.0
 20
0.0
450
        0
451
        0
460
0.0
461
0.0
452
        0
462
0.0
453
        0
470

  0
HATCH
  5
5A3
330
66A
100
AcDbEntity
  8
Trees
  6
Continuous
 62
   212
370
    13
100
AcDbHatch
 10
0.0
 20
0.0
 30
0.0
210
0.0
220
0.0
230
1.0
  2
SOLID
 70
     1
 71
     0
 91
        1
 92
        1
 93
        2
 72
     4
 94
        3
 73
     0
 74
     0
 95
       11
 96
        7
 40
0.0
 40
0.0
 40
0.0
 40
0.0
 40
0.25
 40
0.5
 40
0.75
 40
1.0
 40
1.0
 40
1.0
 40
1.0
 10
314876.3511514808
 20
1990781.834462729
 10
314876.2062169101
 20
1990782.001942677
 10
314876.1128146312
 20
1990782.243500295
 10
314876.2835153478
 20
1990782.372331024
 10
314876.4026837727
 20
1990782.230617222
 10
314876.4509952963
 20
1990782.053474969
 10
314876.4760826852
 20
1990781.937979817
 72
     4
 94
        3
 73
     0
 74
     0
 95
       51
 96
       47
 40
0.0
 40
0.0
 40
0.0
 40
0.0
 40
0.0227272727272727
 40
0.0454545454545455
 40
0.0681818181818182
 40
0.0909090909090909
 40
0.1136363636363636
 40
0.1363636363636364
 40
0.1590909090909091
 40
0.1818181818181819
 40
0.2045454545454546
 40
0.2272727272727273
 40
0.25
 40
0.2727272727272727
 40
0.2954545454545455
 40
0.3181818181818182
 40
0.3409090909090909
 40
0.3636363636363636
 40
0.3863636363636363
 40
0.409090909090909
 40
0.4318181818181819
 40
0.4545454545454544
 40
0.4772727272727272
 40
0.5
 40
0.5227272727272726
 40
0.5454545454545455
 40
0.568181818181818
 40
0.5909090909090909
 40
0.6136363636363634
 40
0.6363636363636363
 40
0.659090909090909
 40
0.6818181818181816
 40
0.7045454545454543
 40
0.7272727272727271
 40
0.7499999999999997
 40
0.7727272727272724
 40
0.7954545454545451
 40
0.8181818181818178
 40
0.8409090909090902
 40
0.8636363636363631
 40
0.8863636363636359
 40
0.9090909090909086
 40
0.9318181818181813
 40
0.9545454545454539
 40
0.9772727272727268
 40
1.0
 40
1.0
 40
1.0
 40
1.0
 10
314876.4760826852
 20
1990781.937979817
 10
314876.422979936
 20
1990782.286940739
 10
314876.5949316949
 20
1990782.443720284
 10
314876.746653835
 20
1990782.304641656
 10
314876.746653835
 20
1990782.145333408
 10
314876.7087233
 20
1990782.016369589
 10
314876.6682640626
 20
1990781.93039371
 10
314876.807342691
 20
1990782.170620431
 10
314876.9413639148
 20
1990782.223723181
 10
314877.0500981152
 20
1990782.114988981
 10
314877.0500981152
 20
1990781.986025161
 10
314876.8655028448
 20
1990781.776142867
 10
314876.7567686443
 20
1990781.776142867
 10
314876.7112520023
 20
1990781.730626225
 10
314876.8806750589
 20
1990781.758441951
 10
314877.05515552
 20
1990781.758441951
 10
314877.0880286503
 20
1990781.720511416
 10
314877.1209017807
 20
1990781.644650346
 10
314877.1209017807
 20
1990781.528330038
 10
314876.9464213196
 20
1990781.480284694
 10
314876.8301010122
 20
1990781.505571718
 10
314876.7137807046
 20
1990781.561203169
 10
314876.8553880354
 20
1990781.42212454
 10
314876.9489500218
 20
1990781.275459805
 10
314876.8427445237
 20
1990781.141438581
 10
314876.7087233
 20
1990781.141438581
 10
314876.6632066579
 20
1990781.323505149
 10
314876.5974603972
 20
1990781.535916146
 10
314876.5974603972
 20
1990781.434768052
 10
314876.625276123
 20
1990781.23752927
 10
314876.5772307785
 20
1990781.123737665
 10
314876.4432095547
 20
1990781.123737665
 10
314876.3521762707
 20
1990781.199598735
 10
314876.4153938291
 20
1990781.42212454
 10
314876.4659678758
 20
1990781.58396149
 10
314876.2889587124
 20
1990781.247644079
 10
314876.1245930606
 20
1990781.214770949
 10
314876.0462032881
 20
1990781.338677363
 10
314876.0462032881
 20
1990781.480284694
 10
314876.2232124515
 20
1990781.576375383
 10
314876.407807722
 20
1990781.685109583
 10
314876.1549374885
 20
1990781.621892025
 10
314876.0335597764
 20
1990781.723040118
 10
314876.0335597764
 20
1990781.809015998
 10
314876.0588467997
 20
1990781.93039371
 10
314876.1625235955
 20
1990781.96326684
 10
314876.3511514808
 20
1990781.834462729
 97
        0
 75
     0
 76
     1
 98
        1
 10
0.0
 20
0.0
450
        0
451
        0
460
0.0
461
0.0
452
        0
462
0.0
453
        0
470

  0
TEXT
  5
5A8
330
66A
100
AcDbEntity
  8
Trees
  6
DGN Style 3
 62
   250
370
    13
100
AcDbText
 10
314878.619252
 20
1990790.146676
 30
0.0
 40
1.521158
  1
Ackee
  7
Style-Garamond
 11
314878.619252
 21
1990791.667834
 31
0.0
100
AcDbText
 73
     3
  0
HATCH
  5
5AC
330
66A
100
AcDbEntity
  8
Trees
  6
Continuous
 62
    34
370
    13
100
AcDbHatch
 10
0.0
 20
0.0
 30
0.0
210
0.0
220
0.0
230
1.0
  2
SOLID
 70
     1
 71
     0
 91
        1
 92
        1
 93
        2
 72
     4
 94
        3
 73
     0
 74
     0
 95
       11
 96
        7
 40
0.0
 40
0.0
 40
0.0
 40
0.0
 40
0.25
 40
0.5
 40
0.75
 40
1.0
 40
1.0
 40
1.0
 40
1.0
 10
314833.3668160795
 20
1990844.562943751
 10
314833.1762579076
 20
1990844.783144306
 10
314833.0534537526
 20
1990845.100741259
 10
314833.2778889326
 20
1990845.2701263
 10
314833.434570096
 20
1990845.083802754
 10
314833.4980894866
 20
1990844.850898322
 10
314833.5310740737
 20
1990844.699046732
 72
     4
 94
        3
 73
     0
 74
     0
 95
       51
 96
       47
 40
0.0
 40
0.0
 40
0.0
 40
0.0
 40
0.0227272727272727
 40
0.0454545454545455
 40
0.0681818181818182
 40
0.0909090909090909
 40
0.1136363636363636
 40
0.1363636363636364
 40
0.1590909090909091
 40
0.1818181818181819
 40
0.2045454545454546
 40
0.2272727272727273
 40
0.25
 40
0.2727272727272727
 40
0.2954545454545455
 40
0.3181818181818182
 40
0.3409090909090909
 40
0.3636363636363636
 40
0.3863636363636363
 40
0.409090909090909
 40
0.4318181818181819
 40
0.4545454545454544
 40
0.4772727272727272
 40
0.5
 40
0.5227272727272726
 40
0.5454545454545455
 40
0.568181818181818
 40
0.5909090909090909
 40
0.6136363636363634
 40
0.6363636363636363
 40
0.659090909090909
 40
0.6818181818181816
 40
0.7045454545454543
 40
0.7272727272727271
 40
0.7499999999999997
 40
0.7727272727272724
 40
0.7954545454545451
 40
0.8181818181818178
 40
0.8409090909090902
 40
0.8636363636363631
 40
0.8863636363636359
 40
0.9090909090909086
 40
0.9318181818181813
 40
0.9545454545454539
 40
0.9772727272727268
 40
1.0
 40
1.0
 40
1.0
 40
1.0
 10
314833.5310740737
 20
1990844.699046732
 10
314833.4612552395
 20
1990845.157856215
 10
314833.6873352743
 20
1990845.363988011
 10
314833.8868176579
 20
1990845.18112916
 10
314833.8868176579
 20
1990844.971672657
 10
314833.836947062
 20
1990844.802112631
 10
314833.7837517596
 20
1990844.689072613
 10
314833.9666106113
 20
1990845.004919721
 10
314834.1428200502
 20
1990845.074738555
 10
314834.2857824252
 20
1990844.93177618
 10
314834.2857824252
 20
1990844.762216154
 10
314834.0430788584
 20
1990844.486265523
 10
314833.9001164834
 20
1990844.486265523
 10
314833.8402717684
 20
1990844.426420808
 10
314834.0630270967
 20
1990844.462992578
 10
314834.292431838
 20
1990844.462992578
 10
314834.3356530212
 20
1990844.413121983
 10
314834.3788742043
 20
1990844.313380791
 10
314834.3788742043
 20
1990844.160444297
 10
314834.149469463
 20
1990844.097274875
 10
314833.9965329689
 20
1990844.130521939
 10
314833.8435964748
 20
1990844.20366548
 10
314834.0297800328
 20
1990844.020806628
 10
314834.1527941695
 20
1990843.827973657
 10
314834.0131565009
 20
1990843.651764218
 10
314833.836947062
 20
1990843.651764218
 10
314833.777102347
 20
1990843.891143079
 10
314833.6906599806
 20
1990844.170418416
 10
314833.6906599806
 20
1990844.03743016
 10
314833.727231751
 20
1990843.778103061
 10
314833.6640623295
 20
1990843.628491273
 10
314833.4878528907
 20
1990843.628491273
 10
314833.3681634604
 20
1990843.728232465
 10
314833.4512811203
 20
1990844.020806628
 10
314833.5177752482
 20
1990844.233587837
 10
314833.2850458006
 20
1990843.791401887
 10
314833.068939885
 20
1990843.748180704
 10
314832.9658739867
 20
1990843.911091317
 10
314832.9658739867
 20
1990844.097274875
 10
314833.1986034343
 20
1990844.223613718
 10
314833.4413070011
 20
1990844.366576093
 10
314833.1088363617
 20
1990844.283458433
 10
314832.9492504548
 20
1990844.416446689
 10
314832.9492504548
 20
1990844.529486706
 10
314832.9824975187
 20
1990844.689072613
 10
314833.118810481
 20
1990844.732293797
 10
314833.3668160795
 20
1990844.562943751
 97
        0
 75
     0
 76
     1
 98
        1
 10
0.0
 20
0.0
450
        0
451
        0
460
0.0
461
0.0
452
        0
462
0.0
453
        0
470

  0
HATCH
  5
5B1
330
66A
100
AcDbEntity
  8
Trees
  6
Continuous
 62
   172
370
    13
100
AcDbHatch
 10
0.0
 20
0.0
 30
0.0
210
0.0
220
0.0
230
1.0
  2
SOLID
 70
     1
 71
     0
 91
        1
 92
        1
 93
        2
 72
     4
 94
        3
 73
     0
 74
     0
 95
       11
 96
        7
 40
0.0
 40
0.0
 40
0.0
 40
0.0
 40
0.25
 40
0.5
 40
0.75
 40
1.0
 40
1.0
 40
1.0
 40
1.0
 10
314824.8493302937
 20
1990858.37988924
 10
314824.658772122
 20
1990858.600089794
 10
314824.5359679668
 20
1990858.917686747
 10
314824.760403147
 20
1990859.087071788
 10
314824.9170843104
 20
1990858.900748243
 10
314824.9806037009
 20
1990858.667843811
 10
314825.0135882881
 20
1990858.515992221
 72
     4
 94
        3
 73
     0
 74
     0
 95
       51
 96
       47
 40
0.0
 40
0.0
 40
0.0
 40
0.0
 40
0.0227272727272727
 40
0.0454545454545455
 40
0.0681818181818182
 40
0.0909090909090909
 40
0.1136363636363636
 40
0.1363636363636364
 40
0.1590909090909091
 40
0.1818181818181819
 40
0.2045454545454546
 40
0.2272727272727273
 40
0.25
 40
0.2727272727272727
 40
0.2954545454545455
 40
0.3181818181818182
 40
0.3409090909090909
 40
0.3636363636363636
 40
0.3863636363636363
 40
0.409090909090909
 40
0.4318181818181819
 40
0.4545454545454544
 40
0.4772727272727272
 40
0.5
 40
0.5227272727272726
 40
0.5454545454545455
 40
0.568181818181818
 40
0.5909090909090909
 40
0.6136363636363634
 40
0.6363636363636363
 40
0.659090909090909
 40
0.6818181818181816
 40
0.7045454545454543
 40
0.7272727272727271
 40
0.7499999999999997
 40
0.7727272727272724
 40
0.7954545454545451
 40
0.8181818181818178
 40
0.8409090909090902
 40
0.8636363636363631
 40
0.8863636363636359
 40
0.9090909090909086
 40
0.9318181818181813
 40
0.9545454545454539
 40
0.9772727272727268
 40
1.0
 40
1.0
 40
1.0
 40
1.0
 10
314825.0135882881
 20
1990858.515992221
 10
314824.9437694538
 20
1990858.974801703
 10
314825.1698494886
 20
1990859.1809335
 10
314825.3693318722
 20
1990858.998074648
 10
314825.3693318722
 20
1990858.788618145
 10
314825.3194612763
 20
1990858.619058119
 10
314825.266265974
 20
1990858.506018102
 10
314825.4491248258
 20
1990858.821865209
 10
314825.6253342645
 20
1990858.891684043
 10
314825.7682966395
 20
1990858.748721668
 10
314825.7682966395
 20
1990858.579161642
 10
314825.5255930727
 20
1990858.303211012
 10
314825.3826306978
 20
1990858.303211012
 10
314825.3227859827
 20
1990858.243366296
 10
314825.5455413111
 20
1990858.279938067
 10
314825.7749460523
 20
1990858.279938067
 10
314825.8181672354
 20
1990858.230067471
 10
314825.8613884185
 20
1990858.130326279
 10
314825.8613884185
 20
1990857.977389785
 10
314825.6319836774
 20
1990857.914220363
 10
314825.4790471832
 20
1990857.947467427
 10
314825.3261106891
 20
1990858.020610968
 10
314825.5122942471
 20
1990857.837752116
 10
314825.6353083838
 20
1990857.644919145
 10
314825.4956707152
 20
1990857.468709706
 10
314825.3194612763
 20
1990857.468709706
 10
314825.2596165613
 20
1990857.708088567
 10
314825.173174195
 20
1990857.987363904
 10
314825.173174195
 20
1990857.854375648
 10
314825.2097459653
 20
1990857.59504855
 10
314825.1465765438
 20
1990857.445436762
 10
314824.970367105
 20
1990857.445436762
 10
314824.8506776747
 20
1990857.545177954
 10
314824.9337953346
 20
1990857.837752116
 10
314825.0002894625
 20
1990858.050533326
 10
314824.767560015
 20
1990857.608347375
 10
314824.5514540993
 20
1990857.565126192
 10
314824.4483882011
 20
1990857.728036805
 10
314824.4483882011
 20
1990857.914220363
 10
314824.6811176486
 20
1990858.040559206
 10
314824.9238212154
 20
1990858.183521581
 10
314824.591350576
 20
1990858.100403922
 10
314824.4317646691
 20
1990858.233392177
 10
314824.4317646691
 20
1990858.346432194
 10
314824.4650117331
 20
1990858.506018102
 10
314824.6013246952
 20
1990858.549239285
 10
314824.8493302937
 20
1990858.37988924
 97
        0
 75
     0
 76
     1
 98
        1
 10
0.0
 20
0.0
450
        0
451
        0
460
0.0
461
0.0
452
        0
462
0.0
453
        0
470

  0
HATCH
  5
5B6
330
66A
100
AcDbEntity
  8
Trees
  6
Continuous
 62
    34
370
    13
100
AcDbHatch
 10
0.0
 20
0.0
 30
0.0
210
0.0
220
0.0
230
1.0
  2
SOLID
 70
     1
 71
     0
 91
        1
 92
        1
 93
        2
 72
     4
 94
        3
 73
     0
 74
     0
 95
       11
 96
        7
 40
0.0
 40
0.0
 40
0.0
 40
0.0
 40
0.25
 40
0.5
 40
0.75
 40
1.0
 40
1.0
 40
1.0
 40
1.0
 10
314816.6630445083
 20
1990860.790784948
 10
314816.4724863366
 20
1990861.010985502
 10
314816.3496821815
 20
1990861.328582455
 10
314816.5741173615
 20
1990861.497967496
 10
314816.730798525
 20
1990861.31164395
 10
314816.7943179155
 20
1990861.078739519
 10
314816.8273025027
 20
1990860.926887928
 72
     4
 94
        3
 73
     0
 74
     0
 95
       51
 96
       47
 40
0.0
 40
0.0
 40
0.0
 40
0.0
 40
0.0227272727272727
 40
0.0454545454545455
 40
0.0681818181818182
 40
0.0909090909090909
 40
0.1136363636363636
 40
0.1363636363636364
 40
0.1590909090909091
 40
0.1818181818181819
 40
0.2045454545454546
 40
0.2272727272727273
 40
0.25
 40
0.2727272727272727
 40
0.2954545454545455
 40
0.3181818181818182
 40
0.3409090909090909
 40
0.3636363636363636
 40
0.3863636363636363
 40
0.409090909090909
 40
0.4318181818181819
 40
0.4545454545454544
 40
0.4772727272727272
 40
0.5
 40
0.5227272727272726
 40
0.5454545454545455
 40
0.568181818181818
 40
0.5909090909090909
 40
0.6136363636363634
 40
0.6363636363636363
 40
0.659090909090909
 40
0.6818181818181816
 40
0.7045454545454543
 40
0.7272727272727271
 40
0.7499999999999997
 40
0.7727272727272724
 40
0.7954545454545451
 40
0.8181818181818178
 40
0.8409090909090902
 40
0.8636363636363631
 40
0.8863636363636359
 40
0.9090909090909086
 40
0.9318181818181813
 40
0.9545454545454539
 40
0.9772727272727268
 40
1.0
 40
1.0
 40
1.0
 40
1.0
 10
314816.8273025027
 20
1990860.926887928
 10
314816.7574836683
 20
1990861.385697411
 10
314816.9835637032
 20
1990861.591829207
 10
314817.1830460869
 20
1990861.408970356
 10
314817.1830460869
 20
1990861.199513853
 10
314817.1331754908
 20
1990861.029953826
 10
314817.0799801885
 20
1990860.916913809
 10
314817.2628390402
 20
1990861.232760917
 10
314817.439048479
 20
1990861.302579751
 10
314817.5820108541
 20
1990861.159617376
 10
314817.5820108541
 20
1990860.99005735
 10
314817.3393072873
 20
1990860.714106719
 10
314817.1963449123
 20
1990860.714106719
 10
314817.1365001973
 20
1990860.654262004
 10
314817.3592555256
 20
1990860.690833775
 10
314817.5886602669
 20
1990860.690833775
 10
314817.6318814499
 20
1990860.640963179
 10
314817.6751026331
 20
1990860.541221987
 10
314817.6751026331
 20
1990860.388285492
 10
314817.445697892
 20
1990860.325116071
 10
314817.2927613979
 20
1990860.358363135
 10
314817.1398249037
 20
1990860.431506676
 10
314817.3260084617
 20
1990860.248647824
 10
314817.4490225983
 20
1990860.055814853
 10
314817.3093849297
 20
1990859.879605414
 10
314817.1331754908
 20
1990859.879605414
 10
314817.0733307758
 20
1990860.118984275
 10
314816.9868884095
 20
1990860.398259612
 10
314816.9868884095
 20
1990860.265271356
 10
314817.0234601799
 20
1990860.005944257
 10
314816.9602907584
 20
1990859.85633247
 10
314816.7840813195
 20
1990859.85633247
 10
314816.6643918893
 20
1990859.956073661
 10
314816.7475095491
 20
1990860.248647824
 10
314816.8140036772
 20
1990860.461429033
 10
314816.5812742295
 20
1990860.019243083
 10
314816.3651683139
 20
1990859.9760219
 10
314816.2621024156
 20
1990860.138932513
 10
314816.2621024156
 20
1990860.325116071
 10
314816.4948318632
 20
1990860.451454914
 10
314816.73753543
 20
1990860.594417289
 10
314816.4050647907
 20
1990860.511299629
 10
314816.2454788838
 20
1990860.644287885
 10
314816.2454788838
 20
1990860.757327902
 10
314816.2787259476
 20
1990860.916913809
 10
314816.4150389098
 20
1990860.960134993
 10
314816.6630445083
 20
1990860.790784948
 97
        0
 75
     0
 76
     1
 98
        1
 10
0.0
 20
0.0
450
        0
451
        0
460
0.0
461
0.0
452
        0
462
0.0
453
        0
470

  0
HATCH
  5
5BB
330
66A
100
AcDbEntity
  8
Trees
  6
Continuous
 62
     1
370
    13
100
AcDbHatch
 10
0.0
 20
0.0
 30
0.0
210
0.0
220
0.0
230
1.0
  2
SOLID
 70
     1
 71
     0
 91
        1
 92
        1
 93
        2
 72
     4
 94
        3
 73
     0
 74
     0
 95
       11
 96
        7
 40
0.0
 40
0.0
 40
0.0
 40
0.0
 40
0.25
 40
0.5
 40
0.75
 40
1.0
 40
1.0
 40
1.0
 40
1.0
 10
314816.9998132738
 20
1990870.311321902
 10
314816.8092551019
 20
1990870.531522456
 10
314816.6864509468
 20
1990870.849119409
 10
314816.9108861268
 20
1990871.01850445
 10
314817.0675672904
 20
1990870.832180904
 10
314817.1310866809
 20
1990870.599276472
 10
314817.164071268
 20
1990870.447424883
 72
     4
 94
        3
 73
     0
 74
     0
 95
       51
 96
       47
 40
0.0
 40
0.0
 40
0.0
 40
0.0
 40
0.0227272727272727
 40
0.0454545454545455
 40
0.0681818181818182
 40
0.0909090909090909
 40
0.1136363636363636
 40
0.1363636363636364
 40
0.1590909090909091
 40
0.1818181818181819
 40
0.2045454545454546
 40
0.2272727272727273
 40
0.25
 40
0.2727272727272727
 40
0.2954545454545455
 40
0.3181818181818182
 40
0.3409090909090909
 40
0.3636363636363636
 40
0.3863636363636363
 40
0.409090909090909
 40
0.4318181818181819
 40
0.4545454545454544
 40
0.4772727272727272
 40
0.5
 40
0.5227272727272726
 40
0.5454545454545455
 40
0.568181818181818
 40
0.5909090909090909
 40
0.6136363636363634
 40
0.6363636363636363
 40
0.659090909090909
 40
0.6818181818181816
 40
0.7045454545454543
 40
0.7272727272727271
 40
0.7499999999999997
 40
0.7727272727272724
 40
0.7954545454545451
 40
0.8181818181818178
 40
0.8409090909090902
 40
0.8636363636363631
 40
0.8863636363636359
 40
0.9090909090909086
 40
0.9318181818181813
 40
0.9545454545454539
 40
0.9772727272727268
 40
1.0
 40
1.0
 40
1.0
 40
1.0
 10
314817.164071268
 20
1990870.447424883
 10
314817.0942524336
 20
1990870.906234365
 10
314817.3203324685
 20
1990871.112366161
 10
314817.5198148521
 20
1990870.929507309
 10
314817.5198148521
 20
1990870.720050807
 10
314817.4699442562
 20
1990870.550490781
 10
314817.416748954
 20
1990870.437450763
 10
314817.5996078056
 20
1990870.753297871
 10
314817.7758172444
 20
1990870.823116705
 10
314817.9187796194
 20
1990870.68015433
 10
314817.9187796194
 20
1990870.510594304
 10
314817.6760760528
 20
1990870.234643673
 10
314817.5331136777
 20
1990870.234643673
 10
314817.4732689627
 20
1990870.174798958
 10
314817.6960242911
 20
1990870.211370728
 10
314817.9254290322
 20
1990870.211370728
 10
314817.9686502154
 20
1990870.161500133
 10
314818.0118713984
 20
1990870.061758941
 10
314818.0118713984
 20
1990869.908822446
 10
314817.7824666572
 20
1990869.845653025
 10
314817.6295301631
 20
1990869.878900089
 10
314817.476593669
 20
1990869.95204363
 10
314817.6627772271
 20
1990869.769184778
 10
314817.7857913637
 20
1990869.576351807
 10
314817.6461536952
 20
1990869.400142368
 10
314817.4699442562
 20
1990869.400142368
 10
314817.4100995412
 20
1990869.639521229
 10
314817.3236571749
 20
1990869.918796566
 10
314817.3236571749
 20
1990869.78580831
 10
314817.3602289452
 20
1990869.526481212
 10
314817.2970595239
 20
1990869.376869424
 10
314817.1208500849
 20
1990869.376869424
 10
314817.0011606546
 20
1990869.476610616
 10
314817.0842783145
 20
1990869.769184778
 10
314817.1507724424
 20
1990869.981965987
 10
314816.9180429948
 20
1990869.539780037
 10
314816.7019370792
 20
1990869.496558854
 10
314816.598871181
 20
1990869.659469467
 10
314816.598871181
 20
1990869.845653025
 10
314816.8316006286
 20
1990869.971991868
 10
314817.0743041953
 20
1990870.114954243
 10
314816.7418335561
 20
1990870.031836583
 10
314816.5822476491
 20
1990870.164824839
 10
314816.5822476491
 20
1990870.277864856
 10
314816.615494713
 20
1990870.437450763
 10
314816.7518076752
 20
1990870.480671947
 10
314816.9998132738
 20
1990870.311321902
 97
        0
 75
     0
 76
     1
 98
        1
 10
0.0
 20
0.0
450
        0
451
        0
460
0.0
461
0.0
452
        0
462
0.0
453
        0
470

  0
HATCH
  5
5C0
330
66A
100
AcDbEntity
  8
Trees
  6
Continuous
 62
   212
370
    13
100
AcDbHatch
 10
0.0
 20
0.0
 30
0.0
210
0.0
220
0.0
230
1.0
  2
SOLID
 70
     1
 71
     0
 91
        1
 92
        1
 93
        2
 72
     4
 94
        3
 73
     0
 74
     0
 95
       11
 96
        7
 40
0.0
 40
0.0
 40
0.0
 40
0.0
 40
0.25
 40
0.5
 40
0.75
 40
1.0
 40
1.0
 40
1.0
 40
1.0
 10
314775.1807099086
 20
1990845.963753814
 10
314774.9901517368
 20
1990846.183954367
 10
314774.8673475817
 20
1990846.501551321
 10
314775.0917827619
 20
1990846.670936362
 10
314775.2484639252
 20
1990846.484612816
 10
314775.3119833158
 20
1990846.251708384
 10
314775.3449679029
 20
1990846.099856794
 72
     4
 94
        3
 73
     0
 74
     0
 95
       51
 96
       47
 40
0.0
 40
0.0
 40
0.0
 40
0.0
 40
0.0227272727272727
 40
0.0454545454545455
 40
0.0681818181818182
 40
0.0909090909090909
 40
0.1136363636363636
 40
0.1363636363636364
 40
0.1590909090909091
 40
0.1818181818181819
 40
0.2045454545454546
 40
0.2272727272727273
 40
0.25
 40
0.2727272727272727
 40
0.2954545454545455
 40
0.3181818181818182
 40
0.3409090909090909
 40
0.3636363636363636
 40
0.3863636363636363
 40
0.409090909090909
 40
0.4318181818181819
 40
0.4545454545454544
 40
0.4772727272727272
 40
0.5
 40
0.5227272727272726
 40
0.5454545454545455
 40
0.568181818181818
 40
0.5909090909090909
 40
0.6136363636363634
 40
0.6363636363636363
 40
0.659090909090909
 40
0.6818181818181816
 40
0.7045454545454543
 40
0.7272727272727271
 40
0.7499999999999997
 40
0.7727272727272724
 40
0.7954545454545451
 40
0.8181818181818178
 40
0.8409090909090902
 40
0.8636363636363631
 40
0.8863636363636359
 40
0.9090909090909086
 40
0.9318181818181813
 40
0.9545454545454539
 40
0.9772727272727268
 40
1.0
 40
1.0
 40
1.0
 40
1.0
 10
314775.3449679029
 20
1990846.099856794
 10
314775.2751490687
 20
1990846.558666277
 10
314775.5012291034
 20
1990846.764798073
 10
314775.7007114871
 20
1990846.581939221
 10
314775.7007114871
 20
1990846.372482719
 10
314775.6508408912
 20
1990846.202922692
 10
314775.597645589
 20
1990846.089882675
 10
314775.7805044405
 20
1990846.405729782
 10
314775.9567138793
 20
1990846.475548617
 10
314776.0996762543
 20
1990846.332586242
 10
314776.0996762543
 20
1990846.163026216
 10
314775.8569726875
 20
1990845.887075585
 10
314775.7140103127
 20
1990845.887075585
 10
314775.6541655975
 20
1990845.82723087
 10
314775.8769209259
 20
1990845.863802641
 10
314776.1063256671
 20
1990845.863802641
 10
314776.1495468503
 20
1990845.813932045
 10
314776.1927680333
 20
1990845.714190853
 10
314776.1927680333
 20
1990845.561254359
 10
314775.9633632922
 20
1990845.498084937
 10
314775.810426798
 20
1990845.531332001
 10
314775.657490304
 20
1990845.604475542
 10
314775.843673862
 20
1990845.42161669
 10
314775.9666879986
 20
1990845.228783719
 10
314775.82705033
 20
1990845.05257428
 10
314775.6508408912
 20
1990845.05257428
 10
314775.590996176
 20
1990845.29195314
 10
314775.5045538099
 20
1990845.571228478
 10
314775.5045538099
 20
1990845.438240222
 10
314775.5411255802
 20
1990845.178913123
 10
314775.4779561587
 20
1990845.029301335
 10
314775.3017467199
 20
1990845.029301335
 10
314775.1820572896
 20
1990845.129042527
 10
314775.2651749494
 20
1990845.42161669
 10
314775.3316690774
 20
1990845.634397899
 10
314775.0989396298
 20
1990845.192211948
 10
314774.8828337141
 20
1990845.148990766
 10
314774.7797678159
 20
1990845.311901379
 10
314774.7797678159
 20
1990845.498084937
 10
314775.0124972635
 20
1990845.62442378
 10
314775.2552008303
 20
1990845.767386155
 10
314774.9227301909
 20
1990845.684268495
 10
314774.7631442839
 20
1990845.817256751
 10
314774.7631442839
 20
1990845.930296768
 10
314774.7963913479
 20
1990846.089882675
 10
314774.93270431
 20
1990846.133103859
 10
314775.1807099086
 20
1990845.963753814
 97
        0
 75
     0
 76
     1
 98
        1
 10
0.0
 20
0.0
450
        0
451
        0
460
0.0
461
0.0
452
        0
462
0.0
453
        0
470

  0
HATCH
  5
5C5
330
66A
100
AcDbEntity
  8
Excavated STPs
100
AcDbHatch
 10
0.0
 20
0.0
 30
0.0
210
0.0
220
0.0
230
1.0
  2
SOLID
 70
     1
 71
     0
 91
        1
 92
        1
 93
        1
 72
     2
 10
314776.4905859974
 20
1990845.967145734
 40
0.25
 50
0.0
 51
360.0
 73
     1
 97
        0
 75
     0
 76
     1
 98
        1
 10
0.0
 20
0.0
450
        0
451
        0
460
0.0
461
0.0
452
        0
462
0.0
453
        0
470

  0
TEXT
  5
5C6
330
66A
100
AcDbEntity
  8
STP labels
  6
DGN Style 3
 62
   250
100
AcDbText
 10
314775.193607
 20
1990844.301342
 30
0.0
 40
1.227059
  1
02
  7
Style-Garamond
 11
314775.193607
 21
1990845.528401
 31
0.0
100
AcDbText
 73
     3
  0
HATCH
  5
5C7
330
66A
100
AcDbEntity
  8
Trees
  6
Continuous
 62
    13
420
 16732485
370
    13
100
AcDbHatch
 10
0.0
 20
0.0
 30
0.0
210
0.0
220
0.0
230
1.0
  2
SOLID
 70
     1
 71
     0
 91
        1
 92
        1
 93
        2
 72
     4
 94
        3
 73
     0
 74
     0
 95
       11
 96
        7
 40
0.0
 40
0.0
 40
0.0
 40
0.0
 40
0.25
 40
0.5
 40
0.75
 40
1.0
 40
1.0
 40
1.0
 40
1.0
 10
314769.84693111
 20
1990850.599419406
 10
314769.6563729383
 20
1990850.81961996
 10
314769.5335687831
 20
1990851.137216913
 10
314769.7580039633
 20
1990851.306601954
 10
314769.9146851266
 20
1990851.120278408
 10
314769.9782045172
 20
1990850.887373977
 10
314770.0111891043
 20
1990850.735522387
 72
     4
 94
        3
 73
     0
 74
     0
 95
       51
 96
       47
 40
0.0
 40
0.0
 40
0.0
 40
0.0
 40
0.0227272727272727
 40
0.0454545454545455
 40
0.0681818181818182
 40
0.0909090909090909
 40
0.1136363636363636
 40
0.1363636363636364
 40
0.1590909090909091
 40
0.1818181818181819
 40
0.2045454545454546
 40
0.2272727272727273
 40
0.25
 40
0.2727272727272727
 40
0.2954545454545455
 40
0.3181818181818182
 40
0.3409090909090909
 40
0.3636363636363636
 40
0.3863636363636363
 40
0.409090909090909
 40
0.4318181818181819
 40
0.4545454545454544
 40
0.4772727272727272
 40
0.5
 40
0.5227272727272726
 40
0.5454545454545455
 40
0.568181818181818
 40
0.5909090909090909
 40
0.6136363636363634
 40
0.6363636363636363
 40
0.659090909090909
 40
0.6818181818181816
 40
0.7045454545454543
 40
0.7272727272727271
 40
0.7499999999999997
 40
0.7727272727272724
 40
0.7954545454545451
 40
0.8181818181818178
 40
0.8409090909090902
 40
0.8636363636363631
 40
0.8863636363636359
 40
0.9090909090909086
 40
0.9318181818181813
 40
0.9545454545454539
 40
0.9772727272727268
 40
1.0
 40
1.0
 40
1.0
 40
1.0
 10
314770.0111891043
 20
1990850.735522387
 10
314769.94137027
 20
1990851.194331869
 10
314770.1674503048
 20
1990851.400463665
 10
314770.3669326885
 20
1990851.217604814
 10
314770.3669326885
 20
1990851.008148311
 10
314770.3170620926
 20
1990850.838588285
 10
314770.2638667904
 20
1990850.725548267
 10
314770.4467256419
 20
1990851.041395375
 10
314770.6229350808
 20
1990851.111214209
 10
314770.7658974557
 20
1990850.968251834
 10
314770.7658974557
 20
1990850.798691808
 10
314770.523193889
 20
1990850.522741176
 10
314770.380231514
 20
1990850.522741176
 10
314770.3203867989
 20
1990850.462896462
 10
314770.5431421274
 20
1990850.499468233
 10
314770.7725468686
 20
1990850.499468233
 10
314770.8157680517
 20
1990850.449597637
 10
314770.8589892348
 20
1990850.349856445
 10
314770.8589892348
 20
1990850.19691995
 10
314770.6295844936
 20
1990850.133750529
 10
314770.4766479995
 20
1990850.166997593
 10
314770.3237115054
 20
1990850.240141134
 10
314770.5098950634
 20
1990850.057282282
 10
314770.6329092
 20
1990849.864449311
 10
314770.4932715314
 20
1990849.688239872
 10
314770.3170620926
 20
1990849.688239872
 10
314770.2572173774
 20
1990849.927618733
 10
314770.1707750112
 20
1990850.20689407
 10
314770.1707750112
 20
1990850.073905814
 10
314770.2073467816
 20
1990849.814578716
 10
314770.1441773601
 20
1990849.664966928
 10
314769.9679679213
 20
1990849.664966928
 10
314769.848278491
 20
1990849.764708119
 10
314769.9313961508
 20
1990850.057282282
 10
314769.9978902788
 20
1990850.270063491
 10
314769.7651608313
 20
1990849.827877541
 10
314769.5490549156
 20
1990849.784656358
 10
314769.4459890173
 20
1990849.947566971
 10
314769.4459890173
 20
1990850.133750529
 10
314769.6787184649
 20
1990850.260089372
 10
314769.9214220317
 20
1990850.403051747
 10
314769.5889513923
 20
1990850.319934087
 10
314769.4293654853
 20
1990850.452922343
 10
314769.4293654853
 20
1990850.56596236
 10
314769.4626125494
 20
1990850.725548267
 10
314769.5989255114
 20
1990850.768769451
 10
314769.84693111
 20
1990850.599419406
 97
        0
 75
     0
 76
     1
 98
        1
 10
0.0
 20
0.0
450
        0
451
        0
460
0.0
461
0.0
452
        0
462
0.0
453
        0
470

  0
TEXT
  5
5CC
330
66A
100
AcDbEntity
  8
Trees
  6
DGN Style 3
 62
   250
370
    13
100
AcDbText
 10
314879.486403
 20
1990796.978544
 30
0.0
 40
1.227059
  1
Outbuilding ruins
  7
Style-Garamond
 11
314879.486403
 21
1990798.205603
 31
0.0
100
AcDbText
 73
     3
  0
LINE
  5
5CD
330
66A
100
AcDbEntity
  8
Road
 62
    92
100
AcDbLine
 10
314874.379102
 20
1990797.559328
 30
0.0
 11
314878.619808
 21
1990797.559328
 31
0.0
  0
TEXT
  5
5AB
330
66A
100
AcDbEntity
  8
Trees
  6
DGN Style 3
 62
   250
370
    13
100
AcDbText
 10
314878.619252
 20
1990780.395707
 30
0.0
 40
1.521158
  1
Bougainvilla
  7
Style-Garamond
 11
314878.619252
 21
1990781.916865
 31
0.0
100
AcDbText
 73
     3
  0
TEXT
  5
5CE
330
66A
100
AcDbEntity
  8
Trees
  6
DGN Style 3
 62
   250
370
    13
100
AcDbText
 10
314875.560359
 20
1990793.721837
 30
0.0
 40
1.227059
  1
Trees
  7
Style-Garamond IF
 11
314875.560359
 21
1990794.948896
 31
0.0
100
AcDbText
 73
     3
  0
TEXT
  5
5A9
330
66A
100
AcDbEntity
  8
Trees
  6
DGN Style 3
 62
   250
370
    13
100
AcDbText
 10
314878.619252
 20
1990787.104359
 30
0.0
 40
1.521158
  1
Guango
  7
Style-Garamond
 11
314878.619252
 21
1990788.625517
 31
0.0
100
AcDbText
 73
     3
  0
TEXT
  5
5AA
330
66A
100
AcDbEntity
  8
Trees
  6
DGN Style 3
 62
   250
370
    13
100
AcDbText
 10
314878.619252
 20
1990783.438024
 30
0.0
 40
1.521158
  1
Cherry
  7
Style-Garamond
 11
314878.619252
 21
1990784.959182
 31
0.0
100
AcDbText
 73
     3
  0
TEXT
  5
5D4
330
66A
100
AcDbEntity
  8
Trees
  6
DGN Style 3
 62
   250
370
    13
100
AcDbText
 10
314878.619252
 20
1990777.132033
 30
0.0
 40
1.521158
  1
Crotan
  7
Style-Garamond
 11
314878.619252
 21
1990778.653191
 31
0.0
100
AcDbText
 73
     3
  0
HATCH
  5
5D5
330
66A
100
AcDbEntity
  8
Trees
  6
Continuous
 62
    13
420
 16732485
370
    13
100
AcDbHatch
 10
0.0
 20
0.0
 30
0.0
210
0.0
220
0.0
230
1.0
  2
SOLID
 70
     1
 71
     0
 91
        1
 92
        1
 93
        2
 72
     4
 94
        3
 73
     0
 74
     0
 95
       11
 96
        7
 40
0.0
 40
0.0
 40
0.0
 40
0.0
 40
0.25
 40
0.5
 40
0.75
 40
1.0
 40
1.0
 40
1.0
 40
1.0
 10
314876.2882221474
 20
1990784.571154692
 10
314876.0976639755
 20
1990784.791355247
 10
314875.9748598204
 20
1990785.108952199
 10
314876.1992950004
 20
1990785.278337241
 10
314876.355976164
 20
1990785.092013695
 10
314876.4194955545
 20
1990784.859109263
 10
314876.4524801415
 20
1990784.707257673
 72
     4
 94
        3
 73
     0
 74
     0
 95
       51
 96
       47
 40
0.0
 40
0.0
 40
0.0
 40
0.0
 40
0.0227272727272727
 40
0.0454545454545455
 40
0.0681818181818182
 40
0.0909090909090909
 40
0.1136363636363636
 40
0.1363636363636364
 40
0.1590909090909091
 40
0.1818181818181819
 40
0.2045454545454546
 40
0.2272727272727273
 40
0.25
 40
0.2727272727272727
 40
0.2954545454545455
 40
0.3181818181818182
 40
0.3409090909090909
 40
0.3636363636363636
 40
0.3863636363636363
 40
0.409090909090909
 40
0.4318181818181819
 40
0.4545454545454544
 40
0.4772727272727272
 40
0.5
 40
0.5227272727272726
 40
0.5454545454545455
 40
0.568181818181818
 40
0.5909090909090909
 40
0.6136363636363634
 40
0.6363636363636363
 40
0.659090909090909
 40
0.6818181818181816
 40
0.7045454545454543
 40
0.7272727272727271
 40
0.7499999999999997
 40
0.7727272727272724
 40
0.7954545454545451
 40
0.8181818181818178
 40
0.8409090909090902
 40
0.8636363636363631
 40
0.8863636363636359
 40
0.9090909090909086
 40
0.9318181818181813
 40
0.9545454545454539
 40
0.9772727272727268
 40
1.0
 40
1.0
 40
1.0
 40
1.0
 10
314876.4524801415
 20
1990784.707257673
 10
314876.3826613072
 20
1990785.166067156
 10
314876.6087413421
 20
1990785.372198952
 10
314876.8082237257
 20
1990785.1893401
 10
314876.8082237257
 20
1990784.979883597
 10
314876.7583531298
 20
1990784.810323571
 10
314876.7051578275
 20
1990784.697283554
 10
314876.8880166792
 20
1990785.01313066
 10
314877.064226118
 20
1990785.082949496
 10
314877.207188493
 20
1990784.939987121
 10
314877.207188493
 20
1990784.770427095
 10
314876.9644849263
 20
1990784.494476464
 10
314876.8215225512
 20
1990784.494476464
 10
314876.7616778362
 20
1990784.434631749
 10
314876.9844331646
 20
1990784.471203519
 10
314877.2138379058
 20
1990784.471203519
 10
314877.2570590889
 20
1990784.421332924
 10
314877.300280272
 20
1990784.321591731
 10
314877.300280272
 20
1990784.168655237
 10
314877.0708755308
 20
1990784.105485816
 10
314876.9179390368
 20
1990784.13873288
 10
314876.7650025427
 20
1990784.21187642
 10
314876.9511861007
 20
1990784.029017569
 10
314877.0742002373
 20
1990783.836184598
 10
314876.9345625688
 20
1990783.659975159
 10
314876.7583531298
 20
1990783.659975159
 10
314876.6985084148
 20
1990783.89935402
 10
314876.6120660484
 20
1990784.178629357
 10
314876.6120660484
 20
1990784.045641101
 10
314876.6486378189
 20
1990783.786314002
 10
314876.5854683974
 20
1990783.636702215
 10
314876.4092589586
 20
1990783.636702215
 10
314876.2895695282
 20
1990783.736443406
 10
314876.3726871881
 20
1990784.029017569
 10
314876.439181316
 20
1990784.241798778
 10
314876.2064518684
 20
1990783.799612828
 10
314875.9903459528
 20
1990783.756391645
 10
314875.8872800546
 20
1990783.919302258
 10
314875.8872800546
 20
1990784.105485816
 10
314876.1200095022
 20
1990784.231824659
 10
314876.362713069
 20
1990784.374787034
 10
314876.0302424296
 20
1990784.291669374
 10
314875.8706565227
 20
1990784.424657629
 10
314875.8706565227
 20
1990784.537697646
 10
314875.9039035866
 20
1990784.697283554
 10
314876.0402165488
 20
1990784.740504737
 10
314876.2882221474
 20
1990784.571154692
 97
        0
 75
     0
 76
     1
 98
        1
 10
0.0
 20
0.0
450
        0
451
        0
460
0.0
461
0.0
452
        0
462
0.0
453
        0
470

  0
HATCH
  5
5DA
330
66A
100
AcDbEntity
  8
Trees
  6
Continuous
 62
   172
370
    13
100
AcDbHatch
 10
0.0
 20
0.0
 30
0.0
210
0.0
220
0.0
230
1.0
  2
SOLID
 70
     1
 71
     0
 91
        1
 92
        1
 93
        2
 72
     4
 94
        3
 73
     0
 74
     0
 95
       11
 96
        7
 40
0.0
 40
0.0
 40
0.0
 40
0.0
 40
0.25
 40
0.5
 40
0.75
 40
1.0
 40
1.0
 40
1.0
 40
1.0
 10
314876.279747037
 20
1990778.262565932
 10
314876.0891888652
 20
1990778.482766487
 10
314875.9663847101
 20
1990778.800363439
 10
314876.1908198901
 20
1990778.969748481
 10
314876.3475010535
 20
1990778.783424935
 10
314876.4110204441
 20
1990778.550520503
 10
314876.4440050312
 20
1990778.398668913
 72
     4
 94
        3
 73
     0
 74
     0
 95
       51
 96
       47
 40
0.0
 40
0.0
 40
0.0
 40
0.0
 40
0.0227272727272727
 40
0.0454545454545455
 40
0.0681818181818182
 40
0.0909090909090909
 40
0.1136363636363636
 40
0.1363636363636364
 40
0.1590909090909091
 40
0.1818181818181819
 40
0.2045454545454546
 40
0.2272727272727273
 40
0.25
 40
0.2727272727272727
 40
0.2954545454545455
 40
0.3181818181818182
 40
0.3409090909090909
 40
0.3636363636363636
 40
0.3863636363636363
 40
0.409090909090909
 40
0.4318181818181819
 40
0.4545454545454544
 40
0.4772727272727272
 40
0.5
 40
0.5227272727272726
 40
0.5454545454545455
 40
0.568181818181818
 40
0.5909090909090909
 40
0.6136363636363634
 40
0.6363636363636363
 40
0.659090909090909
 40
0.6818181818181816
 40
0.7045454545454543
 40
0.7272727272727271
 40
0.7499999999999997
 40
0.7727272727272724
 40
0.7954545454545451
 40
0.8181818181818178
 40
0.8409090909090902
 40
0.8636363636363631
 40
0.8863636363636359
 40
0.9090909090909086
 40
0.9318181818181813
 40
0.9545454545454539
 40
0.9772727272727268
 40
1.0
 40
1.0
 40
1.0
 40
1.0
 10
314876.4440050312
 20
1990778.398668913
 10
314876.3741861969
 20
1990778.857478396
 10
314876.6002662318
 20
1990779.063610192
 10
314876.7997486154
 20
1990778.88075134
 10
314876.7997486154
 20
1990778.671294838
 10
314876.7498780195
 20
1990778.501734812
 10
314876.6966827171
 20
1990778.388694794
 10
314876.8795415688
 20
1990778.704541901
 10
314877.0557510077
 20
1990778.774360736
 10
314877.1987133827
 20
1990778.631398361
 10
314877.1987133827
 20
1990778.461838335
 10
314876.956009816
 20
1990778.185887704
 10
314876.8130474409
 20
1990778.185887704
 10
314876.7532027259
 20
1990778.126042989
 10
314876.9759580543
 20
1990778.162614759
 10
314877.2053627955
 20
1990778.162614759
 10
314877.2485839786
 20
1990778.112744163
 10
314877.2918051618
 20
1990778.013002972
 10
314877.2918051618
 20
1990777.860066478
 10
314877.0624004205
 20
1990777.796897056
 10
314876.9094639264
 20
1990777.83014412
 10
314876.7565274323
 20
1990777.903287661
 10
314876.9427109904
 20
1990777.720428808
 10
314877.0657251269
 20
1990777.527595838
 10
314876.9260874584
 20
1990777.351386399
 10
314876.7498780195
 20
1990777.351386399
 10
314876.6900333044
 20
1990777.59076526
 10
314876.6035909381
 20
1990777.870040597
 10
314876.6035909381
 20
1990777.73705234
 10
314876.6401627085
 20
1990777.477725242
 10
314876.576993287
 20
1990777.328113454
 10
314876.4007838482
 20
1990777.328113454
 10
314876.2810944179
 20
1990777.427854646
 10
314876.3642120778
 20
1990777.720428808
 10
314876.4307062057
 20
1990777.933210018
 10
314876.1979767581
 20
1990777.491024068
 10
314875.9818708426
 20
1990777.447802885
 10
314875.8788049442
 20
1990777.610713498
 10
314875.8788049442
 20
1990777.796897056
 10
314876.1115343918
 20
1990777.923235899
 10
314876.3542379586
 20
1990778.066198274
 10
314876.0217673193
 20
1990777.983080614
 10
314875.8621814123
 20
1990778.11606887
 10
314875.8621814123
 20
1990778.229108887
 10
314875.8954284762
 20
1990778.388694794
 10
314876.0317414384
 20
1990778.431915977
 10
314876.279747037
 20
1990778.262565932
 97
        0
 75
     0
 76
     1
 98
        1
 10
0.0
 20
0.0
450
        0
451
        0
460
0.0
461
0.0
452
        0
462
0.0
453
        0
470

  0
HATCH
  5
5DF
330
66A
100
AcDbEntity
  8
Trees
  6
Continuous
 62
     1
370
    13
100
AcDbHatch
 10
0.0
 20
0.0
 30
0.0
210
0.0
220
0.0
230
1.0
  2
SOLID
 70
     1
 71
     0
 91
        1
 92
        1
 93
        2
 72
     4
 94
        3
 73
     0
 74
     0
 95
       11
 96
        7
 40
0.0
 40
0.0
 40
0.0
 40
0.0
 40
0.25
 40
0.5
 40
0.75
 40
1.0
 40
1.0
 40
1.0
 40
1.0
 10
314837.0094413002
 20
1990872.684055381
 10
314836.8188831284
 20
1990872.904255935
 10
314836.6960789733
 20
1990873.221852888
 10
314836.9205141533
 20
1990873.39123793
 10
314837.0771953168
 20
1990873.204914384
 10
314837.1407147073
 20
1990872.972009952
 10
314837.1736992945
 20
1990872.820158362
 72
     4
 94
        3
 73
     0
 74
     0
 95
       51
 96
       47
 40
0.0
 40
0.0
 40
0.0
 40
0.0
 40
0.0227272727272727
 40
0.0454545454545455
 40
0.0681818181818182
 40
0.0909090909090909
 40
0.1136363636363636
 40
0.1363636363636364
 40
0.1590909090909091
 40
0.1818181818181819
 40
0.2045454545454546
 40
0.2272727272727273
 40
0.25
 40
0.2727272727272727
 40
0.2954545454545455
 40
0.3181818181818182
 40
0.3409090909090909
 40
0.3636363636363636
 40
0.3863636363636363
 40
0.409090909090909
 40
0.4318181818181819
 40
0.4545454545454544
 40
0.4772727272727272
 40
0.5
 40
0.5227272727272726
 40
0.5454545454545455
 40
0.568181818181818
 40
0.5909090909090909
 40
0.6136363636363634
 40
0.6363636363636363
 40
0.659090909090909
 40
0.6818181818181816
 40
0.7045454545454543
 40
0.7272727272727271
 40
0.7499999999999997
 40
0.7727272727272724
 40
0.7954545454545451
 40
0.8181818181818178
 40
0.8409090909090902
 40
0.8636363636363631
 40
0.8863636363636359
 40
0.9090909090909086
 40
0.9318181818181813
 40
0.9545454545454539
 40
0.9772727272727268
 40
1.0
 40
1.0
 40
1.0
 40
1.0
 10
314837.1736992945
 20
1990872.820158362
 10
314837.1038804602
 20
1990873.278967844
 10
314837.329960495
 20
1990873.485099641
 10
314837.5294428786
 20
1990873.302240789
 10
314837.5294428786
 20
1990873.092784286
 10
314837.4795722827
 20
1990872.92322426
 10
314837.4263769804
 20
1990872.810184242
 10
314837.6092358321
 20
1990873.12603135
 10
314837.7854452709
 20
1990873.195850184
 10
314837.9284076459
 20
1990873.052887809
 10
314837.9284076459
 20
1990872.883327783
 10
314837.6857040791
 20
1990872.607377152
 10
314837.5427417042
 20
1990872.607377152
 10
314837.4828969891
 20
1990872.547532438
 10
314837.7056523175
 20
1990872.584104208
 10
314837.9350570587
 20
1990872.584104208
 10
314837.978278242
 20
1990872.534233611
 10
314838.0214994249
 20
1990872.43449242
 10
314838.0214994249
 20
1990872.281555926
 10
314837.7920946837
 20
1990872.218386504
 10
314837.6391581896
 20
1990872.251633568
 10
314837.4862216955
 20
1990872.324777109
 10
314837.6724052535
 20
1990872.141918257
 10
314837.7954193902
 20
1990871.949085287
 10
314837.6557817216
 20
1990871.772875848
 10
314837.4795722827
 20
1990871.772875848
 10
314837.4197275677
 20
1990872.012254708
 10
314837.3332852014
 20
1990872.291530045
 10
314837.3332852014
 20
1990872.158541789
 10
314837.3698569717
 20
1990871.89921469
 10
314837.3066875502
 20
1990871.749602903
 10
314837.1304781113
 20
1990871.749602903
 10
314837.0107886811
 20
1990871.849344095
 10
314837.093906341
 20
1990872.141918257
 10
314837.1604004689
 20
1990872.354699467
 10
314836.9276710214
 20
1990871.912513516
 10
314836.7115651057
 20
1990871.869292333
 10
314836.6084992075
 20
1990872.032202947
 10
314836.6084992075
 20
1990872.218386504
 10
314836.8412286552
 20
1990872.344725347
 10
314837.083932222
 20
1990872.487687722
 10
314836.7514615824
 20
1990872.404570062
 10
314836.5918756755
 20
1990872.537558318
 10
314836.5918756755
 20
1990872.650598335
 10
314836.6251227394
 20
1990872.810184242
 10
314836.7614357017
 20
1990872.853405426
 10
314837.0094413002
 20
1990872.684055381
 97
        0
 75
     0
 76
     1
 98
        1
 10
0.0
 20
0.0
450
        0
451
        0
460
0.0
461
0.0
452
        0
462
0.0
453
        0
470

  0
TEXT
  5
5FC
330
66A
100
AcDbEntity
  8
STP labels
  6
DGN Style 3
 62
   250
100
AcDbText
 10
314793.040557
 20
1990814.049287
 30
0.0
 40
1.227059
  1
05
  7
Style-Garamond
 11
314793.040557
 21
1990815.276346
 31
0.0
100
AcDbText
 73
     3
  0
TEXT
  5
5FD
330
66A
100
AcDbEntity
  8
STP labels
  6
DGN Style 3
 62
   250
100
AcDbText
 10
314799.104159
 20
1990814.049287
 30
0.0
 40
1.227059
  1
05
  7
Style-Garamond
 11
314799.104159
 21
1990815.276346
 31
0.0
100
AcDbText
 73
     3
  0
HATCH
  5
616
330
66A
100
AcDbEntity
  8
Excavated STPs
100
AcDbHatch
 10
0.0
 20
0.0
 30
0.0
210
0.0
220
0.0
230
1.0
  2
SOLID
 70
     1
 71
     0
 91
        1
 92
        1
 93
        1
 72
     2
 10
314770.0887772111
 20
1990797.919187212
 40
0.25
 50
0.0
 51
360.0
 73
     1
 97
        0
 75
     0
 76
     1
 98
        1
 10
0.0
 20
0.0
450
        0
451
        0
460
0.0
461
0.0
452
        0
462
0.0
453
        0
470

  0
TEXT
  5
617
330
66A
100
AcDbEntity
  8
STP labels
  6
DGN Style 3
 62
   250
100
AcDbText
 10
314769.411403
 20
1990795.923457
 30
0.0
 40
1.227059
  1
06
  7
Style-Garamond
 11
314769.411403
 21
1990797.150516
 31
0.0
100
AcDbText
 73
     3
  0
HATCH
  5
618
330
66A
100
AcDbEntity
  8
Excavated STPs
100
AcDbHatch
 10
0.0
 20
0.0
 30
0.0
210
0.0
220
0.0
230
1.0
  2
SOLID
 70
     1
 71
     0
 91
        1
 92
        1
 93
        1
 72
     2
 10
314776.030532894
 20
1990828.11197876
 40
0.25
 50
0.0
 51
360.0
 73
     1
 97
        0
 75
     0
 76
     1
 98
        1
 10
0.0
 20
0.0
450
        0
451
        0
460
0.0
461
0.0
452
        0
462
0.0
453
        0
470

  0
TEXT
  5
619
330
66A
100
AcDbEntity
  8
STP labels
  6
DGN Style 3
 62
   250
100
AcDbText
 10
314775.179219
 20
1990826.335708
 30
0.0
 40
1.227059
  1
03
  7
Style-Garamond
 11
314775.179219
 21
1990827.562767
 31
0.0
100
AcDbText
 73
     3
  0
LWPOLYLINE
  5
61A
330
66A
100
AcDbEntity
  8
Fence
100
AcDbPolyline
 90
        4
 70
   128
 43
0.0
 10
314874.764102
 20
1990866.424177
 10
314873.045576
 20
1990870.966782
 10
314869.689468
 20
1990887.042355
 10
314860.033312
 20
1990917.062572
  0
LINE
  5
61B
330
66A
100
AcDbEntity
  8
Driveway
100
AcDbLine
 10
314853.903477
 20
1990914.076432
 30
0.0
 11
314858.508635
 21
1990917.99665
 31
0.0
  0
LINE
  5
61C
330
66A
100
AcDbEntity
  8
Driveway
100
AcDbLine
 10
314855.759241
 20
1990912.610263
 30
0.0
 11
314860.033312
 21
1990917.062572
 31
0.0
  0
SPLINE
  5
634
330
66A
100
AcDbEntity
  8
Gully
100
AcDbSpline
210
0.0
220
0.0
230
1.0
 70
     8
 71
     3
 72
    35
 73
    31
 74
    29
 42
0.0000000001
 43
0.0000000001
 44
0.0000000001
 40
0.0
 40
0.0
 40
0.0
 40
0.0
 40
7.098421759192282
 40
11.06405311097409
 40
26.37369295123755
 40
32.2476118752935
 40
36.03092048815716
 40
38.00300961155137
 40
40.38649642244084
 40
45.37733249246881
 40
51.49475359579261
 40
58.20608206384477
 40
67.51310967054779
 40
73.63706082041933
 40
78.2689340597393
 40
82.30299235954207
 40
87.54573530625489
 40
95.29862992654722
 40
102.136942139803
 40
110.2336059425021
 40
116.8685149348491
 40
124.1478763771453
 40
127.1642908735867
 40
130.6160224084049
 40
135.2664001989216
 40
140.035825611179
 40
143.9839504781752
 40
147.0529957577433
 40
148.5758283261239
 40
152.0962802755931
 40
152.0962802755931
 40
152.0962802755931
 40
152.0962802755931
 10
314777.3748740692
 20
1990775.65353115
 30
0.0
 10
314778.26826161
 20
1990777.908080868
 30
0.0
 10
314779.6607524391
 20
1990781.422165924
 30
0.0
 10
314786.639318565
 20
1990786.988521535
 30
0.0
 10
314793.6046443906
 20
1990791.548918809
 30
0.0
 10
314800.260479722
 20
1990796.555026516
 30
0.0
 10
314803.235859919
 20
1990799.057806437
 30
0.0
 10
314805.5554591834
 20
1990800.463183084
 30
0.0
 10
314807.7920678546
 20
1990802.768940397
 30
0.0
 10
314812.616164174
 20
1990802.957123398
 30
0.0
 10
314818.3932160321
 20
1990803.636356531
 30
0.0
 10
314825.8136821735
 20
1990803.820965652
 30
0.0
 10
314833.2187026025
 20
1990803.406263395
 30
0.0
 10
314839.7676715158
 20
1990805.922054232
 30
0.0
 10
314842.9105503533
 20
1990809.817202796
 30
0.0
 10
314846.3640690659
 20
1990812.903378771
 30
0.0
 10
314850.34851933
 20
1990816.952894103
 30
0.0
 10
314855.1157106436
 20
1990821.531492374
 30
0.0
 10
314860.4113791005
 20
1990826.935552387
 30
0.0
 10
314865.9283721852
 20
1990831.568578995
 30
0.0
 10
314870.9493575166
 20
1990836.919158934
 30
0.0
 10
314875.7313599322
 20
1990840.134304635
 30
0.0
 10
314878.2476778444
 20
1990844.017819029
 30
0.0
 10
314881.2147661746
 20
1990846.356776267
 30
0.0
 10
314882.9828041046
 20
1990850.390614504
 30
0.0
 10
314884.555264403
 20
1990854.526956981
 30
0.0
 10
314885.1491648361
 20
1990858.498454528
 30
0.0
 10
314887.4376289356
 20
1990860.681994338
 30
0.0
 10
314887.0887573782
 20
1990863.519751365
 30
0.0
 10
314888.1007028179
 20
1990864.960803073
 30
0.0
 10
314888.8070887621
 20
1990865.96672556
 30
0.0
 11
314777.3748740692
 21
1990775.65353115
 31
0.0
 11
314780.6869101322
 21
1990781.93190742
 31
0.0
 11
314783.6477382468
 21
1990784.57003723
 31
0.0
 11
314796.1031863261
 21
1990793.47210919
 31
0.0
 11
314800.7794549771
 21
1990797.0267449
 31
0.0
 11
314803.7717593199
 21
1990799.34181267
 31
0.0
 11
314805.3974032961
 21
1990800.45824322
 31
0.0
 11
314807.259228868
 21
1990801.94640145
 31
0.0
 11
314812.1385337387
 21
1990802.995605271
 31
0.0
 11
314818.232843795
 21
1990803.52685464
 31
0.0
 11
314824.9412994311
 21
1990803.72320327
 31
0.0
 11
314834.238273472
 21
1990804.1556805
 31
0.0
 11
314839.8575075482
 21
1990806.59022072
 31
0.0
 11
314843.126211529
 21
1990809.87196172
 31
0.0
 11
314846.038816947
 21
1990812.66308265
 31
0.0
 11
314849.7747206031
 21
1990816.34131286
 31
0.0
 11
314855.3069421291
 21
1990821.77287801
 31
0.0
 11
314860.1876693906
 21
1990826.562556008
 31
0.0
 11
314866.179162907
 21
1990832.008469171
 31
0.0
 11
314870.9742472491
 21
1990836.59422794
 31
0.0
 11
314876.423791413
 21
1990841.42036215
 31
0.0
 11
314878.285910553
 21
1990843.79339159
 31
0.0
 11
314880.7044615811
 21
1990846.25612615
 31
0.0
 11
314882.921153233
 21
1990850.34419314
 31
0.0
 11
314884.4764145732
 21
1990854.8529159
 31
0.0
 11
314885.676788924
 21
1990858.61413796
 31
0.0
 11
314887.214083327
 21
1990861.270406931
 31
0.0
 11
314887.2867044071
 21
1990862.791506931
 31
0.0
 11
314888.8070887621
 21
1990865.96672556
 31
0.0
  0
SPLINE
  5
63A
330
66A
100
AcDbEntity
  8
Gully
100
AcDbSpline
210
0.0
220
0.0
230
1.0
 70
     8
 71
     3
 72
    35
 73
    31
 74
    29
 42
0.0000000001
 43
0.0000000001
 44
0.0000000001
 40
0.0
 40
0.0
 40
0.0
 40
0.0
 40
7.098421757956685
 40
11.0640531099803
 40
26.37369295014905
 40
32.247611874205
 40
36.03092048701827
 40
38.00300961031651
 40
40.38649642129692
 40
45.37733249130897
 40
51.49475359459232
 40
58.20608206276085
 40
67.51310966946387
 40
73.6370608192286
 40
78.26893405863071
 40
82.30299235859458
 40
87.54573530465398
 40
95.29862992535262
 40
102.1369421386499
 40
110.2336059417053
 40
116.868514934451
 40
124.1478763760625
 40
127.1642908725039
 40
130.6160224072405
 40
135.2664001978405
 40
140.0358256100408
 40
143.9839504772943
 40
147.0529957570638
 40
148.5758283254445
 40
152.0962802746534
 40
152.0962802746534
 40
152.0962802746534
 40
152.0962802746534
 10
314778.5481172013
 20
1990774.314262478
 30
0.0
 10
314779.4415047423
 20
1990776.568812196
 30
0.0
 10
314780.8339955717
 20
1990780.08289725
 30
0.0
 10
314787.8125616971
 20
1990785.649252862
 30
0.0
 10
314794.7778875229
 20
1990790.209650136
 30
0.0
 10
314801.433722854
 20
1990795.215757843
 30
0.0
 10
314804.4091030512
 20
1990797.718537764
 30
0.0
 10
314806.7287023158
 20
1990799.123914412
 30
0.0
 10
314808.9653109868
 20
1990801.429671724
 30
0.0
 10
314813.7894073061
 20
1990801.617854725
 30
0.0
 10
314819.5664591643
 20
1990802.297087858
 30
0.0
 10
314826.9869253058
 20
1990802.481696979
 30
0.0
 10
314834.3919457348
 20
1990802.066994721
 30
0.0
 10
314840.9409146482
 20
1990804.582785559
 30
0.0
 10
314844.0837934856
 20
1990808.477934123
 30
0.0
 10
314847.537312198
 20
1990811.564110098
 30
0.0
 10
314851.5217624629
 20
1990815.613625429
 30
0.0
 10
314856.2889537755
 20
1990820.192223702
 30
0.0
 10
314861.5846222329
 20
1990825.596283715
 30
0.0
 10
314867.1016153177
 20
1990830.229310321
 30
0.0
 10
314872.1226006483
 20
1990835.579890263
 30
0.0
 10
314876.9046030648
 20
1990838.795035961
 30
0.0
 10
314879.4209209768
 20
1990842.678550356
 30
0.0
 10
314882.3880093067
 20
1990845.017507593
 30
0.0
 10
314884.156047237
 20
1990849.05134583
 30
0.0
 10
314885.7285075352
 20
1990853.187688308
 30
0.0
 10
314886.3224079684
 20
1990857.159185855
 30
0.0
 10
314888.610872068
 20
1990859.342725666
 30
0.0
 10
314888.2620005104
 20
1990862.180482691
 30
0.0
 10
314889.2739459501
 20
1990863.621534401
 30
0.0
 10
314889.9803318943
 20
1990864.627456886
 30
0.0
 11
314778.5481172013
 21
1990774.314262478
 31
0.0
 11
314781.8601532643
 21
1990780.592638747
 31
0.0
 11
314784.8209813791
 21
1990783.230768557
 31
0.0
 11
314797.2764294583
 21
1990792.132840517
 31
0.0
 11
314801.9526981093
 21
1990795.687476227
 31
0.0
 11
314804.9450024522
 21
1990798.002543997
 31
0.0
 11
314806.5706464283
 21
1990799.118974547
 31
0.0
 11
314808.4324720003
 21
1990800.607132777
 31
0.0
 11
314813.3117768708
 21
1990801.656336598
 31
0.0
 11
314819.4060869272
 21
1990802.187585967
 31
0.0
 11
314826.1145425634
 21
1990802.383934597
 31
0.0
 11
314835.4115166043
 21
1990802.816411827
 31
0.0
 11
314841.0307506804
 21
1990805.250952047
 31
0.0
 11
314844.2994546613
 21
1990808.532693047
 31
0.0
 11
314847.2120600793
 21
1990811.323813977
 31
0.0
 11
314850.9479637354
 21
1990815.002044186
 31
0.0
 11
314856.4801852613
 21
1990820.433609337
 31
0.0
 11
314861.3609125229
 21
1990825.223287335
 31
0.0
 11
314867.3524060393
 21
1990830.669200498
 31
0.0
 11
314872.1474903813
 21
1990835.254959268
 31
0.0
 11
314877.5970345453
 21
1990840.081093477
 31
0.0
 11
314879.4591536853
 21
1990842.454122917
 31
0.0
 11
314881.8777047133
 21
1990844.916857477
 31
0.0
 11
314884.0943963654
 21
1990849.004924467
 31
0.0
 11
314885.6496577054
 21
1990853.513647227
 31
0.0
 11
314886.8500320563
 21
1990857.274869287
 31
0.0
 11
314888.3873264593
 21
1990859.931138258
 31
0.0
 11
314888.4599475394
 21
1990861.452238258
 31
0.0
 11
314889.9803318943
 21
1990864.627456886
 31
0.0
  0
TEXT
  5
645
330
66A
100
AcDbEntity
  8
STP labels
  6
DGN Style 3
 62
   250
100
AcDbText
 10
314811.157743
 20
1990843.978307
 30
0.0
 40
1.227059
  1
02
  7
Style-Garamond
 11
314811.157743
 21
1990845.205366
 31
0.0
100
AcDbText
 73
     3
  0
TEXT
  5
648
330
66A
100
AcDbEntity
  8
Transects
  6
DGN Style 4
 62
     7
370
    13
100
AcDbText
 10
314769.332957
 20
1990772.28827
 30
0.0
 40
2.0
  1
V
  7
Style-Garamond
 11
314769.332957
 21
1990774.28827
 31
0.0
100
AcDbText
 73
     3
  0
TEXT
  5
649
330
66A
100
AcDbEntity
  8
Transects
  6
DGN Style 4
 62
     7
370
    13
100
AcDbText
 10
314775.332957
 20
1990772.28827
 30
0.0
 40
2.0
  1
W
  7
Style-Garamond
 11
314775.332957
 21
1990774.28827
 31
0.0
100
AcDbText
 73
     3
  0
TEXT
  5
64A
330
66A
100
AcDbEntity
  8
Transects
  6
DGN Style 4
 62
     7
370
    13
100
AcDbText
 10
314781.764155
 20
1990778.086588
 30
0.0
 40
2.0
  1
X
  7
Style-Garamond
 11
314781.764155
 21
1990780.086588
 31
0.0
100
AcDbText
 73
     3
  0
TEXT
  5
64B
330
66A
100
AcDbEntity
  8
Transects
  6
DGN Style 4
 62
     7
370
    13
100
AcDbText
 10
314787.691431
 20
1990782.811326
 30
0.0
 40
2.0
  1
Y
  7
Style-Garamond
 11
314787.691431
 21
1990784.811326
 31
0.0
100
AcDbText
 73
     3
  0
TEXT
  5
64C
330
66A
100
AcDbEntity
  8
Transects
  6
DGN Style 4
 62
     7
370
    13
100
AcDbText
 10
314793.803934
 20
1990787.443421
 30
0.0
 40
2.0
  1
Z
  7
Style-Garamond
 11
314793.803934
 21
1990789.443421
 31
0.0
100
AcDbText
 73
     3
  0
TEXT
  5
64D
330
66A
100
AcDbEntity
  8
Transects
  6
DGN Style 4
 62
     7
370
    13
100
AcDbText
 10
314799.638596
 20
1990791.519665
 30
0.0
 40
2.0
  1
A
  7
Style-Garamond
 11
314799.638596
 21
1990793.519665
 31
0.0
100
AcDbText
 73
     3
  0
TEXT
  5
64E
330
66A
100
AcDbEntity
  8
Transects
  6
DGN Style 4
 62
     7
370
    13
100
AcDbText
 10
314805.751099
 20
1990796.151761
 30
0.0
 40
2.0
  1
B
  7
Style-Garamond
 11
314805.751099
 21
1990798.151761
 31
0.0
100
AcDbText
 73
     3
  0
TEXT
  5
64F
330
66A
100
AcDbEntity
  8
Transects
  6
DGN Style 4
 62
     7
370
    13
100
AcDbText
 10
314811.03008
 20
1990798.375167
 30
0.0
 40
2.0
  1
C
  7
Style-Garamond
 11
314811.03008
 21
1990800.375167
 31
0.0
100
AcDbText
 73
     3
  0
TEXT
  5
650
330
66A
100
AcDbEntity
  8
Transects
  6
DGN Style 4
 62
     7
370
    13
100
AcDbText
 10
314817.060664
 20
1990798.980314
 30
0.0
 40
2.0
  1
D
  7
Style-Garamond
 11
314817.060664
 21
1990800.980314
 31
0.0
100
AcDbText
 73
     3
  0
TEXT
  5
651
330
66A
100
AcDbEntity
  8
Transects
  6
DGN Style 4
 62
     7
370
    13
100
AcDbText
 10
314823.162472
 20
1990799.579512
 30
0.0
 40
2.0
  1
E
  7
Style-Garamond
 11
314823.162472
 21
1990801.579512
 31
0.0
100
AcDbText
 73
     3
  0
TEXT
  5
652
330
66A
100
AcDbEntity
  8
Transects
  6
DGN Style 4
 62
     7
370
    13
100
AcDbText
 10
314828.719294
 20
1990799.579512
 30
0.0
 40
2.0
  1
F
  7
Style-Garamond
 11
314828.719294
 21
1990801.579512
 31
0.0
100
AcDbText
 73
     3
  0
TEXT
  5
653
330
66A
100
AcDbEntity
  8
Transects
  6
DGN Style 4
 62
     7
370
    13
100
AcDbText
 10
314835.561953
 20
1990800.54133
 30
0.0
 40
2.0
  1
G
  7
Style-Garamond
 11
314835.561953
 21
1990802.54133
 31
0.0
100
AcDbText
 73
     3
  0
TEXT
  5
654
330
66A
100
AcDbEntity
  8
Transects
  6
DGN Style 4
 62
     7
370
    13
100
AcDbText
 10
314841.870437
 20
1990803.007263
 30
0.0
 40
2.0
  1
H
  7
Style-Garamond
 11
314841.870437
 21
1990805.007263
 31
0.0
100
AcDbText
 73
     3
  0
TEXT
  5
655
330
66A
100
AcDbEntity
  8
Transects
  6
DGN Style 4
 62
     7
370
    13
100
AcDbText
 10
314847.890327
 20
1990809.028987
 30
0.0
 40
2.0
  1
I
  7
Style-Garamond
 11
314847.890327
 21
1990811.028987
 31
0.0
100
AcDbText
 73
     3
  0
TEXT
  5
656
330
66A
100
AcDbEntity
  8
Transects
  6
DGN Style 4
 62
     7
370
    13
100
AcDbText
 10
314853.462302
 20
1990815.118496
 30
0.0
 40
2.0
  1
J
  7
Style-Garamond
 11
314853.462302
 21
1990817.118496
 31
0.0
100
AcDbText
 73
     3
  0
TEXT
  5
657
330
66A
100
AcDbEntity
  8
Transects
  6
DGN Style 4
 62
     7
370
    13
100
AcDbText
 10
314859.360689
 20
1990821.018681
 30
0.0
 40
2.0
  1
K
  7
Style-Garamond
 11
314859.360689
 21
1990823.018681
 31
0.0
100
AcDbText
 73
     3
  0
TEXT
  5
658
330
66A
100
AcDbEntity
  8
Transects
  6
DGN Style 4
 62
     7
370
    13
100
AcDbText
 10
314865.129754
 20
1990847.483477
 30
0.0
 40
2.0
  1
L
  7
Style-Garamond
 11
314865.129754
 21
1990849.483477
 31
0.0
100
AcDbText
 73
     3
  0
TEXT
  5
659
330
66A
100
AcDbEntity
  8
Transects
  6
DGN Style 4
 62
     7
370
    13
100
AcDbText
 10
314871.535566
 20
1990860.943265
 30
0.0
 40
2.0
  1
M
  7
Style-Garamond
 11
314871.535566
 21
1990862.943265
 31
0.0
100
AcDbText
 73
     3
  0
TEXT
  5
65A
330
66A
100
AcDbEntity
  8
Trees
  6
DGN Style 3
 62
   250
370
    13
100
AcDbText
 10
314879.515205
 20
1990815.517774
 30
0.0
 40
1.227059
  1
Transect
  7
Style-Garamond
 11
314879.515205
 21
1990816.744833
 31
0.0
100
AcDbText
 73
     3
  0
TEXT
  5
65B
330
66A
100
AcDbEntity
  8
STP labels
  6
DGN Style 3
 62
   250
100
AcDbText
 10
314875.820687
 20
1990815.30497
 30
0.0
 40
1.227059
  1
F
  7
Style-Garamond
 11
314875.820687
 21
1990816.532029
 31
0.0
100
AcDbText
 73
     3
  0
TEXT
  5
65C
330
66A
100
AcDbEntity
  8
STP labels
  6
DGN Style 3
 62
   250
100
AcDbText
 10
314799.480543
 20
1990796.234533
 30
0.0
 40
1.227059
  1
08
  7
Style-Garamond
 11
314799.480543
 21
1990797.461592
 31
0.0
100
AcDbText
 73
     3
  0
TEXT
  5
3CA
330
66A
100
AcDbEntity
  8
STP labels
  6
DGN Style 3
 62
   250
100
AcDbText
 10
314817.083815
 20
1990874.088746
 30
0.0
 40
1.227059
  1
07
  7
Style-Garamond
 11
314817.083815
 21
1990875.315805
 31
0.0
100
AcDbText
 73
     3
  0
TEXT
  5
65F
330
66A
100
AcDbEntity
  8
STP labels
  6
DGN Style 3
 62
   250
100
AcDbText
 10
314859.089408
 20
1990853.797908
 30
0.0
 40
1.227059
  1
10
  7
Style-Garamond
 11
314859.089408
 21
1990855.024967
 31
0.0
100
AcDbText
 73
     3
  0
TEXT
  5
660
330
66A
100
AcDbEntity
  8
STP labels
  6
DGN Style 3
 62
   250
100
AcDbText
 10
314859.089408
 20
1990849.982939
 30
0.0
 40
1.227059
  1
11
  7
Style-Garamond
 11
314859.089408
 21
1990851.209998
 31
0.0
100
AcDbText
 73
     3
  0
TEXT
  5
661
330
66A
100
AcDbEntity
  8
STP labels
  6
DGN Style 3
 62
   250
100
AcDbText
 10
314865.029302
 20
1990849.982939
 30
0.0
 40
1.227059
  1
06
  7
Style-Garamond
 11
314865.029302
 21
1990851.209998
 31
0.0
100
AcDbText
 73
     3
  0
HATCH
  5
662
330
66A
100
AcDbEntity
  8
Excavated STPs
100
AcDbHatch
 10
0.0
 20
0.0
 30
0.0
210
0.0
220
0.0
230
1.0
  2
SOLID
 70
     1
 71
     0
 91
        1
 92
        1
 93
        1
 72
     2
 10
314807.4343159596
 20
1990822.02844617
 40
0.25
 50
0.0
 51
360.0
 73
     1
 97
        0
 75
     0
 76
     1
 98
        1
 10
0.0
 20
0.0
450
        0
451
        0
460
0.0
461
0.0
452
        0
462
0.0
453
        0
470

  0
TEXT
  5
663
330
66A
100
AcDbEntity
  8
STP labels
  6
DGN Style 3
 62
   250
100
AcDbText
 10
314806.781693
 20
1990820.179346
 30
0.0
 40
1.227059
  1
03
  7
Style-Garamond
 11
314806.781693
 21
1990821.406405
 31
0.0
100
AcDbText
 73
     3
  0
TEXT
  5
666
330
66A
100
AcDbEntity
  8
STP labels
  6
DGN Style 3
 62
   250
100
AcDbText
 10
314801.311181
 20
1990802.240368
 30
0.0
 40
1.227059
  1
09
  7
Style-Garamond
 11
314801.311181
 21
1990803.467427
 31
0.0
100
AcDbText
 73
     3
  0
HATCH
  5
668
330
66A
100
AcDbEntity
  8
STPs
100
AcDbHatch
 10
0.0
 20
0.0
 30
0.0
210
0.0
220
0.0
230
1.0
  2
SOLID
 70
     1
 71
     0
 91
        1
 92
        1
 93
        1
 72
     2
 10
314802.003677392
 20
1990803.965458735
 40
0.25
 50
0.0
 51
360.0
 73
     1
 97
        0
 75
     0
 76
     1
 98
        1
 10
0.0
 20
0.0
450
        0
451
        0
460
0.0
461
0.0
452
        0
462
0.0
453
        0
470

  0
ENDSEC
  0
SECTION
  2
OBJECTS
  0
DICTIONARY
  5
66F
330
0
100
AcDbDictionary
281
     1
  3
ACAD_COLOR
350
6AB
  3
ACAD_GROUP
350
698
  3
ACAD_LAYOUT
350
67C
  3
ACAD_MATERIAL
350
671
  3
ACAD_MLEADERSTYLE
350
707
  3
ACAD_MLINESTYLE
350
699
  3
ACAD_PLOTSETTINGS
350
69A
  3
ACAD_PLOTSTYLENAME
350
66E
  3
ACAD_SCALELIST
350
6AC
  3
ACAD_TABLESTYLE
350
6AD
  3
ACAD_VISUALSTYLE
350
692
  3
AcadDim
350
6E2
  3
ACDB_RECOMPOSE_DATA
350
6F1
  3
AcDbVariableDictionary
350
6EA
  3
MicroStation
350
6E3
  0
DICTIONARY
  5
685
330
684
100
AcDbDictionary
280
     1
281
     1
  3
ACAD_LAYERFILTERS
360
6D8
  3
ACAD_LAYERSTATES
360
686
  0
DICTIONARY
  5
6E7
330
66A
100
AcDbDictionary
280
     1
281
     1
  3
ACAD_SORTENTS
360
6E8
  0
DICTIONARY
  5
6AB
102
{ACAD_REACTORS
330
66F
102
}
330
66F
100
AcDbDictionary
281
     1
  0
DICTIONARY
  5
698
102
{ACAD_REACTORS
330
66F
102
}
330
66F
100
AcDbDictionary
281
     1
  0
DICTIONARY
  5
67C
102
{ACAD_REACTORS
330
66F
102
}
330
66F
100
AcDbDictionary
281
     1
  3
Layout1
350
680
  3
Model
350
67B
  0
DICTIONARY
  5
671
102
{ACAD_REACTORS
330
66F
102
}
330
66F
100
AcDbDictionary
281
     1
  3
ByBlock
350
6A3
  3
ByLayer
350
69B
  3
Global
350
670
  0
DICTIONARY
  5
707
102
{ACAD_REACTORS
330
66F
102
}
330
66F
100
AcDbDictionary
281
     1
  3
Standard
350
708
  0
DICTIONARY
  5
699
102
{ACAD_REACTORS
330
66F
102
}
330
66F
100
AcDbDictionary
281
     1
  3
Standard
350
6AE
  0
DICTIONARY
  5
69A
102
{ACAD_REACTORS
330
66F
102
}
330
66F
100
AcDbDictionary
281
     1
  0
ACDBDICTIONARYWDFLT
  5
66E
102
{ACAD_REACTORS
330
66F
102
}
330
66F
100
AcDbDictionary
281
     1
  3
Normal
350
66D
100
AcDbDictionaryWithDefault
340
66D
  0
DICTIONARY
  5
6AC
102
{ACAD_REACTORS
330
66F
102
}
330
66F
100
AcDbDictionary
281
     1
  3
A0
350
6B2
  3
A1
350
6B3
  3
A2
350
6B4
  3
A3
350
6B5
  3
A4
350
6B6
  3
A5
350
6B7
  3
A6
350
6B8
  3
A7
350
6B9
  3
A8
350
6BA
  3
A9
350
6BB
  3
B0
350
6BC
  3
B1
350
6BD
  3
B2
350
6BE
  3
B3
350
6BF
  3
B4
350
6C0
  3
B5
350
6C1
  3
B6
350
6C2
  3
B7
350
6C3
  3
B8
350
6C4
  3
B9
350
6C5
  3
C0
350
6C6
  3
C1
350
6C7
  3
C2
350
6C8
  3
C3
350
6C9
  3
C4
350
6CA
  3
C5
350
6CB
  3
C6
350
6CC
  3
C7
350
6CD
  3
C8
350
6CE
  3
C9
350
6CF
  3
D0
350
6D0
  3
D1
350
6D1
  3
D2
350
6D2
  0
DICTIONARY
  5
6AD
102
{ACAD_REACTORS
330
66F
102
}
330
66F
100
AcDbDictionary
281
     1
  3
Standard
350
6AF
  0
DICTIONARY
  5
692
102
{ACAD_REACTORS
330
66F
102
}
330
66F
100
AcDbDictionary
281
     1
  3
2dWireframe
350
691
  3
3D Hidden
350
6FF
  3
3dWireframe
350
6B1
  3
Basic
350
6FE
  3
Brighten
350
702
  3
ColorChange
350
706
  3
Conceptual
350
700
  3
Dim
350
701
  3
Facepattern
350
705
  3
Flat
350
6FA
  3
FlatWithEdges
350
6FB
  3
Gouraud
350
6FC
  3
GouraudWithEdges
350
6FD
  3
Linepattern
350
704
  3
Realistic
350
6B0
  3
Thicken
350
703
  0
XRECORD
  5
6E2
102
{ACAD_REACTORS
330
66F
102
}
330
66F
100
AcDbXrecord
280
     1
 90
   990106
  3
 
 60
     0
 61
     0
 62
     1
 63
     1
 64
     0
 65
     0
 66
     0
 67
     3
 68
     1
 69
     1
 70
     0
 71
     0
 72
     0
 40
0.0
170
     0
  0
XRECORD
  5
6F1
102
{ACAD_REACTORS
330
66F
102
}
330
66F
100
AcDbXrecord
280
     1
 90
        1
330
6AF
  0
DICTIONARY
  5
6EA
102
{ACAD_REACTORS
330
66F
102
}
330
66F
100
AcDbDictionary
281
     1
  3
CANNOSCALE
350
6EE
  3
CMLEADERSTYLE
350
6EC
  3
CTABLESTYLE
350
6EB
  3
LAYEREVAL
350
989
  3
LAYERNOTIFY
350
98A
  3
LIGHTINGUNITS
350
988
  3
MSLTSCALE
350
6ED
  0
DICTIONARY
  5
6E3
102
{ACAD_REACTORS
330
66F
102
}
330
66F
100
AcDbDictionary
281
     1
  0
DICTIONARY
  5
6D8
102
{ACAD_REACTORS
330
685
102
}
330
685
100
AcDbDictionary
281
     1
  0
DICTIONARY
  5
686
102
{ACAD_REACTORS
330
685
102
}
330
685
100
AcDbDictionary
281
     1
  0
SORTENTSTABLE
  5
6E8
102
{ACAD_REACTORS
330
6E7
102
}
330
6E7
100
AcDbSortentsTable
330
66A
331
3D8
  5
3D7
331
2EB
  5
2EB
331
322
  5
322
331
5C6
  5
5B6
331
2AC
  5
2AC
331
3A1
  5
3A1
331
3E0
  5
3DF
331
2F3
  5
2F3
331
32A
  5
32A
331
5CE
  5
5C7
331
64D
  5
64C
331
2B4
  5
2B4
331
3E8
  5
3E7
331
2BC
  5
2BC
331
332
  5
332
331
27C
  5
27C
331
572
  5
571
331
651
  5
650
331
455
  5
454
331
494
  5
493
331
4CB
  5
4CA
331
57A
  5
579
331
45D
  5
45C
331
49C
  5
49B
331
659
  5
658
331
465
  5
464
331
4A4
  5
4A3
331
661
  5
661
331
34A
  5
34A
331
4AC
  5
4AB
331
2C4
  5
2C4
331
46D
  5
46C
331
2FB
  5
2FB
331
3F0
  5
3EF
331
3F8
  5
3F7
331
303
  5
303
331
2CC
  5
2CC
331
3B1
  5
3B1
331
30B
  5
30B
331
400
  5
3FF
331
616
  5
5FD
331
295
  5
295
331
2D4
  5
2D4
331
3C9
  5
3C9
331
2DC
  5
2DC
331
313
  5
313
331
29D
  5
29D
331
382
  5
3A0
331
28C
  5
28C
331
33C
  5
33C
331
354
  5
354
331
4B4
  5
4B3
331
5AA
  5
5CD
331
47D
  5
47C
331
4BC
  5
4BB
331
54B
  5
532
331
485
  5
484
331
4C4
  5
4C3
331
3D1
  5
3D0
331
2A5
  5
2A5
331
2E4
  5
2E4
331
48D
  5
48C
331
31B
  5
31B
331
3D9
  5
3D8
331
2AD
  5
2AD
331
5C7
  5
5BB
331
2EC
  5
2EC
331
323
  5
323
331
32B
  5
32B
331
64E
  5
64D
331
2B5
  5
2B5
331
3A2
  5
3A2
331
3E1
  5
3E0
331
3E9
  5
3E8
331
333
  5
333
331
2BD
  5
2BD
331
652
  5
651
331
4CC
  5
4CB
331
456
  5
455
331
495
  5
494
331
65A
  5
659
331
49D
  5
49C
331
45E
  5
45D
331
57B
  5
57A
331
466
  5
465
331
4A5
  5
4A4
331
662
  5
662
331
3AA
  5
3AA
331
3F1
  5
3F0
331
2FC
  5
2FC
331
34B
  5
34B
331
5DF
  5
5DA
331
46E
  5
46D
331
4AD
  5
4AC
331
2C5
  5
2C5
331
3B2
  5
3B2
331
2CD
  5
2CD
331
304
  5
304
331
3F9
  5
3F8
331
296
  5
296
331
2D5
  5
2D5
331
617
  5
616
331
30C
  5
30C
331
401
  5
400
331
668
  5
668
331
314
  5
314
331
29E
  5
29E
331
2DD
  5
2DD
331
3CA
  5
65C
331
28D
  5
28D
331
345
  5
345
331
52C
  5
50F
331
5A3
  5
599
331
476
  5
474
331
4B5
  5
4B4
331
4BD
  5
4BC
331
47E
  5
47D
331
5AB
  5
5C6
331
486
  5
485
331
4C5
  5
4C4
331
31C
  5
31C
331
2A6
  5
2A6
331
5C0
  5
5AC
331
2E5
  5
2E5
331
3D2
  5
3D1
331
3DA
  5
3D9
331
2ED
  5
2ED
331
324
  5
324
331
2AE
  5
2AE
331
3A3
  5
3A3
331
3E2
  5
3E1
331
2B6
  5
2B6
331
2F5
  5
2F5
331
64F
  5
64E
331
32C
  5
32C
331
3EA
  5
3E9
331
2BE
  5
2BE
331
334
  5
334
331
645
  5
63A
331
574
  5
572
331
653
  5
652
331
457
  5
456
331
496
  5
495
331
4CD
  5
4CC
331
45F
  5
45E
331
49E
  5
49D
331
65B
  5
65A
331
663
  5
663
331
594
  5
57B
331
467
  5
466
331
4A6
  5
4A5
331
34C
  5
34C
331
4AE
  5
4AD
331
2C6
  5
2C6
331
46F
  5
46E
331
2FD
  5
2FD
331
3F2
  5
3F1
331
3FA
  5
3F9
331
305
  5
305
331
2CE
  5
2CE
331
3B3
  5
3B3
331
402
  5
401
331
30D
  5
30D
331
37C
  5
378
331
618
  5
617
331
297
  5
297
331
2D6
  5
2D6
331
3CB
  5
3CA
331
2DE
  5
2DE
331
315
  5
315
331
29F
  5
29F
331
28E
  5
28E
331
346
  5
346
331
477
  5
476
331
4B6
  5
4B5
331
52D
  5
52C
331
5AC
  5
5A8
331
47F
  5
47E
331
4BE
  5
4BD
331
487
  5
486
331
4C6
  5
4C5
331
3D3
  5
3D2
331
2A7
  5
2A7
331
2E6
  5
2E6
331
56D
  5
55F
331
31D
  5
31D
331
48F
  5
48D
331
43A
  5
425
331
325
  5
325
331
2AF
  5
2AF
331
2EE
  5
2EE
331
3DB
  5
3DA
331
648
  5
645
331
32D
  5
32D
331
3A4
  5
3A4
331
2B7
  5
2B7
331
2F6
  5
2F6
331
3E3
  5
3E2
331
3EB
  5
3EA
331
335
  5
335
331
2BF
  5
2BF
331
39E
  5
387
331
654
  5
653
331
497
  5
496
331
4CE
  5
4CD
331
458
  5
457
331
575
  5
574
331
49F
  5
49E
331
65C
  5
65B
331
460
  5
45F
331
468
  5
467
331
4A7
  5
4A6
331
3F3
  5
3F2
331
2C7
  5
2C7
331
2FE
  5
2FE
331
50E
  5
50A
331
530
  5
52E
331
4AF
  5
4AE
331
34D
  5
34D
331
2CF
  5
2CF
331
306
  5
306
331
3FB
  5
3FA
331
290
  5
290
331
37D
  5
379
331
298
  5
298
331
2D7
  5
2D7
331
619
  5
618
331
30E
  5
30E
331
403
  5
402
331
316
  5
316
331
2DF
  5
2DF
331
3CC
  5
3CB
331
28F
  5
28F
331
33F
  5
33F
331
347
  5
347
331
470
  5
46F
331
52E
  5
52D
331
478
  5
477
331
4B7
  5
4B6
331
4BF
  5
4BE
331
480
  5
47F
331
2A0
  5
2A0
331
488
  5
487
331
4C7
  5
4C6
331
3D4
  5
3D3
331
31E
  5
31E
331
2A8
  5
2A8
331
2E7
  5
2E7
331
3DC
  5
3DB
331
326
  5
326
331
649
  5
648
331
2B0
  5
2B0
331
375
  5
380
331
3E4
  5
3E3
331
2B8
  5
2B8
331
32E
  5
32E
331
336
  5
336
331
3EC
  5
3EB
331
39F
  5
388
331
490
  5
48F
331
655
  5
654
331
459
  5
458
331
498
  5
497
331
4CF
  5
4CE
331
461
  5
460
331
4A0
  5
49F
331
2C0
  5
2C0
331
4A8
  5
4A7
331
5DA
  5
5D5
331
469
  5
468
331
3AD
  5
3AD
331
531
  5
530
331
2C8
  5
2C8
331
50F
  5
50E
331
2FF
  5
2FF
331
3F4
  5
3F3
331
307
  5
307
331
291
  5
291
331
2D0
  5
2D0
331
3B5
  5
3B5
331
404
  5
403
331
2D8
  5
2D8
331
30F
  5
30F
331
61A
  5
619
331
299
  5
299
331
37E
  5
37C
331
3CD
  5
3CC
331
317
  5
317
331
386
  5
386
331
340
  5
340
331
4B0
  5
4AF
331
471
  5
470
331
479
  5
478
331
4B8
  5
4B7
331
481
  5
480
331
4C0
  5
4BF
331
5BB
  5
5AB
331
55F
  5
54B
331
489
  5
488
331
5B6
  5
5AA
331
2A1
  5
2A1
331
3D5
  5
3D4
331
2A9
  5
2A9
331
2E8
  5
2E8
331
56F
  5
56D
331
63A
  5
634
331
31F
  5
31F
331
327
  5
327
331
376
  5
381
331
64A
  5
649
331
2B1
  5
2B1
331
2F0
  5
2F0
331
3DD
  5
3DC
331
3E5
  5
3E4
331
32F
  5
32F
331
2B9
  5
2B9
331
3ED
  5
3EC
331
337
  5
337
331
4C8
  5
4C7
331
452
  5
446
331
491
  5
490
331
656
  5
655
331
499
  5
498
331
45A
  5
459
331
577
  5
575
331
4A1
  5
4A0
331
462
  5
461
331
2F8
  5
2F8
331
46A
  5
469
331
4A9
  5
4A8
331
666
  5
666
331
4D4
  5
4D5
331
2C1
  5
2C1
331
2C9
  5
2C9
331
300
  5
300
331
3F5
  5
3F4
331
532
  5
531
331
2D1
  5
2D1
331
308
  5
308
331
3FD
  5
3FB
331
292
  5
292
331
29A
  5
29A
331
2D9
  5
2D9
331
61B
  5
61A
331
310
  5
310
331
415
  5
404
331
387
  5
37D
331
3CE
  5
3CD
331
472
  5
471
331
4B1
  5
4B0
331
4B9
  5
4B8
331
47A
  5
479
331
4C1
  5
4C0
331
482
  5
481
331
318
  5
318
331
48A
  5
489
331
2A2
  5
2A2
331
2E1
  5
2E1
331
3D6
  5
3D5
331
2E9
  5
2E9
331
320
  5
320
331
425
  5
415
331
3DE
  5
3DD
331
2F1
  5
2F1
331
328
  5
328
331
5CC
  5
5C0
331
64B
  5
64A
331
2B2
  5
2B2
331
3A7
  5
3A7
331
3E6
  5
3E5
331
2BA
  5
2BA
331
5D4
  5
5CE
331
330
  5
330
331
3EE
  5
3ED
331
570
  5
56F
331
453
  5
452
331
4C9
  5
4C8
331
578
  5
577
331
45B
  5
45A
331
49A
  5
499
331
657
  5
656
331
4F9
  5
4EA
331
463
  5
462
331
4A2
  5
4A1
331
65F
  5
65F
331
348
  5
348
331
4AA
  5
4A9
331
4D5
  5
4CF
331
2C2
  5
2C2
331
46B
  5
46A
331
2F9
  5
2F9
331
3F6
  5
3F5
331
2CA
  5
2CA
331
5FC
  5
5DF
331
301
  5
301
331
309
  5
309
331
378
  5
375
331
293
  5
293
331
2D2
  5
2D2
331
2DA
  5
2DA
331
311
  5
311
331
61C
  5
61B
331
29B
  5
29B
331
380
  5
39F
331
3CF
  5
3CE
331
352
  5
352
331
4B2
  5
4B1
331
473
  5
472
331
5A8
  5
5A3
331
47B
  5
47A
331
4BA
  5
4B9
331
483
  5
482
331
4C2
  5
4C1
331
388
  5
37E
331
319
  5
319
331
634
  5
61C
331
48B
  5
48A
331
2A3
  5
2A3
331
3D7
  5
3D6
331
2AB
  5
2AB
331
5C5
  5
5B1
331
2EA
  5
2EA
331
321
  5
321
331
329
  5
329
331
64C
  5
64B
331
2B3
  5
2B3
331
3A0
  5
39E
331
5CD
  5
5C5
331
3DF
  5
3DE
331
3E7
  5
3E6
331
331
  5
331
331
446
  5
43A
331
2BB
  5
2BB
331
5D5
  5
5D4
331
3EF
  5
3EE
331
4CA
  5
4C9
331
571
  5
570
331
454
  5
453
331
493
  5
491
331
650
  5
64F
331
658
  5
657
331
49B
  5
49A
331
4EA
  5
4D6
331
45C
  5
45B
331
579
  5
578
331
464
  5
463
331
4A3
  5
4A2
331
660
  5
660
331
2FA
  5
2FA
331
349
  5
349
331
284
  5
284
331
599
  5
594
331
4D6
  5
4D4
331
2C3
  5
2C3
331
46C
  5
46B
331
4AB
  5
4AA
331
50A
  5
4F9
331
3B0
  5
3B0
331
2CB
  5
2CB
331
5FD
  5
5FC
331
302
  5
302
331
3F7
  5
3F6
331
379
  5
376
331
3B8
  5
3B8
331
294
  5
294
331
2D3
  5
2D3
331
30A
  5
30A
331
3FF
  5
3FD
331
381
  5
382
331
29C
  5
29C
331
2DB
  5
2DB
331
312
  5
312
331
353
  5
353
331
474
  5
473
331
4B3
  5
4B2
331
4BB
  5
4BA
331
47C
  5
47B
331
5A9
  5
5CC
331
5B1
  5
5A9
331
4C3
  5
4C2
331
484
  5
483
331
31A
  5
31A
331
48C
  5
48B
331
2A4
  5
2A4
331
2E3
  5
2E3
331
3D0
  5
3CF
  0
LAYOUT
  5
680
102
{ACAD_XDICTIONARY
360
681
102
}
102
{ACAD_REACTORS
330
67C
102
}
330
67C
100
AcDbPlotSettings
  1

  2
none_device
  4
Letter_(8.50_x_11.00_Inches)
  6

 40
6.35
 41
6.35
 42
6.350006
 43
6.350006
 44
215.899994
 45
279.399994
 46
0.0
 47
0.0
 48
0.0
 49
0.0
140
0.0
141
0.0
142
1.0
143
1.0
 70
   688
 72
     0
 73
     1
 74
     5
  7

 75
    16
147
1.0
 76
     0
 77
     2
 78
   300
148
0.0
149
0.0
100
AcDbLayout
  1
Layout1
 70
     1
 71
     1
 10
-0.25
 20
-0.25
 11
10.75
 21
8.25
 12
0.0
 22
0.0
 32
0.0
 14
1.049744
 24
0.799667
 34
-0.001526
 15
9.450623
 25
7.200577
 35
0.0
146
0.0
 13
0.0
 23
0.0
 33
0.0
 16
1.0
 26
0.0
 36
0.0
 17
0.0
 27
1.0
 37
0.0
 76
     0
330
67D
1001
ACAD_PSEXT
1000
None
1000
None
1000
Not applicable
1000
The layout will not be plotted unless a new plotter configuration name is selected.
1070
     0
  0
LAYOUT
  5
67B
102
{ACAD_REACTORS
330
67C
102
}
330
67C
100
AcDbPlotSettings
  1

  2
none_device
  4
ANSI_A_(8.50_x_11.00_Inches)
  6

 40
6.35
 41
19.049999
 42
6.350006
 43
19.049988
 44
215.899994
 45
279.399994
 46
0.0
 47
0.0
 48
0.0
 49
0.0
140
0.0
141
0.0
142
1.0
143
2.584895
 70
 11952
 72
     0
 73
     1
 74
     0
  7

 75
     0
147
0.386863
 76
     0
 77
     2
 78
   300
148
0.0
149
0.0
100
AcDbLayout
  1
Model
 70
     1
 71
     0
 10
0.0
 20
0.0
 11
12.0
 21
9.0
 12
0.0
 22
0.0
 32
0.0
 14
0.0
 24
0.0
 34
0.0
 15
0.0
 25
0.0
 35
0.0
146
0.0
 13
0.0
 23
0.0
 33
0.0
 16
1.0
 26
0.0
 36
0.0
 17
0.0
 27
1.0
 37
0.0
 76
     0
330
66A
  0
MATERIAL
  5
6A3
102
{ACAD_XDICTIONARY
360
6A4
102
}
102
{ACAD_REACTORS
330
671
102
}
330
671
100
AcDbMaterial
  1
ByBlock
 72
     0
 43
0.020833
 43
0.0
 43
0.0
 43
0.0
 43
0.0
 43
0.020833
 43
0.0
 43
0.0
 43
0.0
 43
0.0
 43
1.0
 43
0.0
 43
0.0
 43
0.0
 43
0.0
 43
1.0
 77
     0
 47
0.020833
 47
0.0
 47
0.0
 47
0.0
 47
0.0
 47
0.020833
 47
0.0
 47
0.0
 47
0.0
 47
0.0
 47
1.0
 47
0.0
 47
0.0
 47
0.0
 47
0.0
 47
1.0
171
     0
 49
0.020833
 49
0.0
 49
0.0
 49
0.0
 49
0.0
 49
0.020833
 49
0.0
 49
0.0
 49
0.0
 49
0.0
 49
1.0
 49
0.0
 49
0.0
 49
0.0
 49
0.0
 49
1.0
175
     0
142
0.020833
142
0.0
142
0.0
142
0.0
142
0.0
142
0.020833
142
0.0
142
0.0
142
0.0
142
0.0
142
1.0
142
0.0
142
0.0
142
0.0
142
0.0
142
1.0
179
     0
144
0.020833
144
0.0
144
0.0
144
0.0
144
0.0
144
0.020833
144
0.0
144
0.0
144
0.0
144
0.0
144
1.0
144
0.0
144
0.0
144
0.0
144
0.0
144
1.0
147
0.020833
147
0.0
147
0.0
147
0.0
147
0.0
147
0.020833
147
0.0
147
0.0
147
0.0
147
0.0
147
1.0
147
0.0
147
0.0
147
0.0
147
0.0
147
1.0
  0
MATERIAL
  5
69B
102
{ACAD_XDICTIONARY
360
69C
102
}
102
{ACAD_REACTORS
330
671
102
}
330
671
100
AcDbMaterial
  1
ByLayer
 72
     0
 43
0.020833
 43
0.0
 43
0.0
 43
0.0
 43
0.0
 43
0.020833
 43
0.0
 43
0.0
 43
0.0
 43
0.0
 43
1.0
 43
0.0
 43
0.0
 43
0.0
 43
0.0
 43
1.0
 77
     0
 47
0.020833
 47
0.0
 47
0.0
 47
0.0
 47
0.0
 47
0.020833
 47
0.0
 47
0.0
 47
0.0
 47
0.0
 47
1.0
 47
0.0
 47
0.0
 47
0.0
 47
0.0
 47
1.0
171
     0
 49
0.020833
 49
0.0
 49
0.0
 49
0.0
 49
0.0
 49
0.020833
 49
0.0
 49
0.0
 49
0.0
 49
0.0
 49
1.0
 49
0.0
 49
0.0
 49
0.0
 49
0.0
 49
1.0
175
     0
142
0.020833
142
0.0
142
0.0
142
0.0
142
0.0
142
0.020833
142
0.0
142
0.0
142
0.0
142
0.0
142
1.0
142
0.0
142
0.0
142
0.0
142
0.0
142
1.0
179
     0
144
0.020833
144
0.0
144
0.0
144
0.0
144
0.0
144
0.020833
144
0.0
144
0.0
144
0.0
144
0.0
144
1.0
144
0.0
144
0.0
144
0.0
144
0.0
144
1.0
147
0.020833
147
0.0
147
0.0
147
0.0
147
0.0
147
0.020833
147
0.0
147
0.0
147
0.0
147
0.0
147
1.0
147
0.0
147
0.0
147
0.0
147
0.0
147
1.0
  0
MATERIAL
  5
670
102
{ACAD_XDICTIONARY
360
672
102
}
102
{ACAD_REACTORS
330
671
102
}
330
671
100
AcDbMaterial
  1
Global
 72
     0
 43
0.020833
 43
0.0
 43
0.0
 43
0.0
 43
0.0
 43
0.020833
 43
0.0
 43
0.0
 43
0.0
 43
0.0
 43
1.0
 43
0.0
 43
0.0
 43
0.0
 43
0.0
 43
1.0
 77
     0
 47
0.020833
 47
0.0
 47
0.0
 47
0.0
 47
0.0
 47
0.020833
 47
0.0
 47
0.0
 47
0.0
 47
0.0
 47
1.0
 47
0.0
 47
0.0
 47
0.0
 47
0.0
 47
1.0
171
     0
 49
0.020833
 49
0.0
 49
0.0
 49
0.0
 49
0.0
 49
0.020833
 49
0.0
 49
0.0
 49
0.0
 49
0.0
 49
1.0
 49
0.0
 49
0.0
 49
0.0
 49
0.0
 49
1.0
175
     0
142
0.020833
142
0.0
142
0.0
142
0.0
142
0.0
142
0.020833
142
0.0
142
0.0
142
0.0
142
0.0
142
1.0
142
0.0
142
0.0
142
0.0
142
0.0
142
1.0
179
     0
144
0.020833
144
0.0
144
0.0
144
0.0
144
0.0
144
0.020833
144
0.0
144
0.0
144
0.0
144
0.0
144
1.0
144
0.0
144
0.0
144
0.0
144
0.0
144
1.0
147
0.020833
147
0.0
147
0.0
147
0.0
147
0.0
147
0.020833
147
0.0
147
0.0
147
0.0
147
0.0
147
1.0
147
0.0
147
0.0
147
0.0
147
0.0
147
1.0
  0
MLEADERSTYLE
  5
708
102
{ACAD_REACTORS
330
707
102
}
330
707
100
AcDbMLeaderStyle
170
     2
171
     1
172
     0
 90
        2
 40
0.0
 41
0.0
173
     1
 91
-1056964608
340
68B
 92
       -2
290
     1
 42
0.09
291
     1
 43
0.36
  3
Standard
 44
0.18
300

342
688
174
     1
178
     6
175
     1
176
     0
 93
-1056964608
 45
0.18
292
     0
297
     0
 46
0.18
 94
-1056964608
 47
1.0
 49
1.0
140
1.0
293
     1
141
0.0
294
     1
177
     0
142
1.0
295
     0
296
     0
143
0.125
1001
ACAD_MLEADERVER
1070
     2
  0
MLINESTYLE
  5
6AE
102
{ACAD_REACTORS
330
699
102
}
330
699
100
AcDbMlineStyle
  2
STANDARD
 70
     0
  3

 62
   256
 51
90.0
 52
90.0
 71
     2
 49
0.5
 62
   256
  6
BYLAYER
 49
-0.5
 62
   256
  6
BYLAYER
  0
ACDBPLACEHOLDER
  5
66D
102
{ACAD_REACTORS
330
66E
102
}
330
66E
  0
SCALE
  5
6B2
102
{ACAD_REACTORS
330
6AC
102
}
330
6AC
100
AcDbScale
 70
     0
300
1:1
140
1.0
141
1.0
290
     1
  0
SCALE
  5
6B3
102
{ACAD_REACTORS
330
6AC
102
}
330
6AC
100
AcDbScale
 70
     0
300
1:2
140
1.0
141
2.0
290
     0
  0
SCALE
  5
6B4
102
{ACAD_REACTORS
330
6AC
102
}
330
6AC
100
AcDbScale
 70
     0
300
1:4
140
1.0
141
4.0
290
     0
  0
SCALE
  5
6B5
102
{ACAD_REACTORS
330
6AC
102
}
330
6AC
100
AcDbScale
 70
     0
300
1:5
140
1.0
141
5.0
290
     0
  0
SCALE
  5
6B6
102
{ACAD_REACTORS
330
6AC
102
}
330
6AC
100
AcDbScale
 70
     0
300
1:8
140
1.0
141
8.0
290
     0
  0
SCALE
  5
6B7
102
{ACAD_REACTORS
330
6AC
102
}
330
6AC
100
AcDbScale
 70
     0
300
1:10
140
1.0
141
10.0
290
     0
  0
SCALE
  5
6B8
102
{ACAD_REACTORS
330
6AC
102
}
330
6AC
100
AcDbScale
 70
     0
300
1:16
140
1.0
141
16.0
290
     0
  0
SCALE
  5
6B9
102
{ACAD_REACTORS
330
6AC
102
}
330
6AC
100
AcDbScale
 70
     0
300
1:20
140
1.0
141
20.0
290
     0
  0
SCALE
  5
6BA
102
{ACAD_REACTORS
330
6AC
102
}
330
6AC
100
AcDbScale
 70
     0
300
1:30
140
1.0
141
30.0
290
     0
  0
SCALE
  5
6BB
102
{ACAD_REACTORS
330
6AC
102
}
330
6AC
100
AcDbScale
 70
     0
300
1:40
140
1.0
141
40.0
290
     0
  0
SCALE
  5
6BC
102
{ACAD_REACTORS
330
6AC
102
}
330
6AC
100
AcDbScale
 70
     0
300
1:50
140
1.0
141
50.0
290
     0
  0
SCALE
  5
6BD
102
{ACAD_REACTORS
330
6AC
102
}
330
6AC
100
AcDbScale
 70
     0
300
1:100
140
1.0
141
100.0
290
     0
  0
SCALE
  5
6BE
102
{ACAD_REACTORS
330
6AC
102
}
330
6AC
100
AcDbScale
 70
     0
300
2:1
140
2.0
141
1.0
290
     0
  0
SCALE
  5
6BF
102
{ACAD_REACTORS
330
6AC
102
}
330
6AC
100
AcDbScale
 70
     0
300
4:1
140
4.0
141
1.0
290
     0
  0
SCALE
  5
6C0
102
{ACAD_REACTORS
330
6AC
102
}
330
6AC
100
AcDbScale
 70
     0
300
8:1
140
8.0
141
1.0
290
     0
  0
SCALE
  5
6C1
102
{ACAD_REACTORS
330
6AC
102
}
330
6AC
100
AcDbScale
 70
     0
300
10:1
140
10.0
141
1.0
290
     0
  0
SCALE
  5
6C2
102
{ACAD_REACTORS
330
6AC
102
}
330
6AC
100
AcDbScale
 70
     0
300
100:1
140
100.0
141
1.0
290
     0
  0
SCALE
  5
6C3
102
{ACAD_REACTORS
330
6AC
102
}
330
6AC
100
AcDbScale
 70
     0
300
1/128" = 1'-0"
140
0.007813
141
12.0
290
     0
  0
SCALE
  5
6C4
102
{ACAD_REACTORS
330
6AC
102
}
330
6AC
100
AcDbScale
 70
     0
300
1/64" = 1'-0"
140
0.015625
141
12.0
290
     0
  0
SCALE
  5
6C5
102
{ACAD_REACTORS
330
6AC
102
}
330
6AC
100
AcDbScale
 70
     0
300
1/32" = 1'-0"
140
0.03125
141
12.0
290
     0
  0
SCALE
  5
6C6
102
{ACAD_REACTORS
330
6AC
102
}
330
6AC
100
AcDbScale
 70
     0
300
1/16" = 1'-0"
140
0.0625
141
12.0
290
     0
  0
SCALE
  5
6C7
102
{ACAD_REACTORS
330
6AC
102
}
330
6AC
100
AcDbScale
 70
     0
300
3/32" = 1'-0"
140
0.09375
141
12.0
290
     0
  0
SCALE
  5
6C8
102
{ACAD_REACTORS
330
6AC
102
}
330
6AC
100
AcDbScale
 70
     0
300
1/8" = 1'-0"
140
0.125
141
12.0
290
     0
  0
SCALE
  5
6C9
102
{ACAD_REACTORS
330
6AC
102
}
330
6AC
100
AcDbScale
 70
     0
300
3/16" = 1'-0"
140
0.1875
141
12.0
290
     0
  0
SCALE
  5
6CA
102
{ACAD_REACTORS
330
6AC
102
}
330
6AC
100
AcDbScale
 70
     0
300
1/4" = 1'-0"
140
0.25
141
12.0
290
     0
  0
SCALE
  5
6CB
102
{ACAD_REACTORS
330
6AC
102
}
330
6AC
100
AcDbScale
 70
     0
300
3/8" = 1'-0"
140
0.375
141
12.0
290
     0
  0
SCALE
  5
6CC
102
{ACAD_REACTORS
330
6AC
102
}
330
6AC
100
AcDbScale
 70
     0
300
1/2" = 1'-0"
140
0.5
141
12.0
290
     0
  0
SCALE
  5
6CD
102
{ACAD_REACTORS
330
6AC
102
}
330
6AC
100
AcDbScale
 70
     0
300
3/4" = 1'-0"
140
0.75
141
12.0
290
     0
  0
SCALE
  5
6CE
102
{ACAD_REACTORS
330
6AC
102
}
330
6AC
100
AcDbScale
 70
     0
300
1" = 1'-0"
140
1.0
141
12.0
290
     0
  0
SCALE
  5
6CF
102
{ACAD_REACTORS
330
6AC
102
}
330
6AC
100
AcDbScale
 70
     0
300
1-1/2" = 1'-0"
140
1.5
141
12.0
290
     0
  0
SCALE
  5
6D0
102
{ACAD_REACTORS
330
6AC
102
}
330
6AC
100
AcDbScale
 70
     0
300
3" = 1'-0"
140
3.0
141
12.0
290
     0
  0
SCALE
  5
6D1
102
{ACAD_REACTORS
330
6AC
102
}
330
6AC
100
AcDbScale
 70
     0
300
6" = 1'-0"
140
6.0
141
12.0
290
     0
  0
SCALE
  5
6D2
102
{ACAD_REACTORS
330
6AC
102
}
330
6AC
100
AcDbScale
 70
     0
300
1'-0" = 1'-0"
140
12.0
141
12.0
290
     0
  0
TABLESTYLE
  5
6AF
102
{ACAD_XDICTIONARY
360
6EF
102
}
102
{ACAD_REACTORS
330
6AD
102
}
330
6AD
100
AcDbTableStyle
  3
Standard
 70
     0
 71
     0
 40
0.06
 41
0.06
280
     0
281
     0
  7
Standard
140
0.18
170
     2
 62
     0
 63
     7
283
     0
 90
        4
 91
        0
  1

274
    -2
284
     1
 64
     0
275
    -2
285
     1
 65
     0
276
    -2
286
     1
 66
     0
277
    -2
287
     1
 67
     0
278
    -2
288
     1
 68
     0
279
    -2
289
     1
 69
     0
  7
Standard
140
0.25
170
     5
 62
     0
 63
     7
283
     0
 90
        4
 91
        0
  1

274
    -2
284
     1
 64
     0
275
    -2
285
     1
 65
     0
276
    -2
286
     1
 66
     0
277
    -2
287
     1
 67
     0
278
    -2
288
     1
 68
     0
279
    -2
289
     1
 69
     0
  7
Standard
140
0.18
170
     5
 62
     0
 63
     7
283
     0
 90
        4
 91
        0
  1

274
    -2
284
     1
 64
     0
275
    -2
285
     1
 65
     0
276
    -2
286
     1
 66
     0
277
    -2
287
     1
 67
     0
278
    -2
288
     1
 68
     0
279
    -2
289
     1
 69
     0
  0
VISUALSTYLE
  5
691
102
{ACAD_REACTORS
330
692
102
}
330
692
100
AcDbVisualStyle
  2
2dWireframe
 70
     4
 71
     0
 72
     2
 73
     0
 90
        0
 40
-0.6
 41
-30.0
 62
     5
 63
     7
421
 16777215
 74
     1
 91
        4
 64
     7
 65
   257
 75
     1
175
     1
 42
1.0
 92
        0
 66
   257
 43
1.0
 76
     1
 77
     6
 78
     2
 67
     7
 79
     5
170
     0
171
     0
290
     0
174
     0
 93
        1
 44
0.0
173
     0
291
     0
 45
0.0
1001
ACAD
1000
AcDbSavedByObjectVersion
1070
     0
  0
VISUALSTYLE
  5
6FF
102
{ACAD_REACTORS
330
692
102
}
330
692
100
AcDbVisualStyle
  2
3D Hidden
 70
     6
 71
     1
 72
     2
 73
     2
 90
        0
 40
-0.6
 41
-30.0
 62
     5
 63
     7
421
 16777215
 74
     2
 91
        2
 64
     7
 65
   257
 75
     2
175
     1
 42
40.0
 92
        0
 66
   257
 43
1.0
 76
     1
 77
     6
 78
     2
 67
     7
 79
     3
170
     0
171
     0
290
     0
174
     0
 93
        1
 44
0.0
173
     0
291
     0
 45
0.0
  0
VISUALSTYLE
  5
6B1
102
{ACAD_REACTORS
330
692
102
}
330
692
100
AcDbVisualStyle
  2
3dWireframe
 70
     5
 71
     0
 72
     2
 73
     0
 90
        0
 40
-0.6
 41
-30.0
 62
     5
 63
     7
421
 16777215
 74
     1
 91
        4
 64
     7
 65
   257
 75
     1
175
     1
 42
1.0
 92
        0
 66
   257
 43
1.0
 76
     1
 77
     6
 78
     2
 67
     7
 79
     5
170
     0
171
     0
290
     0
174
     0
 93
        1
 44
0.0
173
     0
291
     0
 45
0.0
1001
ACAD
1000
AcDbSavedByObjectVersion
1070
     0
  0
VISUALSTYLE
  5
6FE
102
{ACAD_REACTORS
330
692
102
}
330
692
100
AcDbVisualStyle
  2
Basic
 70
     7
 71
     1
 72
     0
 73
     1
 90
        0
 40
-0.6
 41
-30.0
 62
     5
 63
     7
421
 16777215
 74
     0
 91
        4
 64
     7
 65
   257
 75
     1
175
     1
 42
1.0
 92
        8
 66
     7
 43
1.0
 76
     1
 77
     6
 78
     2
 67
     7
 79
     5
170
     0
171
     0
290
     0
174
     0
 93
        1
 44
0.0
173
     0
291
     1
 45
0.0
  0
VISUALSTYLE
  5
702
102
{ACAD_REACTORS
330
692
102
}
330
692
100
AcDbVisualStyle
  2
Brighten
 70
    12
 71
     2
 72
     2
 73
     0
 90
        0
 40
-0.6
 41
-30.0
 62
     5
 63
     7
421
 16777215
 74
     1
 91
        4
 64
     7
 65
   257
 75
     1
175
     1
 42
1.0
 92
        8
 66
     7
 43
1.0
 76
     1
 77
     6
 78
     2
 67
     7
 79
     5
170
     0
171
     0
290
     0
174
     0
 93
        1
 44
50.0
173
     0
291
     1
 45
0.0
  0
VISUALSTYLE
  5
706
102
{ACAD_REACTORS
330
692
102
}
330
692
100
AcDbVisualStyle
  2
ColorChange
 70
    16
 71
     2
 72
     2
 73
     3
 90
        0
 40
-0.6
 41
-30.0
 62
     5
 63
     8
421
  8421504
 74
     1
 91
        4
 64
     7
 65
   257
 75
     1
175
     1
 42
1.0
 92
        8
 66
     8
424
  8421504
 43
1.0
 76
     1
 77
     6
 78
     2
 67
     7
 79
     5
170
     0
171
     0
290
     0
174
     0
 93
        1
 44
0.0
173
     0
291
     1
 45
0.0
  0
VISUALSTYLE
  5
700
102
{ACAD_REACTORS
330
692
102
}
330
692
100
AcDbVisualStyle
  2
Conceptual
 70
     9
 71
     3
 72
     2
 73
     0
 90
        0
 40
-0.6
 41
-30.0
 62
     5
 63
     7
421
 16777215
 74
     2
 91
        2
 64
     7
 65
   257
 75
     1
175
     1
 42
40.0
 92
        8
 66
     7
 43
1.0
 76
     1
 77
     6
 78
     2
 67
     7
 79
     3
170
     0
171
     0
290
     0
174
     0
 93
        1
 44
0.0
173
     0
291
     0
 45
0.0
  0
VISUALSTYLE
  5
701
102
{ACAD_REACTORS
330
692
102
}
330
692
100
AcDbVisualStyle
  2
Dim
 70
    11
 71
     2
 72
     2
 73
     0
 90
        0
 40
-0.6
 41
-30.0
 62
     5
 63
     7
421
 16777215
 74
     1
 91
        4
 64
     7
 65
   257
 75
     1
175
     1
 42
1.0
 92
        8
 66
     7
 43
1.0
 76
     1
 77
     6
 78
     2
 67
     7
 79
     5
170
     0
171
     0
290
     0
174
     0
 93
        1
 44
-50.0
173
     0
291
     1
 45
0.0
  0
VISUALSTYLE
  5
705
102
{ACAD_REACTORS
330
692
102
}
330
692
100
AcDbVisualStyle
  2
Facepattern
 70
    15
 71
     2
 72
     2
 73
     0
 90
        0
 40
-0.6
 41
-30.0
 62
     5
 63
     7
421
 16777215
 74
     1
 91
        4
 64
     7
 65
   257
 75
     1
175
     1
 42
1.0
 92
        8
 66
     7
 43
1.0
 76
     1
 77
     6
 78
     2
 67
     7
 79
     5
170
     0
171
     0
290
     0
174
     0
 93
        1
 44
0.0
173
     0
291
     1
 45
0.0
  0
VISUALSTYLE
  5
6FA
102
{ACAD_REACTORS
330
692
102
}
330
692
100
AcDbVisualStyle
  2
Flat
 70
     0
 71
     2
 72
     1
 73
     1
 90
        2
 40
-0.6
 41
30.0
 62
     5
 63
     7
421
 16777215
 74
     0
 91
        4
 64
     7
 65
   257
 75
     1
175
     1
 42
1.0
 92
        8
 66
     7
 43
1.0
 76
     1
 77
     6
 78
     2
 67
     7
 79
     5
170
     0
171
     0
290
     0
174
     0
 93
       13
 44
0.0
173
     0
291
     1
 45
0.0
  0
VISUALSTYLE
  5
6FB
102
{ACAD_REACTORS
330
692
102
}
330
692
100
AcDbVisualStyle
  2
FlatWithEdges
 70
     1
 71
     2
 72
     1
 73
     1
 90
        2
 40
-0.6
 41
30.0
 62
     5
 63
     7
421
 16777215
 74
     1
 91
        4
 64
     7
 65
   257
 75
     1
175
     1
 42
1.0
 92
        0
 66
   257
 43
1.0
 76
     1
 77
     6
 78
     2
 67
     7
 79
     5
170
     0
171
     0
290
     0
174
     0
 93
       13
 44
0.0
173
     0
291
     1
 45
0.0
  0
VISUALSTYLE
  5
6FC
102
{ACAD_REACTORS
330
692
102
}
330
692
100
AcDbVisualStyle
  2
Gouraud
 70
     2
 71
     2
 72
     2
 73
     1
 90
        2
 40
-0.6
 41
30.0
 62
     5
 63
     7
421
 16777215
 74
     0
 91
        4
 64
     7
 65
   257
 75
     1
175
     1
 42
1.0
 92
        0
 66
     7
 43
1.0
 76
     1
 77
     6
 78
     2
 67
     7
 79
     5
170
     0
171
     0
290
     0
174
     0
 93
       13
 44
0.0
173
     0
291
     1
 45
0.0
  0
VISUALSTYLE
  5
6FD
102
{ACAD_REACTORS
330
692
102
}
330
692
100
AcDbVisualStyle
  2
GouraudWithEdges
 70
     3
 71
     2
 72
     2
 73
     1
 90
        2
 40
-0.6
 41
30.0
 62
     5
 63
     7
421
 16777215
 74
     1
 91
        4
 64
     7
 65
   257
 75
     1
175
     1
 42
1.0
 92
        0
 66
   257
 43
1.0
 76
     1
 77
     6
 78
     2
 67
     7
 79
     5
170
     0
171
     0
290
     0
174
     0
 93
       13
 44
0.0
173
     0
291
     1
 45
0.0
  0
VISUALSTYLE
  5
704
102
{ACAD_REACTORS
330
692
102
}
330
692
100
AcDbVisualStyle
  2
Linepattern
 70
    14
 71
     2
 72
     2
 73
     0
 90
        0
 40
-0.6
 41
-30.0
 62
     5
 63
     7
421
 16777215
 74
     1
 91
        4
 64
     7
 65
   257
 75
     7
175
     7
 42
1.0
 92
        8
 66
     7
 43
1.0
 76
     1
 77
     6
 78
     2
 67
     7
 79
     5
170
     0
171
     0
290
     0
174
     0
 93
        1
 44
0.0
173
     0
291
     1
 45
0.0
  0
VISUALSTYLE
  5
6B0
102
{ACAD_REACTORS
330
692
102
}
330
692
100
AcDbVisualStyle
  2
Realistic
 70
     8
 71
     2
 72
     2
 73
     0
 90
        0
 40
-0.6
 41
-30.0
 62
     5
 63
     7
421
 16777215
 74
     1
 91
        0
 64
     7
 65
   257
 75
     1
175
     1
 42
1.0
 92
        8
 66
     8
424
  7895160
 43
1.0
 76
     1
 77
     6
 78
     2
 67
     7
 79
     5
170
     0
171
     0
290
     0
174
     0
 93
       13
 44
0.0
173
     0
291
     0
 45
0.0
1001
ACAD
1000
AcDbSavedByObjectVersion
1070
     0
  0
VISUALSTYLE
  5
703
102
{ACAD_REACTORS
330
692
102
}
330
692
100
AcDbVisualStyle
  2
Thicken
 70
    13
 71
     2
 72
     2
 73
     0
 90
        0
 40
-0.6
 41
-30.0
 62
     5
 63
     7
421
 16777215
 74
     1
 91
        4
 64
     7
 65
   257
 75
     1
175
     1
 42
1.0
 92
       12
 66
     7
 43
1.0
 76
     1
 77
     6
 78
     2
 67
     7
 79
     5
170
     0
171
     0
290
     0
174
     0
 93
        1
 44
0.0
173
     0
291
     1
 45
0.0
  0
DICTIONARYVAR
  5
6EE
102
{ACAD_REACTORS
330
6EA
102
}
330
6EA
100
DictionaryVariables
280
     0
  1
1:1
  0
DICTIONARYVAR
  5
6EC
102
{ACAD_REACTORS
330
6EA
102
}
330
6EA
100
DictionaryVariables
280
     0
  1
STANDARD
  0
DICTIONARYVAR
  5
6EB
102
{ACAD_REACTORS
330
6EA
102
}
330
6EA
100
DictionaryVariables
280
     0
  1
STANDARD
  0
DICTIONARYVAR
  5
989
102
{ACAD_REACTORS
330
6EA
102
}
330
6EA
100
DictionaryVariables
280
     0
  1
1
  0
DICTIONARYVAR
  5
98A
102
{ACAD_REACTORS
330
6EA
102
}
330
6EA
100
DictionaryVariables
280
     0
  1
15
  0
DICTIONARYVAR
  5
988
102
{ACAD_REACTORS
330
6EA
102
}
330
6EA
100
DictionaryVariables
280
     0
  1
0
  0
DICTIONARYVAR
  5
6ED
102
{ACAD_REACTORS
330
6EA
102
}
330
6EA
100
DictionaryVariables
280
     0
  1
1
  0
DICTIONARY
  5
681
330
680
100
AcDbDictionary
280
     1
281
     1
  3
ADSK_XREC_LAYOUTTHUMBNAIL
360
682
  0
DICTIONARY
  5
6A4
330
6A3
100
AcDbDictionary
280
     1
281
     1
  3
ACAD_XREC_ROUNDTRIP
360
6F4
  3
BUMPTILE
360
6A5
  3
DIFFUSETILE
360
6A6
  3
OPACITYTILE
360
6A7
  3
REFLECTIONTILE
360
6A8
  3
REFRACTIONTILE
360
6A9
  3
SPECULARTILE
360
6AA
  0
DICTIONARY
  5
69C
330
69B
100
AcDbDictionary
280
     1
281
     1
  3
ACAD_XREC_ROUNDTRIP
360
6F3
  3
BUMPTILE
360
69D
  3
DIFFUSETILE
360
69E
  3
OPACITYTILE
360
69F
  3
REFLECTIONTILE
360
6A0
  3
REFRACTIONTILE
360
6A1
  3
SPECULARTILE
360
6A2
  0
DICTIONARY
  5
672
330
670
100
AcDbDictionary
280
     1
281
     1
  3
ACAD_XREC_ROUNDTRIP
360
6F2
  3
BUMPTILE
360
673
  3
DIFFUSETILE
360
674
  3
OPACITYTILE
360
675
  3
REFLECTIONTILE
360
676
  3
REFRACTIONTILE
360
677
  3
SPECULARTILE
360
678
  0
DICTIONARY
  5
6EF
330
6AF
100
AcDbDictionary
280
     1
281
     1
  3
ACAD_ROUNDTRIP_2008_TABLESTYLE_CELLSTYLEMAP
360
98B
  0
XRECORD
  5
682
102
{ACAD_REACTORS
330
681
102
}
330
681
100
AcDbXrecord
280
     1
310
28000000B40000008B0000000100080000000000BC61000000000000000000000001000000000000FFFFFF0000000000FFFFFF000000000000000000000000000000000000000000000000000000000000000000330000006600000099000000CC000000FF00000000330000333300006633000099330000CC330000FF3300
310
0000660000336600006666000099660000CC660000FF66000000990000339900006699000099990000CC990000FF99000000CC000033CC000066CC000099CC0000CCCC0000FFCC000000FF000033FF000066FF000099FF0000CCFF0000FFFF000000003300330033006600330099003300CC003300FF003300003333003333
310
33006633330099333300CC333300FF33330000663300336633006666330099663300CC663300FF66330000993300339933006699330099993300CC993300FF99330000CC330033CC330066CC330099CC3300CCCC3300FFCC330000FF330033FF330066FF330099FF3300CCFF3300FFFF330000006600330066006600660099
310
006600CC006600FF00660000336600333366006633660099336600CC336600FF33660000666600336666006666660099666600CC666600FF66660000996600339966006699660099996600CC996600FF99660000CC660033CC660066CC660099CC6600CCCC6600FFCC660000FF660033FF660066FF660099FF6600CCFF6600
310
FFFF660000009900330099006600990099009900CC009900FF00990000339900333399006633990099339900CC339900FF33990000669900336699006666990099669900CC669900FF66990000999900339999006699990099999900CC999900FF99990000CC990033CC990066CC990099CC9900CCCC9900FFCC990000FF99
310
0033FF990066FF990099FF9900CCFF9900FFFF99000000CC003300CC006600CC009900CC00CC00CC00FF00CC000033CC003333CC006633CC009933CC00CC33CC00FF33CC000066CC003366CC006666CC009966CC00CC66CC00FF66CC000099CC003399CC006699CC009999CC00CC99CC00FF99CC0000CCCC0033CCCC0066CC
310
CC0099CCCC00CCCCCC00FFCCCC0000FFCC0033FFCC0066FFCC0099FFCC00CCFFCC00FFFFCC000000FF003300FF006600FF009900FF00CC00FF00FF00FF000033FF003333FF006633FF009933FF00CC33FF00FF33FF000066FF003366FF006666FF009966FF00CC66FF00FF66FF000099FF003399FF006699FF009999FF00CC
310
99FF00FF99FF0000CCFF0033CCFF0066CCFF0099CCFF00CCCCFF00FFCCFF0000FFFF0033FFFF0066FFFF0099FFFF00CCFFFF00FFFFFF00000000000D0D0D001A1A1A00282828003535350043434300505050005D5D5D006B6B6B00787878008686860093939300A1A1A100AEAEAE00BBBBBB00C9C9C900D6D6D600E4E4E400
310
F1F1F100FFFFFF0000000000000000000000000000000000000000000000000000000000000000000000000000000000E2E2E2E2E2E2E2E2E2E2E2E2E2E2E2E2E2E2E2E2E2E2E2E2E2E2E2E2E2E2E2E2E2E2E2E2E2E2E2E2E2E2E2E2E2E2E2E2E2E2E2E2E2E2E2E2E2E2E2E2E2E2E2E2E2E2E2E2E2E2E2E2E2E2E2E2E2E2E2
310
E2E2E2E2E2E2E2E2E2E2E2E2E2E2E2E2E2E2E2E2E2E2E2E2E2E2E2E2E2E2E2E2E2E2E2E2E2E2E2E2E2E2E2E2E2E2E2E2E2E2E2E2E2E2E2E2E2E2E2E2E2E2E2E2E2E2E2E2E2E2E2E2E2E2E2E2E2E2E2E2E2E2E2E2E2E2E2E2E2E2E2E2E2E2E2E2E2E2E2E2EFF5F5F5F5F5F5F5F5F5F5F5F5F5F5F5F5F5F5F5F5F5F5F5F5F5F5
310
F5F5F5F5F5F5F5F5F5F5F5F5F5F5F5F5F5F5F5F5F5F5F5F5F5F5F5F5F5F5F5F5F5F5F5F5F5F5F5F5F5F5F5F5F5F5F5F5F5F5F5F5F5F5F5F5F5F5F5F5F5F5F5F5F5F5F5F5F5F5F5F5F5F5F5F5F5F5F5F5F5F5F5F5F5F5F5F5F5F5F5F5F5F5F5F5F5F5F5F5F5F5F5F5F5F5F5F5F5F5F5F5F5F5F5F5F5F5F5F5F5F5F5F5F5F5F5
310
F5F5F5F5F5F5F5F5F5F5F5F5F5F5F5F5F5F5F5F5F5F5F5F5E2E2EFF5F5F5F5F5F5F5F5F5F5F5F5F5F5F5F5F5F5F5F5F5F5F5F5F5F5F5F5F5F5F5F5F5F5F5F5F5F5F5F5F5F5F5F5F5F5F5F5F5F5F5F5F5F5F5F5F5F5F5F5F5F5F5F5F5F5F5F5F5F5F5F5F5F5F5F5F5F5F5F5F5F5F5F5F5F5F5F5F5F5F5F5F5F5F5F5F5F5F5F5
310
F5F5F5F5F5F5F5F5F5F5F5F5F5F5F5F5F5F5F5F5F5F5F5F5F5F5F5F5F5F5F5F5F5F5F5F5F5F5F5F5F5F5F5F5F5F5F5F5F5F5F5F5F5F5F5F5F5F5F5F5F5F5F5F5F5F5F5F5F5F5F5F5F5F5F5F5F5E2E2EFF5F5F5F5F5F5F5F5F5F5F5F5F5F5F5F5F5F5F5F5F5F5F5F5F5F5F5F5F5F5F5F5F5F5F5F5F5F5F5F5F5F5F5F5F5F5F5
310
F5F5F5F5F5F5F5F5F5F5F5F5F5F5F5F5F5F5F5F5F5F5F5F5F5F5F5F5F5F5F5F5F5F5F5F5F5F5F5F5F5F5F5F5F5F5F5F5F5F5F5F5F5F5F5F5F5F5F5F5F5F5F5F5F5F5F5F5F5F5F5F5F5F5F5F5F5F5F5F5F5F5F5F5F5F5F5F5F5F5F5F5F5F5F5F5F5F5F5F5F5F5F5F5F5F5F5F5F5F5F5F5F5F5F5F5F5F5F5F5F5F5F5F5F5F5F5
310
F5F5F5E2E2EFF5F5F5E2E2E2E2E2E2E2E2F5F5F5F5F5F5F5F5F5E2E2E2E2E2E2E2E2E2E2E2E2E2E2E2E2F5F5F5F5F5F5F5F5E2E2E2E2E2E2E2E2E2E2E2E2E2E2E2E2F5F5F5F5F5F5F5F5F5E2E2E2E2E2E2E2E2E2E2E2E2E2E2E2F5F5F5F5F5F5F5F5F5E2E2E2E2E2E2E2E2E2E2E2E2E2E2E2F5F5F5F5F5F5F5F5F5E2E2E2E2
310
E2E2E2E2E2E2E2E2E2E2E2E2F5F5F5F5F5F5F5F5E2E2E2E2E2E2E2E2E2E2E2E2E2E2E2E2F5F5F5F5F5F5F5F5F5E2E2E2E2E2E2E2E2F5F5F5E2E2EFF5F5F5E2F5F5F5F5F5F5F5F5F5F5F5F5F5F5F5F5F5F5F5F5F5F5F5F5F5F5F5F5F5F5F5F5F5F5F5F5F5F5F5F5F5F5F5F5F5F5F5F5F5F5F5F5F5F5F5F5F5F5F5F5F5F5F5F5
310
F5F5F5F5F5F5F5F5F5F5F5F5F5F5F5F5F5F5F5F5F5F5F5F5F5F5F5F5F5F5F5F5F5F5F5F5F5F5F5F5F5F5F5F5F5F5F5F5F5F5F5F5F5F5F5F5F5F5F5F5F5F5F5F5F5F5F5F5F5F5F5F5F5F5F5F5F5F5F5F5F5F5F5F5F5F5F5F5F5F5F5F5F5F5F5F5F5F5F5F5F5F5F5F5F5E2F5F5F5E2E2EFF5F5F5E2F5F5F5F5F5F5F5F5F5F5F5
310
F5F5F5F5F5F5F5F5F5F5F5F5F5F5F5F5F5F5F5F5F5F5F5F5F5F5F5F5F5F5F5F5F5F5F5F5F5F5F5F5F5F5F5F5F5F5F5F5F5F5F5F5F5F5F5F5F5F5F5F5F5F5F5F5F5F5F5F5F5F5F5F5F5F5F5F5F5F5F5F5F5F5F5F5F5F5F5F5F5F5F5F5F5F5F5F5F5F5F5F5F5F5F5F5F5F5F5F5F5F5F5F5F5F5F5F5F5F5F5F5F5F5F5F5F5F5F5
310
F5F5F5F5F5F5F5F5F5F5F5F5F5F5F5F5F5F5F5F5F5F5F5F5F5F5F5F5F5F5F5E2F5F5F5E2E2EFF5F5F5E2F5F5F5F5F5F5F5F5F5F5F5F5F5F5F5F5F5F5F5F5F5F5F5F5F5F5F5F5F5F5F5F5F5F5F5F5F5F5F5F5F5F5F5F5F5F5F5F5F5F5F5F5F5F5F5F5F5F5F5F5F5F5F5F5F5F5F5F5F5F5F5F5F5F5F5F5F5F5F5F5F5F5F5F5F5
310
F5F5F5F5F5F5F5F5F5F5F5F5F5F5F5F5F5F5F5F5F5F5F5F5F5F5F5F5F5F5F5F5F5F5F5F5F5F5F5F5F5F5F5F5F5F5F5F5F5F5F5F5F5F5F5F5F5F5F5F5F5F5F5F5F5F5F5F5F5F5F5F5F5F5F5F5F5F5F5F5F5F5F5F5E2F5F5F5E2E2EFF5F5F5E2F5F5F5F5F5F5F5F5F5F5F5F5F5F5F5F5F5F5F5F5F5F5F5F5F5F5F5F5F5F5F5F5
310
F5F5F5F5F5F5F5F5F5F5F5F5F5F5F5F5F5F5F5F5F5F5F5F5F5F5F5F5F5F5F5F5F5F5F5F5F5F5F5F5F5F5F5F5F5F5F5F5F5F5F5F5F5F5F5F5F5F5F5F5F5F5F5F5F5F5F5F5F5F5F5F5F5F5F5F5F5F5F5F5F5F5F5F5F5F5F5F5F5F5F5F5F5F5F5F5F5F5F5F5F5F5F5F5F5F5F5F5F5F5F5F5F5F5F5F5F5F5F5F5F5F5F5F5F5F5F5
310
F5F5F5F5F5F5F5F5F5F5E2F5F5F5E2E2EFF5F5F5E2F5F5F5F5F5F5F5F5F5F5F5F5F5F5F5F5F5F5F5F5F5F5F5F5F5F5F5F5F5F5F5F5F5F5F5F5F5F5F5F5F5F5F5F5F5F5F5F5F5F5F5F5F5F5F5F5F5F5F5F5F5F5F5F5F5F5F5F5F5F5F5F5F5F5F5F5F5F5F5F5F5F5F5F5F5F5F5F5F5F5F5F5F5F5F5F5F5F5F5F5F5F5F5F5F5F5
310
F5F5F5F5F5F5F5F5F5F5F5F5F5F5F5F5F5F5F5F5F5F5F5F5F5F5F5F5F5F5F5F5F5F5F5F5F5F5F5F5F5F5F5F5F5F5F5F5F5F5F5F5F5F5F5F5F5F5F5F5F5F5F5E2F5F5F5E2E2EFF5F5F5E2F5F5F5F5F5F5F5F5F5F5F5F5F5F5F5F5F5F5F5F5F5F5F5F5F5F5F5F5F5F5F5F5F5F5F5F5F5F5F5F5F5F5F5F5F5F5F5F5F5F5F5F5F5
310
F5F5F5F5F5F5F5F5F5F5F5F5F5F5F5F5F5F5F5F5F5F5F5F5F5F5F5F5F5F5F5F5F5F5F5F5F5F5F5F5F5F5F5F5F5F5F5F5F5F5F5F5F5F5F5F5F5F5F5F5F5F5F5F5F5F5F5F5F5F5F5F5F5F5F5F5F5F5F5F5F5F5F5F5F5F5F5F5F5F5F5F5F5F5F5F5F5F5F5F5F5F5F5F5F5F5F5F5F5F5F5F5F5F5F5F5E2F5F5F5E2E2EFF5F5F5E2
310
F5F5F5F5F5F5F5F5F5F5F5F5F5F5F5F5F5F5F5F5F5F5F5F5F5F5F5F5F5F5F5F5F5F5F5F5F5F5F5F5F5F5F5F5F5F5F5F5F5F5F5F5F5F5F5F5F5F5F5F5F5F5F5F5F5F5F5F5F5F5F5F5F5F5F5F5F5F5F5F5F5F5F5F5F5F5F5F5F5F5F5F5F5F5F5F5F5F5F5F5F5F5F5F5F5F5F5F5F5F5F5F5F5F5F5F5F5F5F5F5F5F5F5F5F5F5F5
310
F5F5F5F5F5F5F5F5F5F5F5F5F5F5F5F5F5F5F5F5F5F5F5F5F5F5F5F5F5F5F5F5F5F5F5F5F5F5F5F5F5F5E2F5F5F5E2E2EFF5F5F5E2F5F5F5F5F5F5F5F5F5F5F5F5F5F5F5F5F5F5F5F5F5F5F5F5F5F5F5F5F5F5F5F5F5F5F5F5F5F5F5F5F5F5F5F5F5F5F5F5F5F5F5F5F5F5F5F5F5F5F5F5F5F5F5F5F5F5F5F5F5F5F5F5F5F5
310
F5F5F5F5F5F5F5F5F5F5F5F5F5F5F5F5F5F5F5F5F5F5F5F5F5F5F5F5F5F5F5F5F5F5F5F5F5F5F5F5F5F5F5F5F5F5F5F5F5F5F5F5F5F5F5F5F5F5F5F5F5F5F5F5F5F5F5F5F5F5F5F5F5F5F5F5F5F5F5F5F5F5F5F5F5F5F5F5F5F5F5F5F5F5F5E2F5F5F5E2E2EFF5F5F5F5F5F5F5F5F5F5F5F5F5F5F5F5F5F5F5F5F5F5F5F5F5
310
F5F5F5F5F5F5F5F5F5F5F5F5F5F5F5F5F5F5F5F5F5F5F5F5F5F5F5F5F5F5F5F5F5F5F5F5F5F5F5F5F5F5F5F5F5F5F5F5F5F5F5F5F5F5F5F5F5F5F5F5F5F5F5F5F5F5F5F5F5F5F5F5F5F5F5F5F5F5F5F5F5F5F5F5F5F5F5F5F5F5F5F5F5F5F5F5F5F5F5F5F5F5F5F5F5F5F5F5F5F5F5F5F5F5F5F5F5F5F5F5F5F5F5F5F5F5F5
310
F5F5F5F5F5F5F5F5F5F5F5F5F5F5F5F5F5F5F5F5F5F5F5F5F5E2E2EFF5F5F5F5F5F5F5F5F5F5F5F5F5F5F5F5F5F5F5F5F5F5F5F5F5F5F5F5F5F5F5F5F5F5F5F5F5F5F5F5F5F5F5F5F5F5F5F5F5F5F5F5F5F5F5F5F5F5F5F5F5F5F5F5F5F5F5F5F5F5F5F5F5F5F5F5F5F5F5F5F5F5F5F5F5F5F5F5F5F5F5F5F5F5F5F5F5F5F5
310
F5F5F5F5F5F5F5F5F5F5F5F5F5F5F5F5F5F5F5F5F5F5F5F5F5F5F5F5F5F5F5F5F5F5F5F5F5F5F5F5F5F5F5F5F5F5F5F5F5F5F5F5F5F5F5F5F5F5F5F5F5F5F5F5F5F5F5F5F5F5F5F5F5F5F5F5F5F5E2E2EFF5F5F5F5F5F5F5F5F5F5F5F5F5F5F5F5F5F5F5F5F5F5F5F5F5F5F5F5F5F5F5F5F5F5F5F5F5F5F5F5F5F5F5F5F5F5
310
F5F5F5F5F5F5F5F5F5F5F5F5F5F5F5F5F5F5F5F5F5F5F5F5F5F5F5F5F5F5F5F5F5F5F5F5F5F5F5F5F5F5F5F5F5F5F5F5F5F5F5F5F5F5F5F5F5F5F5F5F5F5F5F5F5F5F5F5F5F5F5F5F5F5F5F5F5F5F5F5F5F5F5F5F5F5F5F5F5F5F5F5F5F5F5F5F5F5F5F5F5F5F5F5F5F5F5F5F5F5F5F5F5F5F5F5F5F5F5F5F5F5F5F5F5F5F5
310
F5F5F5F5E2E2EFF5F5F5F5F5F5F5F5F5F5F5F5F5F5F5F5F5F5F5F5F5F5F5F5F5F5F5F5F5F5F5F5F5F5F5F5F5F5F5F5F5F5F5F5F5F5F5F5F5F5F5F5F5F5F5F5F5F5F5F5F5F5F5F5F5F5F5F5F5F5F5F5F5F5F5F5F5F5F5F5F5F5F5F5F5F5F5F5F5F5F5F5F5F5F5F5F5F5F5F5F5F5F5F5F5F5F5F5F5F5F5F5F5F5F5F5F5F5F5F5
310
F5F5F5F5F5F5F5F5F5F5F5F5F5F5F5F5F5F5F5F5F5F5F5F5F5F5F5F5F5F5F5F5F5F5F5F5F5F5F5F5F5F5F5F5F5F5F5F5F5F5F5F5F5F5F5F5F5E2E2EFF5F5F5F5F5F5F5F5F5F5F5F5F5F5F5F5F5F5F5F5E2E2E2E2E2E2E2E2E2E2E2E2E2E2E2E2E2E2E2E2E2E2E2E2E2E2E2E2E2E2E2E2E2E2E2E2E2E2E2E2E2E2E2E2E2E2E2
310
E2E2E2E2E2E2E2E2E2E2E2E2E2E2E2E2E2E2E2E2E2E2E2E2E2E2E2E2E2E2E2E2E2E2E2E2E2E2E2E2E2E2E2E2E2E2E2E2E2E2E2E2E2E2E2E2E2E2E2E2E2E2E2E2E2E2E2E2E2E2E2E2E2E2E2E2E2E2E2E2E2E2E2E2E2E2E2E2E2E2F5F5F5F5F5F5F5F5F5F5F5F5F5F5F5F5F5F5F5F5E2E2EFF5F5F5F5F5F5F5F5F5F5F5F5F5F5
310
F5F5F5F5F5F5E2F5F5F5F5F5F5F5F5F5F5F5F5F5F5F5F5F5F5F5F5F5F5F5F5F5F5F5F5F5F5F5F5F5F5F5F5F5F5F5F5F5F5F5F5F5F5F5F5F5F5F5F5F5F5F5F5F5F5F5F5F5F5F5F5F5F5F5F5F5F5F5F5F5F5F5F5F5F5F5F5F5F5F5F5F5F5F5F5F5F5F5F5F5F5F5F5F5F5F5F5F5F5F5F5F5F5F5F5F5F5F5F5F5F5F5F5F5F5F5F5
310
F5F5F5F5F5F5F5F5F5F5F5F5F5F5F5E2F5F5F5F5F5F5F5F5F5F5F5F5F5F5F5F5F5F5F5F5E2E2EFF5F5F5F5F5F5F5F5F5F5F5F5F5F5F5F5F5F5F5F5E2F5F5F5F5F5F5F5F5F5F5F5F5F5F5F5F5F5F5F5F5F5F5F5F5F5F5F5F5F5F5F5F5F5F5F5F5F5F5F5F5F5F5F5F5F5F5F5F5F5F5F5F5F5F5F5F5F5F5F5F5F5F5F5F5F5F5F5
310
F5F5F5F5F5F5F5F5F5F5F5F5F5F5F5F5F5F5F5F5F5F5F5F5F5F5F5F5F5F5F5F5F5F5F5F5F5F5F5F5F5F5F5F5F5F5F5F5F5F5F5F5F5F5F5F5F5F5F5F5F5F5F5F5F5F5F5F5E2F5F5F5F5F5F5F5F5F5F5F5F5F5F5F5F5F5F5F5F5E2E2EFF5F5F5F5F5F5F5F5F5F5F5F5F5F5F5F5F5F5F5F5E2F5F5F5F5F5F5F5F5F5F5F5F5F5F5
310
F5F5F5F5F5F5F5F5F5F5F5F5F5F5F5F5F5F5F5F5F5F5F5F5F5F5F5F5F5F5F5F5F5F5F5F5F5F5F5F5F5F5F5F5F5F5F5F5F5F5F5F5F5F5F5F5F5F5F5F5F5F5F5F5F5F5F5F5F5F5F5F5F5F5F5F5F5F5F5F5F5F5F5F5F5F5F5F5F5F5F5F5F5F5F5F5F5F5F5F5F5F5F5F5F5F5F5F5F5F5F5F5F5F5F5F5F5F5F5F5F5E2F5F5F5F5F5
310
F5F5F5F5F5F5F5F5F5F5F5F5F5F5F5E2E2EFF5F5F5F5F5F5F5F5F5F5F5F5F5F5F5F5F5F5F5F5E2F5F5F5F5F5F5F5F5F5F5F5F5F5F5F5F5F5F5F5F5F5F5F5F5F5F5F5F5F5F5F5F5F5F5F5F5F5F5F5F5F5F5F5F5F5F5F5F5F5F5F5F5F5F5F5F5F5F5F5F5F5F5F5F5F5F5F5F5F5F5F5F5F5F5F5F5F5F5F5F5F5F5F5F5F5F5F5F5
310
F5F5F5F5F5F5F5F5F5F5F5F5F5F5F5F5F5F5F5F5F5F5F5F5F5F5F5F5F5F5F5F5F5F5F5F5F5F5F5F5F5F5F5F5F5F5F5E2F5F5F5F5F5F5F5F5F5F5F5F5F5F5F5F5F5F5F5F5E2E2EFF5F5F5E2F5F5F5F5F5F5F5F5F5F5F5F5F5F5F5F5E2F5F5F5F5F5F5F5F5F5F5F5F5F5F5F5F5F5F5F5F5F5F5F5F5F5F5F5F5F5F5F5F5F5F5F5
310
F5F5F5F5F5F5F5F5F5F5F5F5F5F5F5F5F5F5F5F5F5F5F5F5F5F5F5F5F5F5F5F5F5F5F5F5F5F5F5F5F5F5F5F5F5F5F5F5F5F5F5F5F5F5F5F5F5F5F5F5F5F5F5F5F5F5F5F5F5F5F5F5F5F5F5F5F5F5F5F5F5F5F5F5F5F5F5F5F5F5F5F5F5F5F5F5F5F5F5F5E2F5F5F5F5F5F5F5F5F5F5F5F5F5F5F5F5E2F5F5F5E2E2EFF5F5F5
310
E2F5F5F5F5F5F5F5F5F5F5F5F5F5F5F5F5E2F5F5F5F5F5F5F5F5F5F5F5F5F5F5F5F5F5F5F5F5F5F5F5F5F5F5F5F5F5F5F5F5F5F5F5F5F5F5F5F5F5F5F5F5F5F5F5F5F5F5F5F5F5F5F5F5F5F5F5F5F5F5F5F5F5F5F5F5F5F5F5F5F5F5F5F5F5F5F5F5F5F5F5F5F5F5F5F5F5F5F5F5F5F5F5F5F5F5F5F5F5F5F5F5F5F5F5F5F5
310
F5F5F5F5F5F5F5F5F5F5F5F5F5F5F5F5F5F5F5F5F5F5F5F5F5F5E2F5F5F5F5F5F5F5F5F5F5F5F5F5F5F5F5E2F5F5F5E2E2EFF5F5F5E2F5F5F5F5F5F5F5F5F5F5F5F5F5F5F5F5E2F5F5F5F5F5F5F5F5F5F5F5F5F5F5F5F5F5F5F5F5F5F5F5F5F5F5F5F5F5F5F5F5F5F5F5F5F5F5F5F5F5F5F5F5F5F5F5F5F5F5F5F5F5F5F5F5
310
F5F5F5F5F5F5F5F5F5F5F5F5F5F5F5F5F5F5F5F5F5F5F5F5F5F5F5F5F5F5F5F5F5F5F5F5F5F5F5F5F5F5F5F5F5F5F5F5F5F5F5F5F5F5F5F5F5F5F5F5F5F5F5F5F5F5F5F5F5F5F5F5F5F5F5F5F5F5F5E2F5F5F5F5F5F5F5F5F5F5F5F5F5F5F5F5E2F5F5F5E2E2EFF5F5F5E2F5F5F5F5F5F5F5F5F5F5F5F5F5F5F5F5E2F5F5F5
310
F5F5F5F5F5F5F5F5F5F5F5F5F5F5F5F5F5F5F5F5F5F5F5F5F5F5F5F5F5F5F5F5F5F5F5F5F5F5F5F5F5F5F5F5F5F5F5F5F5F5F5F5F5F5F5F5F5F5F5F5F5F5F5F5F5F5F5F5F5F5F5F5F5F5F5F5F5F5F5F5F5F5F5F5F5F5F5F5F5F5F5F5F5F5F5F5F5F5F5F5F5F5F5F5F5F5F5F5F5F5F5F5F5F5F5F5F5F5F5F5F5F5F5F5F5F5F5
310
F5F5F5F5F5E2F5F5F5F5F5F5F5F5F5F5F5F5F5F5F5F5E2F5F5F5E2E2EFF5F5F5E2F5F5F5F5F5F5F5F5F5F5F5F5F5F5F5F5E2F5F5F5F5F5F5F5F5F5F5F5F5F5F5F5F5F5F5F5F5F5F5F5F5F5F5F5F5F5F5F5F5F5F5F5F5F5F5F5F5F5F5F5F5F5F5F5F5F5F5F5F5F5F5F5F5F5F5F5F5F5F5F5F5F5F5F5F5F5F5F5F5F5F5F5F5F5
310
F5F5F5F5F5F5F5F5F5F5F5F5F5F5F5F5F5F5F5F5F5F5F5F5F5F5F5F5F5F5F5F5F5F5F5F5F5F5F5F5F5F5F5F5F5F5F5F5F5F5F5F5F5F5F5F5F5F5E2F5F5F5F5F5F5F5F5F5F5F5F5F5F5F5F5E2F5F5F5E2E2EFF5F5F5E2F5F5F5F5F5F5F5F5F5F5F5F5F5F5F5F5E2F5F5F5F5F5F5F5F5F5F5F5F5F5F5F5F5F5F5F5F5F5F5F5F5
310
F5F5F5F5F5F5F5F5F5F5F5F5F5F5F5F5F5F5F5F5F5F5F5F5F5F5F5F5F5F5F5F5F5F5F5F5F5F5F5F5F5F5F5F5F5F5F5F5F5F5F5F5F5F5F5F5F5F5F5F5F5F5F5F5F5F5F5F5F5F5F5F5F5F5F5F5F5F5F5F5F5F5F5F5F5F5F5F5F5F5F5F5F5F5F5F5F5F5F5F5F5F5F5F5F5F5F5F5F5F5F5E2F5F5F5F5F5F5F5F5F5F5F5F5F5F5F5
310
F5E2F5F5F5E2E2EFF5F5F5E2F5F5F5F5F5F5F5F5F5F5F5F5F5F5F5F5E2F5F5F5F5F5F5F5F5F5F5F5F5F5F5F5F5F5F5F5F5F5F5F5F5F5F5F5F5F5F5F5F5F5F5F5F5F5F5F5F5F5F5F5F5F5F5F5F5F5F5F5F5F5F5F5F5F5F5F5F5F5F5F5F5F5F5F5F5F5F5F5F5F5F5F5F5F5F5F5F5F5F5F5F5F5F5F5F5F5F5F5F5F5F5F5F5F5F5
310
F5F5F5F5F5F5F5F5F5F5F5F5F5F5F5F5F5F5F5F5F5F5F5F5F5F5F5F5F5F5F5F5F5F5F5F5F5E2F5F5F5F5F5F5F5F5F5F5F5F5F5F5F5F5E2F5F5F5E2E2EFF5F5F5E2F5F5F5F5F5F5F5F5F5F5F5F5F5F5F5F5E2F5F5F5F5F5F5F5F5F5F5F5F5F5F5F5F5F5F5F5F5F5F5F5F5F5F5F5F5F5F5F5F5F5F5F5F5F5F5F5F5F5F5F5F5F5
310
F5F5F5F5F5F5F5F5F5F5F5F5F5F5F5F5F5F5F5F5F5F5F5F5F5F5F5F5F5F5F5F5F5F5F5F5F5F5F5F5F5F5F5F5F5F5F5F5F5F5F5F5F5F5F5F5F5F5F5F5F5F5F5F5F5F5F5F5F5F5F5F5F5F5F5F5F5F5F5F5F5F5F5F5F5F5F5F5F5F5E2F5F5F5F5F5F5F5F5F5F5F5F5F5F5F5F5E2F5F5F5E2E2EFF5F5F5E2F5F5F5F5F5F5F5F5F5
310
F5F5F5F5F5F5F5E2F5F5F5F5F5F5F5F5F5F5F5F5F5F5F5F5F5F5F5F5F5F5F5F5F5F5F5F5F5F5F5F5F5F5F5F5F5F5F5F5F5F5F5F5F5F5F5F5F5F5F5F5F5F5F5F5F5F5F5F5F5F5F5F5F5F5F5F5F5F5F5F5F5F5F5F5F5F5F5F5F5F5F5F5F5F5F5F5F5F5F5F5F5F5F5F5F5F5F5F5F5F5F5F5F5F5F5F5F5F5F5F5F5F5F5F5F5F5F5
310
F5F5F5F5F5F5F5F5F5F5F5F5F5F5F5F5E2F5F5F5F5F5F5F5F5F5F5F5F5F5F5F5F5E2F5F5F5E2E2EFF5F5F5E2F5F5F5F5F5F5F5F5F5F5F5F5F5F5F5F5E2F5F5F5F5F5F5F5F5F5F5F5F5F5F5F5F5F5F5F5F5F5F5F5F5F5F5F5F5F5F5F5F5F5F5F5F5F5F5F5F5F5F5F5F5F5F5F5F5F5F5F5F5F5F5F5F5F5F5F5F5F5F5F5F5F5F5
310
F5F5F5F5F5F5F5F5F5F5F5F5F5F5F5F5F5F5F5F5F5F5F5F5F5F5F5F5F5F5F5F5F5F5F5F5F5F5F5F5F5F5F5F5F5F5F5F5F5F5F5F5F5F5F5F5F5F5F5F5F5F5F5F5F5F5F5F5F5E2F5F5F5F5F5F5F5F5F5F5F5F5F5F5F5F5E2F5F5F5E2E2EFF5F5F5E2F5F5F5F5F5F5F5F5F5F5F5F5F5F5F5F5E2F5F5F5F5F5F5F5F5F5F5F5F5F5
310
F5F5F5F5F5F5F5F5F5F5F5F5F5F5F5F5F5F5F5F5F5F5F5F5F5F5F5F5F5F5F5F5F5F5F5F5F5F5F5F5F5F5F5F5F5F5F5F5F5F5F5F5F5F5F5F5F5F5F5F5F5F5F5F5F5F5F5F5F5F5F5F5F5F5F5F5F5F5F5F5F5F5F5F5F5F5F5F5F5F5F5F5F5F5F5F5F5F5F5F5F5F5F5F5F5F5F5F5F5F5F5F5F5F5F5F5F5F5F5F5F5F5E2F5F5F5F5
310
F5F5F5F5F5F5F5F5F5F5F5F5E2F5F5F5E2E2EFF5F5F5E2F5F5F5F5F5F5F5F5F5F5F5F5F5F5F5F5E2F5F5F5F5F5F5F5F5F5F5F5F5F5F5F5F5F5F5F5F5F5F5F5F5F5F5F5F5F5F5F5F5F5F5F5F5F5F5F5F5F5F5F5F5F5F5F5F5F5F5F5F5F5F5F5F5F5F5F5F5F5F5F5F5F5F5F5F5F5F5F5F5F5F5F5F5F5F5F5F5F5F5F5F5F5F5F5
310
F5F5F5F5F5F5F5F5F5F5F5F5F5F5F5F5F5F5F5F5F5F5F5F5F5F5F5F5F5F5F5F5F5F5F5F5F5F5F5F5F5F5F5F5F5F5F5F5E2F5F5F5F5F5F5F5F5F5F5F5F5F5F5F5F5E2F5F5F5E2E2EFF5F5F5E2F5F5F5F5F5F5F5F5F5F5F5F5F5F5F5F5E2F5F5F5F5F5F5F5F5F5F5F5F5F5F5F5F5F5F5F5F5F5F5F5F5F5F5F5F5F5F5F5F5F5F5
310
F5F5F5F5F5F5F5F5F5F5F5F5F5F5F5F5F5F5F5F5F5F5F5F5F5F5F5F5F5F5F5F5F5F5F5F5F5F5F5F5F5F5F5F5F5F5F5F5F5F5F5F5F5F5F5F5F5F5F5F5F5F5F5F5F5F5F5F5F5F5F5F5F5F5F5F5F5F5F5F5F5F5F5F5F5F5F5F5F5F5F5F5F5F5F5F5F5F5F5F5F5E2F5F5F5F5F5F5F5F5F5F5F5F5F5F5F5F5E2F5F5F5E2E2EFF5F5
310
F5E2F5F5F5F5F5F5F5F5F5F5F5F5F5F5F5F5E2F5F5F5F5F5F5F5F5F5F5F5F5F5F5F5F5F5F5F5F5F5F5F5F5F5F5F5F5F5F5F5F5F5F5F5F5F5F5F5F5F5F5F5F5F5F5F5F5F5F5F5F5F5F5F5F5F5F5F5F5F5F5F5F5F5F5F5F5F5F5F5F5F5F5F5F5F5F5F5F5F5F5F5F5F5F5F5F5F5F5F5F5F5F5F5F5F5F5F5F5F5F5F5F5F5F5F5F5
310
F5F5F5F5F5F5F5F5F5F5F5F5F5F5F5F5F5F5F5F5F5F5F5F5F5F5F5E2F5F5F5F5F5F5F5F5F5F5F5F5F5F5F5F5E2F5F5F5E2E2EFF5F5F5E2F5F5F5F5F5F5F5F5F5F5F5F5F5F5F5F5E2F5F5F5F5F5F5F5F5F5F5F5F5F5F5F5F5F5F5F5F5F5F5F5F5F5F5F5F5F5F5F5F5F5F5F5F5F5F5F5F5F5F5F5F5F5F5F5F5F5F5F5F5F5F5F5
310
F5F5F5F5F5F5F5F5F5F5F5F5F5F5F5F5F5F5F5F5F5F5F5F5F5F5F5F5F5F5F5F5F5F5F5F5F5F5F5F5F5F5F5F5F5F5F5F5F5F5F5F5F5F5F5F5F5F5F5F5F5F5F5F5F5F5F5F5F5F5F5F5F5F5F5F5F5F5F5F5E2F5F5F5F5F5F5F5F5F5F5F5F5F5F5F5F5E2F5F5F5E2E2EFF5F5F5E2F5F5F5F5F5F5F5F5F5F5F5F5F5F5F5F5E2F5F5
310
F5F5F5F5F5F5F5F5F5F5F5F5F5F5F5F5F5F5F5F5F5F5F5F5F5F5F5F5F5F5F5F5F5F5F5F5F5F5F5F5F5F5F5F5F5F5F5F5F5F5F5F5F5F5F5F5F5F5F5F5F5F5F5F5F5F5F5F5F5F5F5F5F5F5F5F5F5F5F5F5F5F5F5F5F5F5F5F5F5F5F5F5F5F5F5F5F5F5F5F5F5F5F5F5F5F5F5F5F5F5F5F5F5F5F5F5F5F5F5F5F5F5F5F5F5F5F5
310
F5F5F5F5F5F5E2F5F5F5F5F5F5F5F5F5F5F5F5F5F5F5F5E2F5F5F5E2E2EFF5F5F5E2F5F5F5F5F5F5F5F5F5F5F5F5F5F5F5F5E2F5F5F5F5F5F5F5F5F5F5F5F5F5F5F5F5F5F5F5F5F5F5F5F5F5F5F5F5F5F5F5F5F5F5F5F5F5F5F5F5F5F5F5F5F5F5F5F5F5F5F5F5F5F5F5F5F5F5F5F5F5F5F5F5F5F5F5F5F5F5F5F5F5F5F5F5
310
F5F5F5F5F5F5F5F5F5F5F5F5F5F5F5F5F5F5F5F5F5F5F5F5F5F5F5F5F5F5F5F5F5F5F5F5F5F5F5F5F5F5F5F5F5F5F5F5F5F5F5F5F5F5F5F5F5F5F5E2F5F5F5F5F5F5F5F5F5F5F5F5F5F5F5F5E2F5F5F5E2E2EFF5F5F5F5F5F5F5F5F5F5F5F5F5F5F5F5F5F5F5F5E2F5F5F5F5F5F5F5F5F5F5F5F5F5F5F5F5F5F5F5F5F5F5F5
310
F5F5F5F5F5F5F5F5F5F5F5F5F5F5F5F5F5F5F5F5F5F5F5F5F5F5F5F5F5F5F5F5F5F5F5F5F5F5F5F5F5F5F5F5F5F5F5F5F5F5F5F5F5F5F5F5F5F5F5F5F5F5F5F5F5F5F5F5F5F5F5F5F5F5F5F5F5F5F5F5F5F5F5F5F5F5F5F5F5F5F5F5F5F5F5F5F5F5F5F5F5F5F5F5F5F5F5F5F5F5F5F5E2F5F5F5F5F5F5F5F5F5F5F5F5F5F5
310
F5F5F5F5F5F5E2E2EFF5F5F5F5F5F5F5F5F5F5F5F5F5F5F5F5F5F5F5F5E2F5F5F5F5F5F5F5F5F5F5F5F5F5F5F5F5F5F5F5F5F5F5F5F5F5F5F5F5F5F5F5F5F5F5F5F5F5F5F5F5F5F5F5F5F5F5F5F5F5F5F5F5F5F5F5F5F5F5F5F5F5F5F5F5F5F5F5F5F5F5F5F5F5F5F5F5F5F5F5F5F5F5F5F5F5F5F5F5F5F5F5F5F5F5F5F5F5
310
F5F5F5F5F5F5F5F5F5F5F5F5F5F5F5F5F5F5F5F5F5F5F5F5F5F5F5F5F5F5F5F5F5F5F5F5F5F5E2F5F5F5F5F5F5F5F5F5F5F5F5F5F5F5F5F5F5F5F5E2E2EFF5F5F5F5F5F5F5F5F5F5F5F5F5F5F5F5F5F5F5F5E2F5F5F5F5F5F5F5F5F5F5F5F5F5F5F5F5F5F5F5F5F5F5F5F5F5F5F5F5F5F5F5F5F5F5F5F5F5F5F5F5F5F5F5F5
310
F5F5F5F5F5F5F5F5F5F5F5F5F5F5F5F5F5F5F5F5F5F5F5F5F5F5F5F5F5F5F5F5F5F5F5F5F5F5F5F5F5F5F5F5F5F5F5F5F5F5F5F5F5F5F5F5F5F5F5F5F5F5F5F5F5F5F5F5F5F5F5F5F5F5F5F5F5F5F5F5F5F5F5F5F5F5F5F5F5F5F5E2F5F5F5F5F5F5F5F5F5F5F5F5F5F5F5F5F5F5F5F5E2E2EFF5F5F5F5F5F5F5F5F5F5F5F5
310
F5F5F5F5F5F5F5F5E2F5F5F5F5F5F5F5F5F5F5F5F5F5F5F5F5F5F5F5F5F5F5F5F5F5F5F5F5F5F5F5F5F5F5F5F5F5F5F5F5F5F5F5F5F5F5F5F5F5F5F5F5F5F5F5F5F5F5F5F5F5F5F5F5F5F5F5F5F5F5F5F5F5F5F5F5F5F5F5F5F5F5F5F5F5F5F5F5F5F5F5F5F5F5F5F5F5F5F5F5F5F5F5F5F5F5F5F5F5F5F5F5F5F5F5F5F5F5
310
F5F5F5F5F5F5F5F5F5F5F5F5F5F5F5F5F5E2F5F5F5F5F5F5F5F5F5F5F5F5F5F5F5F5F5F5F5F5E2E2EFF5F5F5F5F5F5F5F5F5F5F5F5F5F5F5F5F5F5F5F5E2F5F5F5F5F5F5F5F5F5F5F5F5F5F5F5F5F5F5F5F5F5F5F5F5F5F5F5F5F5F5F5F5F5F5F5F5F5F5F5F5F5F5F5F5F5F5F5F5F5F5F5F5F5F5F5F5F5F5F5F5F5F5F5F5F5
310
F5F5F5F5F5F5F5F5F5F5F5F5F5F5F5F5F5F5F5F5F5F5F5F5F5F5F5F5F5F5F5F5F5F5F5F5F5F5F5F5F5F5F5F5F5F5F5F5F5F5F5F5F5F5F5F5F5F5F5F5F5F5F5F5F5F5F5F5F5F5E2F5F5F5F5F5F5F5F5F5F5F5F5F5F5F5F5F5F5F5F5E2E2EFF5F5F5F5F5F5F5F5F5F5F5F5F5F5F5F5F5F5F5F5E2F5F5F5F5F5F5F5F5F5F5F5F5
310
F5F5F5F5F5F5F5F5F5F5F5F5F5F5F5F5F5F5F5F5F5F5F5F5F5F5F5F5F5F5F5F5F5F5F5F5F5F5F5F5F5F5F5F5F5F5F5F5F5F5F5F5F5F5F5F5F5F5F5F5F5F5F5F5F5F5F5F5F5F5F5F5F5F5F5F5F5F5F5F5F5F5F5F5F5F5F5F5F5F5F5F5F5F5F5F5F5F5F5F5F5F5F5F5F5F5F5F5F5F5F5F5F5F5F5F5F5F5F5F5F5F5F5E2F5F5F5
310
F5F5F5F5F5F5F5F5F5F5F5F5F5F5F5F5F5E2E2EFF5F5F5F5F5F5F5F5F5F5F5F5F5F5F5F5F5F5F5F5E2F5F5F5F5F5F5F5F5F5F5F5F5F5F5F5F5F5F5F5F5F5F5F5F5F5F5F5F5F5F5F5F5F5F5F5F5F5F5F5F5F5F5F5F5F5F5F5F5F5F5F5F5F5F5F5F5F5F5F5F5F5F5F5F5F5F5F5F5F5F5F5F5F5F5F5F5F5F5F5F5F5F5F5F5F5F5
310
F5F5F5F5F5F5F5F5F5F5F5F5F5F5F5F5F5F5F5F5F5F5F5F5F5F5F5F5F5F5F5F5F5F5F5F5F5F5F5F5F5F5F5F5F5F5F5F5F5E2F5F5F5F5F5F5F5F5F5F5F5F5F5F5F5F5F5F5F5F5E2E2EFF5F5F5F5F5F5F5F5F5F5F5F5F5F5F5F5F5F5F5F5E2F5F5F5F5F5F5F5F5F5F5F5F5F5F5F5F5F5F5F5F5F5F5F5F5F5F5F5F5F5F5F5F5F5
310
F5F5F5F5F5F5F5F5F5F5F5F5F5F5F5F5F5F5F5F5F5F5F5F5F5F5F5F5F5F5F5F5F5F5F5F5F5F5F5F5F5F5F5F5F5F5F5F5F5F5F5F5F5F5F5F5F5F5F5F5F5F5F5F5F5F5F5F5F5F5F5F5F5F5F5F5F5F5F5F5F5F5F5F5F5F5F5F5F5F5F5F5F5F5F5F5F5F5F5F5F5F5E2F5F5F5F5F5F5F5F5F5F5F5F5F5F5F5F5F5F5F5F5E2E2EFF5
310
F5F5F5F5F5F5F5F5F5F5F5F5F5F5F5F5F5F5F5E2F5F5F5F5F5F5F5F5F5F5F5F5F5F5F5F5F5F5F5F5F5F5F5F5F5F5F5F5F5F5F5F5F5F5F5F5F5F5F5F5F5F5F5F5F5F5F5F5F5F5F5F5F5F5F5F5F5F5F5F5F5F5F5F5F5F5F5F5F5F5F5F5F5F5F5F5F5F5F5F5F5F5F5F5F5F5F5F5F5F5F5F5F5F5F5F5F5F5F5F5F5F5F5F5F5F5F5
310
F5F5F5F5F5F5F5F5F5F5F5F5F5F5F5F5F5F5F5F5F5F5F5F5F5F5F5F5E2F5F5F5F5F5F5F5F5F5F5F5F5F5F5F5F5F5F5F5F5E2E2EFF5F5F5E2F5F5F5F5F5F5F5F5F5F5F5F5F5F5F5F5E2F5F5F5F5F5F5F5F5F5F5F5F5F5F5F5F5F5F5F5F5F5F5F5F5F5F5F5F5F5F5F5F5F5F5F5F5F5F5F5F5F5F5F5F5F5F5F5F5F5F5F5F5F5F5
310
F5F5F5F5F5F5F5F5F5F5F5F5F5F5F5F5F5F5F5F5F5F5F5F5F5F5F5F5F5F5F5F5F5F5F5F5F5F5F5F5F5F5F5F5F5F5F5F5F5F5F5F5F5F5F5F5F5F5F5F5F5F5F5F5F5F5F5F5F5F5F5F5F5F5F5F5F5F5F5F5F5E2F5F5F5F5F5F5F5F5F5F5F5F5F5F5F5F5E2F5F5F5E2E2EFF5F5F5E2F5F5F5F5F5F5F5F5F5F5F5F5F5F5F5F5E2F5
310
F5F5F5F5F5F5F5F5F5F5F5F5F5F5F5F5F5F5F5F5F5F5F5F5F5F5F5F5F5F5F5F5F5F5F5F5F5F5F5F5F5F5F5F5F5F5F5F5F5F5F5F5F5F5F5F5F5F5F5F5F5F5F5F5F5F5F5F5F5F5F5F5F5F5F5F5F5F5F5F5F5F5F5F5F5F5F5F5F5F5F5F5F5F5F5F5F5F5F5F5F5F5F5F5F5F5F5F5F5F5F5F5F5F5F5F5F5F5F5F5F5F5F5F5F5F5F5
310
F5F5F5F5F5F5F5E2F5F5F5F5F5F5F5F5F5F5F5F5F5F5F5F5E2F5F5F5E2E2EFF5F5F5E2F5F5F5F5F5F5F5F5F5F5F5F5F5F5F5F5E2F5F5F5F5F5F5F5F5F5F5F5F5F5F5F5F5F5F5F5F5F5F5F5F5F5F5F5F5F5F5F5F5F5F5F5F5F5F5F5F5F5F5F5F5F5F5F5F5F5F5F5F5F5F5F5F5F5F5F5F5F5F5F5F5F5F5F5F5F5F5F5F5F5F5F5
310
F5F5F5F5F5F5F5F5F5F5F5F5F5F5F5F5F5F5F5F5F5F5F5F5F5F5F5F5F5F5F5F5F5F5F5F5F5F5F5F5F5F5F5F5F5F5F5F5F5F5F5F5F5F5F5F5F5F5F5F5E2F5F5F5F5F5F5F5F5F5F5F5F5F5F5F5F5E2F5F5F5E2E2EFF5F5F5E2F5F5F5F5F5F5F5F5F5F5F5F5F5F5F5F5E2F5F5F5F5F5F5F5F5F5F5F5F5F5F5F5F5F5F5F5F5F5F5
310
F5F5F5F5F5F5F5F5F5F5F5F5F5F5F5F5F5F5F5F5F5F5F5F5F5F5F5F5F5F5F5F5F5F5F5F5F5F5F5F5F5F5F5F5F5F5F5F5F5F5F5F5F5F5F5F5F5F5F5F5F5F5F5F5F5F5F5F5F5F5F5F5F5F5F5F5F5F5F5F5F5F5F5F5F5F5F5F5F5F5F5F5F5F5F5F5F5F5F5F5F5F5F5F5F5F5F5F5F5F5F5F5F5E2F5F5F5F5F5F5F5F5F5F5F5F5F5
310
F5F5F5E2F5F5F5E2E2EFF5F5F5E2F5F5F5F5F5F5F5F5F5F5F5F5F5F5F5F5E2F5F5F5F5F5F5F5F5F5F5F5F5F5F5F5F5F5F5F5F5F5F5F5F5F5F5F5F5F5F5F5F5F5F5F5F5F5F5F5F5F5F5F5F5F5F5F5F5F5F5F5F5F5F5F5F5F5F5F5F5F5F5F5F5F5F5F5F5F5F5F5F5F5F5F5F5F5F5F5F5F5F5F5F5F5F5F5F5F5F5F5F5F5F5F5F5
310
F5F5F5F5F5F5F5F5F5F5F5F5F5F5F5F5F5F5F5F5F5F5F5F5F5F5F5F5F5F5F5F5F5F5F5F5F5F5F5E2F5F5F5F5F5F5F5F5F5F5F5F5F5F5F5F5E2F5F5F5E2E2EFF5F5F5E2F5F5F5F5F5F5F5F5F5F5F5F5F5F5F5F5E2F5F5F5F5F5F5F5F5F5F5F5F5F5F5F5F5F5F5F5F5F5F5F5F5F5F5F5F5F5F5F5F5F5F5F5F5F5F5F5F5F5F5F5
310
F5F5F5F5F5F5F5F5F5F5F5F5F5F5F5F5F5F5F5F5F5F5F5F5F5F5F5F5F5F5F5F5F5F5F5F5F5F5F5F5F5F5F5F5F5F5F5F5F5F5F5F5F5F5F5F5F5F5F5F5F5F5F5F5F5F5F5F5F5F5F5F5F5F5F5F5F5F5F5F5F5F5F5F5F5F5F5F5F5F5F5F5E2F5F5F5F5F5F5F5F5F5F5F5F5F5F5F5F5E2F5F5F5E2E2EFF5F5F5E2F5F5F5F5F5F5F5
310
F5F5F5F5F5F5F5F5F5E2F5F5F5F5F5F5F5F5F5F5F5F5F5F5F5F5F5F5F5F5F5F5F5F5F5F5F5F5F5F5F5F5F5F5F5F5F5F5F5F5F5F5F5F5F5F5F5F5F5F5F5F5F5F5F5F5F5F5F5F5F5F5F5F5F5F5F5F5F5F5F5F5F5F5F5F5F5F5F5F5F5F5F5F5F5F5F5F5F5F5F5F5F5F5F5F5F5F5F5F5F5F5F5F5F5F5F5F5F5F5F5F5F5F5F5F5F5
310
F5F5F5F5F5F5F5F5F5F5F5F5F5F5F5F5F5F5E2F5F5F5F5F5F5F5F5F5F5F5F5F5F5F5F5E2F5F5F5E2E2EFF5F5F5E2F5F5F5F5F5F5F5F5F5F5F5F5F5F5F5F5E2F5F5F5F5F5F5F5F5F5F5F5F5F5F5F5F5F5F5F5F5F5F5F5F5F5F5F5F5F5F5F5F5F5F5F5F5F5F5F5F5F5F5F5F5F5F5F5F5F5F5F5F5F5F5F5F5F5F5F5F5F5F5F5F5
310
F5F5F5F5F5F5F5F5F5F5F5F5F5F5F5F5F5F5F5F5F5F5F5F5F5F5F5F5F5F5F5F5F5F5F5F5F5F5F5F5F5F5F5F5F5F5F5F5F5F5F5F5F5F5F5F5F5F5F5F5F5F5F5F5F5F5F5F5F5F5F5E2F5F5F5F5F5F5F5F5F5F5F5F5F5F5F5F5E2F5F5F5E2E2EFF5F5F5E2F5F5F5F5F5F5F5F5F5F5F5F5F5F5F5F5E2F5F5F5F5F5F5F5F5F5F5F5
310
F5F5F5F5F5F5F5F5F5F5F5F5F5F5F5F5F5F5F5F5F5F5F5F5F5F5F5F5F5F5F5F5F5F5F5F5F5F5F5F5F5F5F5F5F5F5F5F5F5F5F5F5F5F5F5F5F5F5F5F5F5F5F5F5F5F5F5F5F5F5F5F5F5F5F5F5F5F5F5F5F5F5F5F5F5F5F5F5F5F5F5F5F5F5F5F5F5F5F5F5F5F5F5F5F5F5F5F5F5F5F5F5F5F5F5F5F5F5F5F5F5F5F5F5E2F5F5
310
F5F5F5F5F5F5F5F5F5F5F5F5F5F5E2F5F5F5E2E2EFF5F5F5E2F5F5F5F5F5F5F5F5F5F5F5F5F5F5F5F5E2F5F5F5F5F5F5F5F5F5F5F5F5F5F5F5F5F5F5F5F5F5F5F5F5F5F5F5F5F5F5F5F5F5F5F5F5F5F5F5F5F5F5F5F5F5F5F5F5F5F5F5F5F5F5F5F5F5F5F5F5F5F5F5F5F5F5F5F5F5F5F5F5F5F5F5F5F5F5F5F5F5F5F5F5F5
310
F5F5F5F5F5F5F5F5F5F5F5F5F5F5F5F5F5F5F5F5F5F5F5F5F5F5F5F5F5F5F5F5F5F5F5F5F5F5F5F5F5F5F5F5F5F5F5F5F5F5E2F5F5F5F5F5F5F5F5F5F5F5F5F5F5F5F5E2F5F5F5E2E2EFF5F5F5E2F5F5F5F5F5F5F5F5F5F5F5F5F5F5F5F5E2F5F5F5F5F5F5F5F5F5F5F5F5F5F5F5F5F5F5F5F5F5F5F5F5F5F5F5F5F5F5F5F5
310
F5F5F5F5F5F5F5F5F5F5F5F5F5F5F5F5F5F5F5F5F5F5F5F5F5F5F5F5F5F5F5F5F5F5F5F5F5F5F5F5F5F5F5F5F5F5F5F5F5F5F5F5F5F5F5F5F5F5F5F5F5F5F5F5F5F5F5F5F5F5F5F5F5F5F5F5F5F5F5F5F5F5F5F5F5F5F5F5F5F5F5F5F5F5F5F5F5F5F5F5F5F5F5E2F5F5F5F5F5F5F5F5F5F5F5F5F5F5F5F5E2F5F5F5E2E2EF
310
F5F5F5E2F5F5F5F5F5F5F5F5F5F5F5F5F5F5F5F5E2F5F5F5F5F5F5F5F5F5F5F5F5F5F5F5F5F5F5F5F5F5F5F5F5F5F5F5F5F5F5F5F5F5F5F5F5F5F5F5F5F5F5F5F5F5F5F5F5F5F5F5F5F5F5F5F5F5F5F5F5F5F5F5F5F5F5F5F5F5F5F5F5F5F5F5F5F5F5F5F5F5F5F5F5F5F5F5F5F5F5F5F5F5F5F5F5F5F5F5F5F5F5F5F5F5F5
310
F5F5F5F5F5F5F5F5F5F5F5F5F5F5F5F5F5F5F5F5F5F5F5F5F5F5F5F5F5E2F5F5F5F5F5F5F5F5F5F5F5F5F5F5F5F5E2F5F5F5E2E2EFF5F5F5E2F5F5F5F5F5F5F5F5F5F5F5F5F5F5F5F5E2F5F5F5F5F5F5F5F5F5F5F5F5F5F5F5F5F5F5F5F5F5F5F5F5F5F5F5F5F5F5F5F5F5F5F5F5F5F5F5F5F5F5F5F5F5F5F5F5F5F5F5F5F5
310
F5F5F5F5F5F5F5F5F5F5F5F5F5F5F5F5F5F5F5F5F5F5F5F5F5F5F5F5F5F5F5F5F5F5F5F5F5F5F5F5F5F5F5F5F5F5F5F5F5F5F5F5F5F5F5F5F5F5F5F5F5F5F5F5F5F5F5F5F5F5F5F5F5F5F5F5F5F5F5F5F5F5E2F5F5F5F5F5F5F5F5F5F5F5F5F5F5F5F5E2F5F5F5E2E2EFF5F5F5E2F5F5F5F5F5F5F5F5F5F5F5F5F5F5F5F5E2
310
F5F5F5F5F5F5F5F5F5F5F5F5F5F5F5F5F5F5F5F5F5F5F5F5F5F5F5F5F5F5F5F5F5F5F5F5F5F5F5F5F5F5F5F5F5F5F5F5F5F5F5F5F5F5F5F5F5F5F5F5F5F5F5F5F5F5F5F5F5F5F5F5F5F5F5F5F5F5F5F5F5F5F5F5F5F5F5F5F5F5F5F5F5F5F5F5F5F5F5F5F5F5F5F5F5F5F5F5F5F5F5F5F5F5F5F5F5F5F5F5F5F5F5F5F5F5F5
310
F5F5F5F5F5F5F5F5E2F5F5F5F5F5F5F5F5F5F5F5F5F5F5F5F5E2F5F5F5E2E2EFF5F5F5E2F5F5F5F5F5F5F5F5F5F5F5F5F5F5F5F5E2F5F5F5F5F5F5F5F5F5F5F5F5F5F5F5F5F5F5F5F5F5F5F5F5F5F5F5F5F5F5F5F5F5F5F5F5F5F5F5F5F5F5F5F5F5F5F5F5F5F5F5F5F5F5F5F5F5F5F5F5F5F5F5F5F5F5F5F5F5F5F5F5F5F5
310
F5F5F5F5F5F5F5F5F5F5F5F5F5F5F5F5F5F5F5F5F5F5F5F5F5F5F5F5F5F5F5F5F5F5F5F5F5F5F5F5F5F5F5F5F5F5F5F5F5F5F5F5F5F5F5F5F5F5F5F5F5E2F5F5F5F5F5F5F5F5F5F5F5F5F5F5F5F5E2F5F5F5E2E2EFF5F5F5E2F5F5F5F5F5F5F5F5F5F5F5F5F5F5F5F5E2F5F5F5F5F5F5F5F5F5F5F5F5F5F5F5F5F5F5F5F5F5
310
F5F5F5F5F5F5F5F5F5F5F5F5F5F5F5F5F5F5F5F5F5F5F5F5F5F5F5F5F5F5F5F5F5F5F5F5F5F5F5F5F5F5F5F5F5F5F5F5F5F5F5F5F5F5F5F5F5F5F5F5F5F5F5F5F5F5F5F5F5F5F5F5F5F5F5F5F5F5F5F5F5F5F5F5F5F5F5F5F5F5F5F5F5F5F5F5F5F5F5F5F5F5F5F5F5F5F5F5F5F5F5F5F5F5E2F5F5F5F5F5F5F5F5F5F5F5F5
310
F5F5F5F5E2F5F5F5E2E2EFF5F5F5E2F5F5F5F5F5F5F5F5F5F5F5F5F5F5F5F5E2F5F5F5F5F5F5F5F5F5F5F5F5F5F5F5F5F5F5F5F5F5F5F5F5F5F5F5F5F5F5F5F5F5F5F5F5F5F5F5F5F5F5F5F5F5F5F5F5F5F5F5F5F5F5F5F5F5F5F5F5F5F5F5F5F5F5F5F5F5F5F5F5F5F5F5F5F5F5F5F5F5F5F5F5F5F5F5F5F5F5F5F5F5F5F5
310
F5F5F5F5F5F5F5F5F5F5F5F5F5F5F5F5F5F5F5F5F5F5F5F5F5F5F5F5F5F5F5F5F5F5F5F5F5F5F5F5E2F5F5F5F5F5F5F5F5F5F5F5F5F5F5F5F5E2F5F5F5E2E2EFF5F5F5F5F5F5F5F5F5F5F5F5F5F5F5F5F5F5F5F5E2F5F5F5F5F5F5F5F5F5F5F5F5F5F5F5F5F5F5F5F5F5F5F5F5F5F5F5F5F5F5F5F5F5F5F5F5F5F5F5F5F5F5
310
F5F5F5F5F5F5F5F5F5F5F5F5F5F5F5F5F5F5F5F5F5F5F5F5F5F5F5F5F5F5F5F5F5F5F5F5F5F5F5F5F5F5F5F5F5F5F5F5F5F5F5F5F5F5F5F5F5F5F5F5F5F5F5F5F5F5F5F5F5F5F5F5F5F5F5F5F5F5F5F5F5F5F5F5F5F5F5F5F5F5F5F5F5E2F5F5F5F5F5F5F5F5F5F5F5F5F5F5F5F5F5F5F5F5E2E2EFF5F5F5F5F5F5F5F5F5F5
310
F5F5F5F5F5F5F5F5F5F5E2F5F5F5F5F5F5F5F5F5F5F5F5F5F5F5F5F5F5F5F5F5F5F5F5F5F5F5F5F5F5F5F5F5F5F5F5F5F5F5F5F5F5F5F5F5F5F5F5F5F5F5F5F5F5F5F5F5F5F5F5F5F5F5F5F5F5F5F5F5F5F5F5F5F5F5F5F5F5F5F5F5F5F5F5F5F5F5F5F5F5F5F5F5F5F5F5F5F5F5F5F5F5F5F5F5F5F5F5F5F5F5F5F5F5F5F5
310
F5F5F5F5F5F5F5F5F5F5F5F5F5F5F5F5F5F5F5E2F5F5F5F5F5F5F5F5F5F5F5F5F5F5F5F5F5F5F5F5E2E2EFF5F5F5F5F5F5F5F5F5F5F5F5F5F5F5F5F5F5F5F5E2F5F5F5F5F5F5F5F5F5F5F5F5F5F5F5F5F5F5F5F5F5F5F5F5F5F5F5F5F5F5F5F5F5F5F5F5F5F5F5F5F5F5F5F5F5F5F5F5F5F5F5F5F5F5F5F5F5F5F5F5F5F5F5
310
F5F5F5F5F5F5F5F5F5F5F5F5F5F5F5F5F5F5F5F5F5F5F5F5F5F5F5F5F5F5F5F5F5F5F5F5F5F5F5F5F5F5F5F5F5F5F5F5F5F5F5F5F5F5F5F5F5F5F5F5F5F5F5F5F5F5F5F5F5F5F5F5E2F5F5F5F5F5F5F5F5F5F5F5F5F5F5F5F5F5F5F5F5E2E2EFF5F5F5F5F5F5F5F5F5F5F5F5F5F5F5F5F5F5F5F5E2F5F5F5F5F5F5F5F5F5F5
310
F5F5F5F5F5F5F5F5F5F5F5F5F5F5F5F5F5F5F5F5F5F5F5F5F5F5F5F5F5F5F5F5F5F5F5F5F5F5F5F5F5F5F5F5F5F5F5F5F5F5F5F5F5F5F5F5F5F5F5F5F5F5F5F5F5F5F5F5F5F5F5F5F5F5F5F5F5F5F5F5F5F5F5F5F5F5F5F5F5F5F5F5F5F5F5F5F5F5F5F5F5F5F5F5F5F5F5F5F5F5F5F5F5F5F5F5F5F5F5F5F5F5F5F5F5E2F5
310
F5F5F5F5F5F5F5F5F5F5F5F5F5F5F5F5F5F5F5E2E2EFF5F5F5F5F5F5F5F5F5F5F5F5F5F5F5F5F5F5F5F5E2F5F5F5F5F5F5F5F5F5F5F5F5F5F5F5F5F5F5F5F5F5F5F5F5F5F5F5F5F5F5F5F5F5F5F5F5F5F5F5F5F5F5F5F5F5F5F5F5F5F5F5F5F5F5F5F5F5F5F5F5F5F5F5F5F5F5F5F5F5F5F5F5F5F5F5F5F5F5F5F5F5F5F5F5
310
F5F5F5F5F5F5F5F5F5F5F5F5F5F5F5F5F5F5F5F5F5F5F5F5F5F5F5F5F5F5F5F5F5F5F5F5F5F5F5F5F5F5F5F5F5F5F5F5F5F5F5E2F5F5F5F5F5F5F5F5F5F5F5F5F5F5F5F5F5F5F5F5E2E2EFF5F5F5F5F5F5F5F5F5F5F5F5F5F5F5F5F5F5F5F5E2F5F5F5F5F5F5F5F5F5F5F5F5F5F5F5F5F5F5F5F5F5F5F5F5F5F5F5F5F5F5F5
310
F5F5F5F5F5F5F5F5F5F5F5F5F5F5F5F5F5F5F5F5F5F5F5F5F5F5F5F5F5F5F5F5F5F5F5F5F5F5F5F5F5F5F5F5F5F5F5F5F5F5F5F5F5F5F5F5F5F5F5F5F5F5F5F5F5F5F5F5F5F5F5F5F5F5F5F5F5F5F5F5F5F5F5F5F5F5F5F5F5F5F5F5F5F5F5F5F5F5F5F5F5F5F5F5E2F5F5F5F5F5F5F5F5F5F5F5F5F5F5F5F5F5F5F5F5E2E2
310
EFF5F5F5F5F5F5F5F5F5F5F5F5F5F5F5F5F5F5F5F5E2F5F5F5F5F5F5F5F5F5F5F5F5F5F5F5F5F5F5F5F5F5F5F5F5F5F5F5F5F5F5F5F5F5F5F5F5F5F5F5F5F5F5F5F5F5F5F5F5F5F5F5F5F5F5F5F5F5F5F5F5F5F5F5F5F5F5F5F5F5F5F5F5F5F5F5F5F5F5F5F5F5F5F5F5F5F5F5F5F5F5F5F5F5F5F5F5F5F5F5F5F5F5F5F5F5
310
F5F5F5F5F5F5F5F5F5F5F5F5F5F5F5F5F5F5F5F5F5F5F5F5F5F5F5F5F5F5E2F5F5F5F5F5F5F5F5F5F5F5F5F5F5F5F5F5F5F5F5E2E2EFF5F5F5F5F5F5F5F5F5F5F5F5F5F5F5F5F5F5F5F5E2F5F5F5F5F5F5F5F5F5F5F5F5F5F5F5F5F5F5F5F5F5F5F5F5F5F5F5F5F5F5F5F5F5F5F5F5F5F5F5F5F5F5F5F5F5F5F5F5F5F5F5F5
310
F5F5F5F5F5F5F5F5F5F5F5F5F5F5F5F5F5F5F5F5F5F5F5F5F5F5F5F5F5F5F5F5F5F5F5F5F5F5F5F5F5F5F5F5F5F5F5F5F5F5F5F5F5F5F5F5F5F5F5F5F5F5F5F5F5F5F5F5F5F5F5F5F5F5F5F5F5F5F5F5F5F5F5E2F5F5F5F5F5F5F5F5F5F5F5F5F5F5F5F5F5F5F5F5E2E2EFF5F5F5F5F5F5F5F5F5F5F5F5F5F5F5F5F5F5F5F5
310
E2F5F5F5F5F5F5F5F5F5F5F5F5F5F5F5F5F5F5F5F5F5F5F5F5F5F5F5F5F5F5F5F5F5F5F5F5F5F5F5F5F5F5F5F5F5F5F5F5F5F5F5F5F5F5F5F5F5F5F5F5F5F5F5F5F5F5F5F5F5F5F5F5F5F5F5F5F5F5F5F5F5F5F5F5F5F5F5F5F5F5F5F5F5F5F5F5F5F5F5F5F5F5F5F5F5F5F5F5F5F5F5F5F5F5F5F5F5F5F5F5F5F5F5F5F5F5
310
F5F5F5F5F5F5F5F5F5E2F5F5F5F5F5F5F5F5F5F5F5F5F5F5F5F5F5F5F5F5E2E2EFF5F5F5E2F5F5F5F5F5F5F5F5F5F5F5F5F5F5F5F5E2F5F5F5F5F5F5F5F5F5F5F5F5F5F5F5F5F5F5F5F5F5F5F5F5F5F5F5F5F5F5F5F5F5F5F5F5F5F5F5F5F5F5F5F5F5F5F5F5F5F5F5F5F5F5F5F5F5F5F5F5F5F5F5F5F5F5F5F5F5F5F5F5F5
310
F5F5F5F5F5F5F5F5F5F5F5F5F5F5F5F5F5F5F5F5F5F5F5F5F5F5F5F5F5F5F5F5F5F5F5F5F5F5F5F5F5F5F5F5F5F5F5F5F5F5F5F5F5F5F5F5F5F5F5F5F5F5E2F5F5F5F5F5F5F5F5F5F5F5F5F5F5F5F5E2F5F5F5E2E2EFF5F5F5E2F5F5F5F5F5F5F5F5F5F5F5F5F5F5F5F5E2F5F5F5F5F5F5F5F5F5F5F5F5F5F5F5F5F5F5F5F5
310
F5F5F5F5F5F5F5F5F5F5F5F5F5F5F5F5F5F5F5F5F5F5F5F5F5F5F5F5F5F5F5F5F5F5F5F5F5F5F5F5F5F5F5F5F5F5F5F5F5F5F5F5F5F5F5F5F5F5F5F5F5F5F5F5F5F5F5F5F5F5F5F5F5F5F5F5F5F5F5F5F5F5F5F5F5F5F5F5F5F5F5F5F5F5F5F5F5F5F5F5F5F5F5F5F5F5F5F5F5F5F5F5F5F5F5E2F5F5F5F5F5F5F5F5F5F5F5
310
F5F5F5F5F5E2F5F5F5E2E2EFF5F5F5E2F5F5F5F5F5F5F5F5F5F5F5F5F5F5F5F5E2F5F5F5F5F5F5F5F5F5F5F5F5F5F5F5F5F5F5F5F5F5F5F5F5F5F5F5F5F5F5F5F5F5F5F5F5F5F5F5F5F5F5F5F5F5F5F5F5F5F5F5F5F5F5F5F5F5F5F5F5F5F5F5F5F5F5F5F5F5F5F5F5F5F5F5F5F5F5F5F5F5F5F5F5F5F5F5F5F5F5F5F5F5F5
310
F5F5F5F5F5F5F5F5F5F5F5F5F5F5F5F5F5F5F5F5F5F5F5F5F5F5F5F5F5F5F5F5F5F5F5F5F5F5F5F5F5E2F5F5F5F5F5F5F5F5F5F5F5F5F5F5F5F5E2F5F5F5E2E2EFF5F5F5E2F5F5F5F5F5F5F5F5F5F5F5F5F5F5F5F5E2F5F5F5F5F5F5F5F5F5F5F5F5F5F5F5F5F5F5F5F5F5F5F5F5F5F5F5F5F5F5F5F5F5F5F5F5F5F5F5F5F5
310
F5F5F5F5F5F5F5F5F5F5F5F5F5F5F5F5F5F5F5F5F5F5F5F5F5F5F5F5F5F5F5F5F5F5F5F5F5F5F5F5F5F5F5F5F5F5F5F5F5F5F5F5F5F5F5F5F5F5F5F5F5F5F5F5F5F5F5F5F5F5F5F5F5F5F5F5F5F5F5F5F5F5F5F5F5F5F5F5F5F5F5F5F5F5E2F5F5F5F5F5F5F5F5F5F5F5F5F5F5F5F5E2F5F5F5E2E2EFF5F5F5E2F5F5F5F5F5
310
F5F5F5F5F5F5F5F5F5F5F5E2F5F5F5F5F5F5F5F5F5F5F5F5F5F5F5F5F5F5F5F5F5F5F5F5F5F5F5F5F5F5F5F5F5F5F5F5F5F5F5F5F5F5F5F5F5F5F5F5F5F5F5F5F5F5F5F5F5F5F5F5F5F5F5F5F5F5F5F5F5F5F5F5F5F5F5F5F5F5F5F5F5F5F5F5F5F5F5F5F5F5F5F5F5F5F5F5F5F5F5F5F5F5F5F5F5F5F5F5F5F5F5F5F5F5F5
310
F5F5F5F5F5F5F5F5F5F5F5F5F5F5F5F5F5F5F5F5E2F5F5F5F5F5F5F5F5F5F5F5F5F5F5F5F5E2F5F5F5E2E2EFF5F5F5E2F5F5F5F5F5F5F5F5F5F5F5F5F5F5F5F5E2F5F5F5F5F5F5F5F5F5F5F5F5F5F5F5F5F5F5F5F5F5F5F5F5F5F5F5F5F5F5F5F5F5F5F5F5F5F5F5F5F5F5F5F5F5F5F5F5F5F5F5F5F5F5F5F5F5F5F5F5F5F5
310
F5F5F5F5F5F5F5F5F5F5F5F5F5F5F5F5F5F5F5F5F5F5F5F5F5F5F5F5F5F5F5F5F5F5F5F5F5F5F5F5F5F5F5F5F5F5F5F5F5F5F5F5F5F5F5F5F5F5F5F5F5F5F5F5F5F5F5F5F5F5F5F5F5E2F5F5F5F5F5F5F5F5F5F5F5F5F5F5F5F5E2F5F5F5E2E2EFF5F5F5E2F5F5F5F5F5F5F5F5F5F5F5F5F5F5F5F5E2F5F5F5F5F5F5F5F5F5
310
F5F5F5F5F5F5F5F5F5F5F5F5F5F5F5F5F5F5F5F5F5F5F5F5F5F5F5F5F5F5F5F5F5F5F5F5F5F5F5F5F5F5F5F5F5F5F5F5F5F5F5F5F5F5F5F5F5F5F5F5F5F5F5F5F5F5F5F5F5F5F5F5F5F5F5F5F5F5F5F5F5F5F5F5F5F5F5F5F5F5F5F5F5F5F5F5F5F5F5F5F5F5F5F5F5F5F5F5F5F5F5F5F5F5F5F5F5F5F5F5F5F5F5F5F5F5E2
310
F5F5F5F5F5F5F5F5F5F5F5F5F5F5F5F5E2F5F5F5E2E2EFF5F5F5E2F5F5F5F5F5F5F5F5F5F5F5F5F5F5F5F5E2F5F5F5F5F5F5F5F5F5F5F5F5F5F5F5F5F5F5F5F5F5F5F5F5F5F5F5F5F5F5F5F5F5F5F5F5F5F5F5F5F5F5F5F5F5F5F5F5F5F5F5F5F5F5F5F5F5F5F5F5F5F5F5F5F5F5F5F5F5F5F5F5F5F5F5F5F5F5F5F5F5F5F5
310
F5F5F5F5F5F5F5F5F5F5F5F5F5F5F5F5F5F5F5F5F5F5F5F5F5F5F5F5F5F5F5F5F5F5F5F5F5F5F5F5F5F5F5F5F5F5F5F5F5F5F5F5E2F5F5F5F5F5F5F5F5F5F5F5F5F5F5F5F5E2F5F5F5E2E2EFF5F5F5E2F5F5F5F5F5F5F5F5F5F5F5F5F5F5F5F5E2F5F5F5F5F5F5F5F5F5F5F5F5F5F5F5F5F5F5F5F5F5F5F5F5F5F5F5F5F5F5
310
F5F5F5F5F5F5F5F5F5F5F5F5F5F5F5F5F5F5F5F5F5F5F5F5F5F5F5F5F5F5F5F5F5F5F5F5F5F5F5F5F5F5F5F5F5F5F5F5F5F5F5F5F5F5F5F5F5F5F5F5F5F5F5F5F5F5F5F5F5F5F5F5F5F5F5F5F5F5F5F5F5F5F5F5F5F5F5F5F5F5F5F5F5F5F5F5F5F5F5F5F5F5F5F5F5E2F5F5F5F5F5F5F5F5F5F5F5F5F5F5F5F5E2F5F5F5E2
310
E2EFF5F5F5E2F5F5F5F5F5F5F5F5F5F5F5F5F5F5F5F5E2F5F5F5F5F5F5F5F5F5F5F5F5F5F5F5F5F5F5F5F5F5F5F5F5F5F5F5F5F5F5F5F5F5F5F5F5F5F5F5F5F5F5F5F5F5F5F5F5F5F5F5F5F5F5F5F5F5F5F5F5F5F5F5F5F5F5F5F5F5F5F5F5F5F5F5F5F5F5F5F5F5F5F5F5F5F5F5F5F5F5F5F5F5F5F5F5F5F5F5F5F5F5F5F5
310
F5F5F5F5F5F5F5F5F5F5F5F5F5F5F5F5F5F5F5F5F5F5F5F5F5F5F5F5F5F5F5E2F5F5F5F5F5F5F5F5F5F5F5F5F5F5F5F5E2F5F5F5E2E2EFF5F5F5E2F5F5F5F5F5F5F5F5F5F5F5F5F5F5F5F5E2F5F5F5F5F5F5F5F5F5F5F5F5F5F5F5F5F5F5F5F5F5F5F5F5F5F5F5F5F5F5F5F5F5F5F5F5F5F5F5F5F5F5F5F5F5F5F5F5F5F5F5
310
F5F5F5F5F5F5F5F5F5F5F5F5F5F5F5F5F5F5F5F5F5F5F5F5F5F5F5F5F5F5F5F5F5F5F5F5F5F5F5F5F5F5F5F5F5F5F5F5F5F5F5F5F5F5F5F5F5F5F5F5F5F5F5F5F5F5F5F5F5F5F5F5F5F5F5F5F5F5F5F5F5F5F5F5E2F5F5F5F5F5F5F5F5F5F5F5F5F5F5F5F5E2F5F5F5E2E2EFF5F5F5E2F5F5F5F5F5F5F5F5F5F5F5F5F5F5F5
310
F5E2F5F5F5F5F5F5F5F5F5F5F5F5F5F5F5F5F5F5F5F5F5F5F5F5F5F5F5F5F5F5F5F5F5F5F5F5F5F5F5F5F5F5F5F5F5F5F5F5F5F5F5F5F5F5F5F5F5F5F5F5F5F5F5F5F5F5F5F5F5F5F5F5F5F5F5F5F5F5F5F5F5F5F5F5F5F5F5F5F5F5F5F5F5F5F5F5F5F5F5F5F5F5F5F5F5F5F5F5F5F5F5F5F5F5F5F5F5F5F5F5F5F5F5F5F5
310
F5F5F5F5F5F5F5F5F5F5E2F5F5F5F5F5F5F5F5F5F5F5F5F5F5F5F5E2F5F5F5E2E2EFF5F5F5E2F5F5F5F5F5F5F5F5F5F5F5F5F5F5F5F5E2F5F5F5F5F5F5F5F5F5F5F5F5F5F5F5F5F5F5F5F5F5F5F5F5F5F5F5F5F5F5F5F5F5F5F5F5F5F5F5F5F5F5F5F5F5F5F5F5F5F5F5F5F5F5F5F5F5F5F5F5F5F5F5F5F5F5F5F5F5F5F5F5
310
F5F5F5F5F5F5F5F5F5F5F5F5F5F5F5F5F5F5F5F5F5F5F5F5F5F5F5F5F5F5F5F5F5F5F5F5F5F5F5F5F5F5F5F5F5F5F5F5F5F5F5F5F5F5F5F5F5F5F5F5F5F5F5E2F5F5F5F5F5F5F5F5F5F5F5F5F5F5F5F5E2F5F5F5E2E2EFF5F5F5E2F5F5F5F5F5F5F5F5F5F5F5F5F5F5F5F5E2F5F5F5F5F5F5F5F5F5F5F5F5F5F5F5F5F5F5F5
310
F5F5F5F5F5F5F5F5F5F5F5F5F5F5F5F5F5F5F5F5F5F5F5F5F5F5F5F5F5F5F5F5F5F5F5F5F5F5F5F5F5F5F5F5F5F5F5F5F5F5F5F5F5F5F5F5F5F5F5F5F5F5F5F5F5F5F5F5F5F5F5F5F5F5F5F5F5F5F5F5F5F5F5F5F5F5F5F5F5F5F5F5F5F5F5F5F5F5F5F5F5F5F5F5F5F5F5F5F5F5F5F5F5F5F5F5E2F5F5F5F5F5F5F5F5F5F5
310
F5F5F5F5F5F5E2F5F5F5E2E2EFF5F5F5E2F5F5F5F5F5F5F5F5F5F5F5F5F5F5F5F5E2F5F5F5F5F5F5F5F5F5F5F5F5F5F5F5F5F5F5F5F5F5F5F5F5F5F5F5F5F5F5F5F5F5F5F5F5F5F5F5F5F5F5F5F5F5F5F5F5F5F5F5F5F5F5F5F5F5F5F5F5F5F5F5F5F5F5F5F5F5F5F5F5F5F5F5F5F5F5F5F5F5F5F5F5F5F5F5F5F5F5F5F5F5
310
F5F5F5F5F5F5F5F5F5F5F5F5F5F5F5F5F5F5F5F5F5F5F5F5F5F5F5F5F5F5F5F5F5F5F5F5F5F5F5F5F5F5E2F5F5F5F5F5F5F5F5F5F5F5F5F5F5F5F5E2F5F5F5E2E2EFF5F5F5E2F5F5F5F5F5F5F5F5F5F5F5F5F5F5F5F5E2F5F5F5F5F5F5F5F5F5F5F5F5F5F5F5F5F5F5F5F5F5F5F5F5F5F5F5F5F5F5F5F5F5F5F5F5F5F5F5F5
310
F5F5F5F5F5F5F5F5F5F5F5F5F5F5F5F5F5F5F5F5F5F5F5F5F5F5F5F5F5F5F5F5F5F5F5F5F5F5F5F5F5F5F5F5F5F5F5F5F5F5F5F5F5F5F5F5F5F5F5F5F5F5F5F5F5F5F5F5F5F5F5F5F5F5F5F5F5F5F5F5F5F5F5F5F5F5F5F5F5F5F5F5F5F5F5E2F5F5F5F5F5F5F5F5F5F5F5F5F5F5F5F5E2F5F5F5E2E2EFF5F5F5E2F5F5F5F5
310
F5F5F5F5F5F5F5F5F5F5F5F5E2F5F5F5F5F5F5F5F5F5F5F5F5F5F5F5F5F5F5F5F5F5F5F5F5F5F5F5F5F5F5F5F5F5F5F5F5F5F5F5F5F5F5F5F5F5F5F5F5F5F5F5F5F5F5F5F5F5F5F5F5F5F5F5F5F5F5F5F5F5F5F5F5F5F5F5F5F5F5F5F5F5F5F5F5F5F5F5F5F5F5F5F5F5F5F5F5F5F5F5F5F5F5F5F5F5F5F5F5F5F5F5F5F5F5
310
F5F5F5F5F5F5F5F5F5F5F5F5F5F5F5F5F5F5F5F5F5E2F5F5F5F5F5F5F5F5F5F5F5F5F5F5F5F5E2F5F5F5E2E2EFF5F5F5F5F5F5F5F5F5F5F5F5F5F5F5F5F5F5F5F5E2F5F5F5F5F5F5F5F5F5F5F5F5F5F5F5F5F5F5F5F5F5F5F5F5F5F5F5F5F5F5F5F5F5F5F5F5F5F5F5F5F5F5F5F5F5F5F5F5F5F5F5F5F5F5F5F5F5F5F5F5F5
310
F5F5F5F5F5F5F5F5F5F5F5F5F5F5F5F5F5F5F5F5F5F5F5F5F5F5F5F5F5F5F5F5F5F5F5F5F5F5F5F5F5F5F5F5F5F5F5F5F5F5F5F5F5F5F5F5F5F5F5F5F5F5F5F5F5F5F5F5F5F5F5F5F5F5E2F5F5F5F5F5F5F5F5F5F5F5F5F5F5F5F5F5F5F5F5E2E2EFF5F5F5F5F5F5F5F5F5F5F5F5F5F5F5F5F5F5F5F5E2F5F5F5F5F5F5F5F5
310
F5F5F5F5F5F5F5F5F5F5F5F5F5F5F5F5F5F5F5F5F5F5F5F5F5F5F5F5F5F5F5F5F5F5F5F5F5F5F5F5F5F5F5F5F5F5F5F5F5F5F5F5F5F5F5F5F5F5F5F5F5F5F5F5F5F5F5F5F5F5F5F5F5F5F5F5F5F5F5F5F5F5F5F5F5F5F5F5F5F5F5F5F5F5F5F5F5F5F5F5F5F5F5F5F5F5F5F5F5F5F5F5F5F5F5F5F5F5F5F5F5F5F5F5F5F5F5
310
E2F5F5F5F5F5F5F5F5F5F5F5F5F5F5F5F5F5F5F5F5E2E2EFF5F5F5F5F5F5F5F5F5F5F5F5F5F5F5F5F5F5F5F5E2F5F5F5F5F5F5F5F5F5F5F5F5F5F5F5F5F5F5F5F5F5F5F5F5F5F5F5F5F5F5F5F5F5F5F5F5F5F5F5F5F5F5F5F5F5F5F5F5F5F5F5F5F5F5F5F5F5F5F5F5F5F5F5F5F5F5F5F5F5F5F5F5F5F5F5F5F5F5F5F5F5F5
310
F5F5F5F5F5F5F5F5F5F5F5F5F5F5F5F5F5F5F5F5F5F5F5F5F5F5F5F5F5F5F5F5F5F5F5F5F5F5F5F5F5F5F5F5F5F5F5F5F5F5F5F5F5E2F5F5F5F5F5F5F5F5F5F5F5F5F5F5F5F5F5F5F5F5E2E2EFF5F5F5F5F5F5F5F5F5F5F5F5F5F5F5F5F5F5F5F5E2F5F5F5F5F5F5F5F5F5F5F5F5F5F5F5F5F5F5F5F5F5F5F5F5F5F5F5F5F5
310
F5F5F5F5F5F5F5F5F5F5F5F5F5F5F5F5F5F5F5F5F5F5F5F5F5F5F5F5F5F5F5F5F5F5F5F5F5F5F5F5F5F5F5F5F5F5F5F5F5F5F5F5F5F5F5F5F5F5F5F5F5F5F5F5F5F5F5F5F5F5F5F5F5F5F5F5F5F5F5F5F5F5F5F5F5F5F5F5F5F5F5F5F5F5F5F5F5F5F5F5F5F5F5F5F5F5E2F5F5F5F5F5F5F5F5F5F5F5F5F5F5F5F5F5F5F5F5
310
E2E2EFF5F5F5F5F5F5F5F5F5F5F5F5F5F5F5F5F5F5F5F5E2F5F5F5F5F5F5F5F5F5F5F5F5F5F5F5F5F5F5F5F5F5F5F5F5F5F5F5F5F5F5F5F5F5F5F5F5F5F5F5F5F5F5F5F5F5F5F5F5F5F5F5F5F5F5F5F5F5F5F5F5F5F5F5F5F5F5F5F5F5F5F5F5F5F5F5F5F5F5F5F5F5F5F5F5F5F5F5F5F5F5F5F5F5F5F5F5F5F5F5F5F5F5F5
310
F5F5F5F5F5F5F5F5F5F5F5F5F5F5F5F5F5F5F5F5F5F5F5F5F5F5F5F5F5F5F5F5E2F5F5F5F5F5F5F5F5F5F5F5F5F5F5F5F5F5F5F5F5E2E2EFF5F5F5F5F5F5F5F5F5F5F5F5F5F5F5F5F5F5F5F5E2F5F5F5F5F5F5F5F5F5F5F5F5F5F5F5F5F5F5F5F5F5F5F5F5F5F5F5F5F5F5F5F5F5F5F5F5F5F5F5F5F5F5F5F5F5F5F5F5F5F5
310
F5F5F5F5F5F5F5F5F5F5F5F5F5F5F5F5F5F5F5F5F5F5F5F5F5F5F5F5F5F5F5F5F5F5F5F5F5F5F5F5F5F5F5F5F5F5F5F5F5F5F5F5F5F5F5F5F5F5F5F5F5F5F5F5F5F5F5F5F5F5F5F5F5F5F5F5F5F5F5F5F5F5F5F5F5E2F5F5F5F5F5F5F5F5F5F5F5F5F5F5F5F5F5F5F5F5E2E2EFF5F5F5F5F5F5F5F5F5F5F5F5F5F5F5F5F5F5
310
F5F5E2F5F5F5F5F5F5F5F5F5F5F5F5F5F5F5F5F5F5F5F5F5F5F5F5F5F5F5F5F5F5F5F5F5F5F5F5F5F5F5F5F5F5F5F5F5F5F5F5F5F5F5F5F5F5F5F5F5F5F5F5F5F5F5F5F5F5F5F5F5F5F5F5F5F5F5F5F5F5F5F5F5F5F5F5F5F5F5F5F5F5F5F5F5F5F5F5F5F5F5F5F5F5F5F5F5F5F5F5F5F5F5F5F5F5F5F5F5F5F5F5F5F5F5F5
310
F5F5F5F5F5F5F5F5F5F5F5E2F5F5F5F5F5F5F5F5F5F5F5F5F5F5F5F5F5F5F5F5E2E2EFF5F5F5F5F5F5F5F5F5F5F5F5F5F5F5F5F5F5F5F5E2F5F5F5F5F5F5F5F5F5F5F5F5F5F5F5F5F5F5F5F5F5F5F5F5F5F5F5F5F5F5F5F5F5F5F5F5F5F5F5F5F5F5F5F5F5F5F5F5F5F5F5F5F5F5F5F5F5F5F5F5F5F5F5F5F5F5F5F5F5F5F5
310
F5F5F5F5F5F5F5F5F5F5F5F5F5F5F5F5F5F5F5F5F5F5F5F5F5F5F5F5F5F5F5F5F5F5F5F5F5F5F5F5F5F5F5F5F5F5F5F5F5F5F5F5F5F5F5F5F5F5F5F5F5F5F5F5E2F5F5F5F5F5F5F5F5F5F5F5F5F5F5F5F5F5F5F5F5E2E2EFF5F5F5F5F5F5F5F5F5F5F5F5F5F5F5F5F5F5F5F5E2F5F5F5F5F5F5F5F5F5F5F5F5F5F5F5F5F5F5
310
F5F5F5F5F5F5F5F5F5F5F5F5F5F5F5F5F5F5F5F5F5F5F5F5F5F5F5F5F5F5F5F5F5F5F5F5F5F5F5F5F5F5F5F5F5F5F5F5F5F5F5F5F5F5F5F5F5F5F5F5F5F5F5F5F5F5F5F5F5F5F5F5F5F5F5F5F5F5F5F5F5F5F5F5F5F5F5F5F5F5F5F5F5F5F5F5F5F5F5F5F5F5F5F5F5F5F5F5F5F5F5F5F5F5F5F5F5E2F5F5F5F5F5F5F5F5F5
310
F5F5F5F5F5F5F5F5F5F5F5E2E2EFF5F5F5E2F5F5F5F5F5F5F5F5F5F5F5F5F5F5F5F5E2F5F5F5F5F5F5F5F5F5F5F5F5F5F5F5F5F5F5F5F5F5F5F5F5F5F5F5F5F5F5F5F5F5F5F5F5F5F5F5F5F5F5F5F5F5F5F5F5F5F5F5F5F5F5F5F5F5F5F5F5F5F5F5F5F5F5F5F5F5F5F5F5F5F5F5F5F5F5F5F5F5F5F5F5F5F5F5F5F5F5F5F5
310
F5F5F5F5F5F5F5F5F5F5F5F5F5F5F5F5F5F5F5F5F5F5F5F5F5F5F5F5F5F5F5F5F5F5F5F5F5F5F5F5F5F5F5E2F5F5F5F5F5F5F5F5F5F5F5F5F5F5F5F5E2F5F5F5E2E2EFF5F5F5E2F5F5F5F5F5F5F5F5F5F5F5F5F5F5F5F5E2F5F5F5F5F5F5F5F5F5F5F5F5F5F5F5F5F5F5F5F5F5F5F5F5F5F5F5F5F5F5F5F5F5F5F5F5F5F5F5
310
F5F5F5F5F5F5F5F5F5F5F5F5F5F5F5F5F5F5F5F5F5F5F5F5F5F5F5F5F5F5F5F5F5F5F5F5F5F5F5F5F5F5F5F5F5F5F5F5F5F5F5F5F5F5F5F5F5F5F5F5F5F5F5F5F5F5F5F5F5F5F5F5F5F5F5F5F5F5F5F5F5F5F5F5F5F5F5F5F5F5F5F5F5F5F5F5E2F5F5F5F5F5F5F5F5F5F5F5F5F5F5F5F5E2F5F5F5E2E2EFF5F5F5E2F5F5F5
310
F5F5F5F5F5F5F5F5F5F5F5F5F5E2F5F5F5F5F5F5F5F5F5F5F5F5F5F5F5F5F5F5F5F5F5F5F5F5F5F5F5F5F5F5F5F5F5F5F5F5F5F5F5F5F5F5F5F5F5F5F5F5F5F5F5F5F5F5F5F5F5F5F5F5F5F5F5F5F5F5F5F5F5F5F5F5F5F5F5F5F5F5F5F5F5F5F5F5F5F5F5F5F5F5F5F5F5F5F5F5F5F5F5F5F5F5F5F5F5F5F5F5F5F5F5F5F5
310
F5F5F5F5F5F5F5F5F5F5F5F5F5F5F5F5F5F5F5F5F5F5E2F5F5F5F5F5F5F5F5F5F5F5F5F5F5F5F5E2F5F5F5E2E2EFF5F5F5E2F5F5F5F5F5F5F5F5F5F5F5F5F5F5F5F5E2F5F5F5F5F5F5F5F5F5F5F5F5F5F5F5F5F5F5F5F5F5F5F5F5F5F5F5F5F5F5F5F5F5F5F5F5F5F5F5F5F5F5F5F5F5F5F5F5F5F5F5F5F5F5F5F5F5F5F5F5
310
F5F5F5F5F5F5F5F5F5F5F5F5F5F5F5F5F5F5F5F5F5F5F5F5F5F5F5F5F5F5F5F5F5F5F5F5F5F5F5F5F5F5F5F5F5F5F5F5F5F5F5F5F5F5F5F5F5F5F5F5F5F5F5F5F5F5F5F5F5F5F5F5F5F5F5E2F5F5F5F5F5F5F5F5F5F5F5F5F5F5F5F5E2F5F5F5E2E2EFF5F5F5E2F5F5F5F5F5F5F5F5F5F5F5F5F5F5F5F5E2F5F5F5F5F5F5F5
310
F5F5F5F5F5F5F5F5F5F5F5F5F5F5F5F5F5F5F5F5F5F5F5F5F5F5F5F5F5F5F5F5F5F5F5F5F5F5F5F5F5F5F5F5F5F5F5F5F5F5F5F5F5F5F5F5F5F5F5F5F5F5F5F5F5F5F5F5F5F5F5F5F5F5F5F5F5F5F5F5F5F5F5F5F5F5F5F5F5F5F5F5F5F5F5F5F5F5F5F5F5F5F5F5F5F5F5F5F5F5F5F5F5F5F5F5F5F5F5F5F5F5F5F5F5F5F5
310
F5E2F5F5F5F5F5F5F5F5F5F5F5F5F5F5F5F5E2F5F5F5E2E2EFF5F5F5E2F5F5F5F5F5F5F5F5F5F5F5F5F5F5F5F5E2F5F5F5F5F5F5F5F5F5F5F5F5F5F5F5F5F5F5F5F5F5F5F5F5F5F5F5F5F5F5F5F5F5F5F5F5F5F5F5F5F5F5F5F5F5F5F5F5F5F5F5F5F5F5F5F5F5F5F5F5F5F5F5F5F5F5F5F5F5F5F5F5F5F5F5F5F5F5F5F5F5
310
F5F5F5F5F5F5F5F5F5F5F5F5F5F5F5F5F5F5F5F5F5F5F5F5F5F5F5F5F5F5F5F5F5F5F5F5F5F5F5F5F5F5F5F5F5F5F5F5F5F5F5F5F5F5E2F5F5F5F5F5F5F5F5F5F5F5F5F5F5F5F5E2F5F5F5E2E2EFF5F5F5E2F5F5F5F5F5F5F5F5F5F5F5F5F5F5F5F5E2F5F5F5F5F5F5F5F5F5F5F5F5F5F5F5F5F5F5F5F5F5F5F5F5F5F5F5F5
310
F5F5F5F5F5F5F5F5F5F5F5F5F5F5F5F5F5F5F5F5F5F5F5F5F5F5F5F5F5F5F5F5F5F5F5F5F5F5F5F5F5F5F5F5F5F5F5F5F5F5F5F5F5F5F5F5F5F5F5F5F5F5F5F5F5F5F5F5F5F5F5F5F5F5F5F5F5F5F5F5F5F5F5F5F5F5F5F5F5F5F5F5F5F5F5F5F5F5F5F5F5F5F5F5F5F5F5E2F5F5F5F5F5F5F5F5F5F5F5F5F5F5F5F5E2F5F5
310
F5E2E2EFF5F5F5E2F5F5F5F5F5F5F5F5F5F5F5F5F5F5F5F5E2F5F5F5F5F5F5F5F5F5F5F5F5F5F5F5F5F5F5F5F5F5F5F5F5F5F5F5F5F5F5F5F5F5F5F5F5F5F5F5F5F5F5F5F5F5F5F5F5F5F5F5F5F5F5F5F5F5F5F5F5F5F5F5F5F5F5F5F5F5F5F5F5F5F5F5F5F5F5F5F5F5F5F5F5F5F5F5F5F5F5F5F5F5F5F5F5F5F5F5F5F5F5
310
F5F5F5F5F5F5F5F5F5F5F5F5F5F5F5F5F5F5F5F5F5F5F5F5F5F5F5F5F5F5F5F5F5E2F5F5F5F5F5F5F5F5F5F5F5F5F5F5F5F5E2F5F5F5E2E2EFF5F5F5E2F5F5F5F5F5F5F5F5F5F5F5F5F5F5F5F5E2F5F5F5F5F5F5F5F5F5F5F5F5F5F5F5F5F5F5F5F5F5F5F5F5F5F5F5F5F5F5F5F5F5F5F5F5F5F5F5F5F5F5F5F5F5F5F5F5F5
310
F5F5F5F5F5F5F5F5F5F5F5F5F5F5F5F5F5F5F5F5F5F5F5F5F5F5F5F5F5F5F5F5F5F5F5F5F5F5F5F5F5F5F5F5F5F5F5F5F5F5F5F5F5F5F5F5F5F5F5F5F5F5F5F5F5F5F5F5F5F5F5F5F5F5F5F5F5F5F5F5F5F5F5F5F5F5E2F5F5F5F5F5F5F5F5F5F5F5F5F5F5F5F5E2F5F5F5E2E2EFF5F5F5E2F5F5F5F5F5F5F5F5F5F5F5F5F5
310
F5F5F5E2F5F5F5F5F5F5F5F5F5F5F5F5F5F5F5F5F5F5F5F5F5F5F5F5F5F5F5F5F5F5F5F5F5F5F5F5F5F5F5F5F5F5F5F5F5F5F5F5F5F5F5F5F5F5F5F5F5F5F5F5F5F5F5F5F5F5F5F5F5F5F5F5F5F5F5F5F5F5F5F5F5F5F5F5F5F5F5F5F5F5F5F5F5F5F5F5F5F5F5F5F5F5F5F5F5F5F5F5F5F5F5F5F5F5F5F5F5F5F5F5F5F5F5
310
F5F5F5F5F5F5F5F5F5F5F5F5E2F5F5F5F5F5F5F5F5F5F5F5F5F5F5F5F5E2F5F5F5E2E2EFF5F5F5E2F5F5F5F5F5F5F5F5F5F5F5F5F5F5F5F5E2F5F5F5F5F5F5F5F5F5F5F5F5F5F5F5F5F5F5F5F5F5F5F5F5F5F5F5F5F5F5F5F5F5F5F5F5F5F5F5F5F5F5F5F5F5F5F5F5F5F5F5F5F5F5F5F5F5F5F5F5F5F5F5F5F5F5F5F5F5F5
310
F5F5F5F5F5F5F5F5F5F5F5F5F5F5F5F5F5F5F5F5F5F5F5F5F5F5F5F5F5F5F5F5F5F5F5F5F5F5F5F5F5F5F5F5F5F5F5F5F5F5F5F5F5F5F5F5F5F5F5F5F5F5F5F5F5E2F5F5F5F5F5F5F5F5F5F5F5F5F5F5F5F5E2F5F5F5E2E2EFF5F5F5E2F5F5F5F5F5F5F5F5F5F5F5F5F5F5F5F5E2F5F5F5F5F5F5F5F5F5F5F5F5F5F5F5F5F5
310
F5F5F5F5F5F5F5F5F5F5F5F5F5F5F5F5F5F5F5F5F5F5F5F5F5F5F5F5F5F5F5F5F5F5F5F5F5F5F5F5F5F5F5F5F5F5F5F5F5F5F5F5F5F5F5F5F5F5F5F5F5F5F5F5F5F5F5F5F5F5F5F5F5F5F5F5F5F5F5F5F5F5F5F5F5F5F5F5F5F5F5F5F5F5F5F5F5F5F5F5F5F5F5F5F5F5F5F5F5F5F5F5F5F5F5F5F5F5E2F5F5F5F5F5F5F5F5
310
F5F5F5F5F5F5F5F5E2F5F5F5E2E2EFF5F5F5E2F5F5F5F5F5F5F5F5F5F5F5F5F5F5F5F5E2F5F5F5F5F5F5F5F5F5F5F5F5F5F5F5F5F5F5F5F5F5F5F5F5F5F5F5F5F5F5F5F5F5F5F5F5F5F5F5F5F5F5F5F5F5F5F5F5F5F5F5F5F5F5F5F5F5F5F5F5F5F5F5F5F5F5F5F5F5F5F5F5F5F5F5F5F5F5F5F5F5F5F5F5F5F5F5F5F5F5F5
310
F5F5F5F5F5F5F5F5F5F5F5F5F5F5F5F5F5F5F5F5F5F5F5F5F5F5F5F5F5F5F5F5F5F5F5F5F5F5F5F5F5F5F5F5E2F5F5F5F5F5F5F5F5F5F5F5F5F5F5F5F5E2F5F5F5E2E2EFF5F5F5E2F5F5F5F5F5F5F5F5F5F5F5F5F5F5F5F5E2F5F5F5F5F5F5F5F5F5F5F5F5F5F5F5F5F5F5F5F5F5F5F5F5F5F5F5F5F5F5F5F5F5F5F5F5F5F5
310
F5F5F5F5F5F5F5F5F5F5F5F5F5F5F5F5F5F5F5F5F5F5F5F5F5F5F5F5F5F5F5F5F5F5F5F5F5F5F5F5F5F5F5F5F5F5F5F5F5F5F5F5F5F5F5F5F5F5F5F5F5F5F5F5F5F5F5F5F5F5F5F5F5F5F5F5F5F5F5F5F5F5F5F5F5F5F5F5F5F5F5F5F5F5F5F5F5E2F5F5F5F5F5F5F5F5F5F5F5F5F5F5F5F5E2F5F5F5E2E2EFF5F5F5E2F5F5
310
F5F5F5F5F5F5F5F5F5F5F5F5F5F5E2F5F5F5F5F5F5F5F5F5F5F5F5F5F5F5F5F5F5F5F5F5F5F5F5F5F5F5F5F5F5F5F5F5F5F5F5F5F5F5F5F5F5F5F5F5F5F5F5F5F5F5F5F5F5F5F5F5F5F5F5F5F5F5F5F5F5F5F5F5F5F5F5F5F5F5F5F5F5F5F5F5F5F5F5F5F5F5F5F5F5F5F5F5F5F5F5F5F5F5F5F5F5F5F5F5F5F5F5F5F5F5F5
310
F5F5F5F5F5F5F5F5F5F5F5F5F5F5F5F5F5F5F5F5F5F5F5E2F5F5F5F5F5F5F5F5F5F5F5F5F5F5F5F5E2F5F5F5E2E2EFF5F5F5E2F5F5F5F5F5F5F5F5F5F5F5F5F5F5F5F5E2F5F5F5F5F5F5F5F5F5F5F5F5F5F5F5F5F5F5F5F5F5F5F5F5F5F5F5F5F5F5F5F5F5F5F5F5F5F5F5F5F5F5F5F5F5F5F5F5F5F5F5F5F5F5F5F5F5F5F5
310
F5F5F5F5F5F5F5F5F5F5F5F5F5F5F5F5F5F5F5F5F5F5F5F5F5F5F5F5F5F5F5F5F5F5F5F5F5F5F5F5F5F5F5F5F5F5F5F5F5F5F5F5F5F5F5F5F5F5F5F5F5F5F5F5F5F5F5F5F5F5F5F5F5F5F5F5E2F5F5F5F5F5F5F5F5F5F5F5F5F5F5F5F5E2F5F5F5E2E2EFF5F5F5E2F5F5F5F5F5F5F5F5F5F5F5F5F5F5F5F5E2F5F5F5F5F5F5
310
F5F5F5F5F5F5F5F5F5F5F5F5F5F5F5F5F5F5F5F5F5F5F5F5F5F5F5F5F5F5F5F5F5F5F5F5F5F5F5F5F5F5F5F5F5F5F5F5F5F5F5F5F5F5F5F5F5F5F5F5F5F5F5F5F5F5F5F5F5F5F5F5F5F5F5F5F5F5F5F5F5F5F5F5F5F5F5F5F5F5F5F5F5F5F5F5F5F5F5F5F5F5F5F5F5F5F5F5F5F5F5F5F5F5F5F5F5F5F5F5F5F5F5F5F5F5F5
310
F5F5E2F5F5F5F5F5F5F5F5F5F5F5F5F5F5F5F5E2F5F5F5E2E2EFF5F5F5F5F5F5F5F5F5F5F5F5F5F5F5F5F5F5F5F5E2F5F5F5F5F5F5F5F5F5F5F5F5F5F5F5F5F5F5F5F5F5F5F5F5F5F5F5F5F5F5F5F5F5F5F5F5F5F5F5F5F5F5F5F5F5F5F5F5F5F5F5F5F5F5F5F5F5F5F5F5F5F5F5F5F5F5F5F5F5F5F5F5F5F5F5F5F5F5F5F5
310
F5F5F5F5F5F5F5F5F5F5F5F5F5F5F5F5F5F5F5F5F5F5F5F5F5F5F5F5F5F5F5F5F5F5F5F5F5F5F5F5F5F5F5F5F5F5F5F5F5F5F5F5F5F5F5E2F5F5F5F5F5F5F5F5F5F5F5F5F5F5F5F5F5F5F5F5E2E2EFF5F5F5F5F5F5F5F5F5F5F5F5F5F5F5F5F5F5F5F5E2F5F5F5F5F5F5F5F5F5F5F5F5F5F5F5F5F5F5F5F5F5F5F5F5F5F5F5
310
F5F5F5F5F5F5F5F5F5F5F5F5F5F5F5F5F5F5F5F5F5F5F5F5F5F5F5F5F5F5F5F5F5F5F5F5F5F5F5F5F5F5F5F5F5F5F5F5F5F5F5F5F5F5F5F5F5F5F5F5F5F5F5F5F5F5F5F5F5F5F5F5F5F5F5F5F5F5F5F5F5F5F5F5F5F5F5F5F5F5F5F5F5F5F5F5F5F5F5F5F5F5F5F5F5F5F5F5E2F5F5F5F5F5F5F5F5F5F5F5F5F5F5F5F5F5F5
310
F5F5E2E2EFF5F5F5F5F5F5F5F5F5F5F5F5F5F5F5F5F5F5F5F5E2F5F5F5F5F5F5F5F5F5F5F5F5F5F5F5F5F5F5F5F5F5F5F5F5F5F5F5F5F5F5F5F5F5F5F5F5F5F5F5F5F5F5F5F5F5F5F5F5F5F5F5F5F5F5F5F5F5F5F5F5F5F5F5F5F5F5F5F5F5F5F5F5F5F5F5F5F5F5F5F5F5F5F5F5F5F5F5F5F5F5F5F5F5F5F5F5F5F5F5F5F5
310
F5F5F5F5F5F5F5F5F5F5F5F5F5F5F5F5F5F5F5F5F5F5F5F5F5F5F5F5F5F5F5F5F5F5E2F5F5F5F5F5F5F5F5F5F5F5F5F5F5F5F5F5F5F5F5E2E2EFF5F5F5F5F5F5F5F5F5F5F5F5F5F5F5F5F5F5F5F5E2F5F5F5F5F5F5F5F5F5F5F5F5F5F5F5F5F5F5F5F5F5F5F5F5F5F5F5F5F5F5F5F5F5F5F5F5F5F5F5F5F5F5F5F5F5F5F5F5
310
F5F5F5F5F5F5F5F5F5F5F5F5F5F5F5F5F5F5F5F5F5F5F5F5F5F5F5F5F5F5F5F5F5F5F5F5F5F5F5F5F5F5F5F5F5F5F5F5F5F5F5F5F5F5F5F5F5F5F5F5F5F5F5F5F5F5F5F5F5F5F5F5F5F5F5F5F5F5F5F5F5F5F5F5F5F5F5E2F5F5F5F5F5F5F5F5F5F5F5F5F5F5F5F5F5F5F5F5E2E2EFF5F5F5F5F5F5F5F5F5F5F5F5F5F5F5F5
310
F5F5F5F5E2E2E2E2E2E2E2E2E2E2E2E2E2E2E2E2E2E2E2E2E2E2E2E2E2E2E2E2E2E2E2E2E2E2E2E2E2E2E2E2E2E2E2E2E2E2E2E2E2E2E2E2E2E2E2E2E2E2E2E2E2E2E2E2E2E2E2E2E2E2E2E2E2E2E2E2E2E2E2E2E2E2E2E2E2E2E2E2E2E2E2E2E2E2E2E2E2E2E2E2E2E2E2E2E2E2E2E2E2E2E2E2E2E2E2E2E2E2E2E2E2E2E2
310
E2E2E2E2E2E2E2E2E2E2E2E2E2E2F5F5F5F5F5F5F5F5F5F5F5F5F5F5F5F5F5F5F5F5E2E2EFF5F5F5F5F5F5F5F5F5F5F5F5F5F5F5F5F5F5F5F5F5F5F5F5F5F5F5F5F5F5F5F5F5F5F5F5F5F5F5F5F5F5F5F5F5F5F5F5F5F5F5F5F5F5F5F5F5F5F5F5F5F5F5F5F5F5F5F5F5F5F5F5F5F5F5F5F5F5F5F5F5F5F5F5F5F5F5F5F5F5
310
F5F5F5F5F5F5F5F5F5F5F5F5F5F5F5F5F5F5F5F5F5F5F5F5F5F5F5F5F5F5F5F5F5F5F5F5F5F5F5F5F5F5F5F5F5F5F5F5F5F5F5F5F5F5F5F5F5F5F5F5F5F5F5F5F5F5F5F5F5F5F5F5F5F5F5F5F5F5F5F5F5F5F5F5F5F5F5E2E2EFF5F5F5F5F5F5F5F5F5F5F5F5F5F5F5F5F5F5F5F5F5F5F5F5F5F5F5F5F5F5F5F5F5F5F5F5F5
310
F5F5F5F5F5F5F5F5F5F5F5F5F5F5F5F5F5F5F5F5F5F5F5F5F5F5F5F5F5F5F5F5F5F5F5F5F5F5F5F5F5F5F5F5F5F5F5F5F5F5F5F5F5F5F5F5F5F5F5F5F5F5F5F5F5F5F5F5F5F5F5F5F5F5F5F5F5F5F5F5F5F5F5F5F5F5F5F5F5F5F5F5F5F5F5F5F5F5F5F5F5F5F5F5F5F5F5F5F5F5F5F5F5F5F5F5F5F5F5F5F5F5F5F5F5F5F5
310
F5F5F5F5F5F5F5F5F5F5F5F5F5E2E2EFF5F5F5F5F5F5F5F5F5F5F5F5F5F5F5F5F5F5F5F5F5F5F5F5F5F5F5F5F5F5F5F5F5F5F5F5F5F5F5F5F5F5F5F5F5F5F5F5F5F5F5F5F5F5F5F5F5F5F5F5F5F5F5F5F5F5F5F5F5F5F5F5F5F5F5F5F5F5F5F5F5F5F5F5F5F5F5F5F5F5F5F5F5F5F5F5F5F5F5F5F5F5F5F5F5F5F5F5F5F5F5
310
F5F5F5F5F5F5F5F5F5F5F5F5F5F5F5F5F5F5F5F5F5F5F5F5F5F5F5F5F5F5F5F5F5F5F5F5F5F5F5F5F5F5F5F5F5F5F5F5F5F5F5F5F5F5F5F5F5F5F5F5F5F5F5F5F5F5E2E2EFF5F5F5F5F5F5F5F5F5F5F5F5F5F5F5F5F5F5F5F5F5F5F5F5F5F5F5F5F5F5F5F5F5F5F5F5F5F5F5F5F5F5F5F5F5F5F5F5F5F5F5F5F5F5F5F5F5F5
310
F5F5F5F5F5F5F5F5F5F5F5F5F5F5F5F5F5F5F5F5F5F5F5F5F5F5F5F5F5F5F5F5F5F5F5F5F5F5F5F5F5F5F5F5F5F5F5F5F5F5F5F5F5F5F5F5F5F5F5F5F5F5F5F5F5F5F5F5F5F5F5F5F5F5F5F5F5F5F5F5F5F5F5F5F5F5F5F5F5F5F5F5F5F5F5F5F5F5F5F5F5F5F5F5F5F5F5F5F5F5F5F5F5F5F5F5F5F5F5E2E2EFF5F5F5E2F5
310
F5F5F5F5F5F5F5F5F5F5F5F5F5F5F5F5F5F5F5F5F5F5F5F5F5F5F5F5F5F5F5F5F5F5F5F5F5F5F5F5F5F5F5F5F5F5F5F5F5F5F5F5F5F5F5F5F5F5F5F5F5F5F5F5F5F5F5F5F5F5F5F5F5F5F5F5F5F5F5F5F5F5F5F5F5F5F5F5F5F5F5F5F5F5F5F5F5F5F5F5F5F5F5F5F5F5F5F5F5F5F5F5F5F5F5F5F5F5F5F5F5F5F5F5F5F5F5
310
F5F5F5F5F5F5F5F5F5F5F5F5F5F5F5F5F5F5F5F5F5F5F5F5F5F5F5F5F5F5F5F5F5F5F5F5F5F5F5F5F5E2F5F5F5E2E2EFF5F5F5E2F5F5F5F5F5F5F5F5F5F5F5F5F5F5F5F5F5F5F5F5F5F5F5F5F5F5F5F5F5F5F5F5F5F5F5F5F5F5F5F5F5F5F5F5F5F5F5F5F5F5F5F5F5F5F5F5F5F5F5F5F5F5F5F5F5F5F5F5F5F5F5F5F5F5F5
310
F5F5F5F5F5F5F5F5F5F5F5F5F5F5F5F5F5F5F5F5F5F5F5F5F5F5F5F5F5F5F5F5F5F5F5F5F5F5F5F5F5F5F5F5F5F5F5F5F5F5F5F5F5F5F5F5F5F5F5F5F5F5F5F5F5F5F5F5F5F5F5F5F5F5F5F5F5F5F5F5F5F5F5F5F5F5F5F5F5F5F5F5F5F5E2F5F5F5E2E2EFF5F5F5E2F5F5F5F5F5F5F5F5F5F5F5F5F5F5F5F5F5F5F5F5F5F5
310
F5F5F5F5F5F5F5F5F5F5F5F5F5F5F5F5F5F5F5F5F5F5F5F5F5F5F5F5F5F5F5F5F5F5F5F5F5F5F5F5F5F5F5F5F5F5F5F5F5F5F5F5F5F5F5F5F5F5F5F5F5F5F5F5F5F5F5F5F5F5F5F5F5F5F5F5F5F5F5F5F5F5F5F5F5F5F5F5F5F5F5F5F5F5F5F5F5F5F5F5F5F5F5F5F5F5F5F5F5F5F5F5F5F5F5F5F5F5F5F5F5F5F5F5F5F5F5
310
F5F5F5F5F5F5F5F5F5F5F5F5F5F5F5F5F5F5F5F5E2F5F5F5E2E2EFF5F5F5E2F5F5F5F5F5F5F5F5F5F5F5F5F5F5F5F5F5F5F5F5F5F5F5F5F5F5F5F5F5F5F5F5F5F5F5F5F5F5F5F5F5F5F5F5F5F5F5F5F5F5F5F5F5F5F5F5F5F5F5F5F5F5F5F5F5F5F5F5F5F5F5F5F5F5F5F5F5F5F5F5F5F5F5F5F5F5F5F5F5F5F5F5F5F5F5F5
310
F5F5F5F5F5F5F5F5F5F5F5F5F5F5F5F5F5F5F5F5F5F5F5F5F5F5F5F5F5F5F5F5F5F5F5F5F5F5F5F5F5F5F5F5F5F5F5F5F5F5F5F5F5F5F5F5F5F5F5F5F5F5F5F5F5F5F5F5F5F5F5F5F5E2F5F5F5E2E2EFF5F5F5E2F5F5F5F5F5F5F5F5F5F5F5F5F5F5F5F5F5F5F5F5F5F5F5F5F5F5F5F5F5F5F5F5F5F5F5F5F5F5F5F5F5F5F5
310
F5F5F5F5F5F5F5F5F5F5F5F5F5F5F5F5F5F5F5F5F5F5F5F5F5F5F5F5F5F5F5F5F5F5F5F5F5F5F5F5F5F5F5F5F5F5F5F5F5F5F5F5F5F5F5F5F5F5F5F5F5F5F5F5F5F5F5F5F5F5F5F5F5F5F5F5F5F5F5F5F5F5F5F5F5F5F5F5F5F5F5F5F5F5F5F5F5F5F5F5F5F5F5F5F5F5F5F5F5F5F5F5F5F5F5F5F5F5F5F5F5F5F5F5F5F5E2
310
F5F5F5E2E2EFF5F5F5E2F5F5F5F5F5F5F5F5F5F5F5F5F5F5F5F5F5F5F5F5F5F5F5F5F5F5F5F5F5F5F5F5F5F5F5F5F5F5F5F5F5F5F5F5F5F5F5F5F5F5F5F5F5F5F5F5F5F5F5F5F5F5F5F5F5F5F5F5F5F5F5F5F5F5F5F5F5F5F5F5F5F5F5F5F5F5F5F5F5F5F5F5F5F5F5F5F5F5F5F5F5F5F5F5F5F5F5F5F5F5F5F5F5F5F5F5F5
310
F5F5F5F5F5F5F5F5F5F5F5F5F5F5F5F5F5F5F5F5F5F5F5F5F5F5F5F5F5F5F5F5F5F5F5F5F5F5F5F5F5F5F5F5F5F5F5F5F5F5F5F5E2F5F5F5E2E2EFF5F5F5E2F5F5F5F5F5F5F5F5F5F5F5F5F5F5F5F5F5F5F5F5F5F5F5F5F5F5F5F5F5F5F5F5F5F5F5F5F5F5F5F5F5F5F5F5F5F5F5F5F5F5F5F5F5F5F5F5F5F5F5F5F5F5F5F5
310
F5F5F5F5F5F5F5F5F5F5F5F5F5F5F5F5F5F5F5F5F5F5F5F5F5F5F5F5F5F5F5F5F5F5F5F5F5F5F5F5F5F5F5F5F5F5F5F5F5F5F5F5F5F5F5F5F5F5F5F5F5F5F5F5F5F5F5F5F5F5F5F5F5F5F5F5F5F5F5F5F5F5F5F5F5F5F5F5F5F5F5F5F5F5F5F5F5F5F5F5F5F5F5F5F5E2F5F5F5E2E2EFF5F5F5E2F5F5F5F5F5F5F5F5F5F5F5
310
F5F5F5F5F5F5F5F5F5F5F5F5F5F5F5F5F5F5F5F5F5F5F5F5F5F5F5F5F5F5F5F5F5F5F5F5F5F5F5F5F5F5F5F5F5F5F5F5F5F5F5F5F5F5F5F5F5F5F5F5F5F5F5F5F5F5F5F5F5F5F5F5F5F5F5F5F5F5F5F5F5F5F5F5F5F5F5F5F5F5F5F5F5F5F5F5F5F5F5F5F5F5F5F5F5F5F5F5F5F5F5F5F5F5F5F5F5F5F5F5F5F5F5F5F5F5F5
310
F5F5F5F5F5F5F5F5F5F5F5F5F5F5F5F5F5F5F5F5F5F5F5F5F5F5F5F5F5F5F5E2F5F5F5E2E2EFF5F5F5E2E2E2E2E2E2E2E2F5F5F5F5F5F5F5F5F5E2E2E2E2E2E2E2E2E2E2E2E2E2E2E2E2F5F5F5F5F5F5F5F5E2E2E2E2E2E2E2E2E2E2E2E2E2E2E2E2F5F5F5F5F5F5F5F5F5E2E2E2E2E2E2E2E2E2E2E2E2E2E2E2F5F5F5F5F5
310
F5F5F5F5E2E2E2E2E2E2E2E2E2E2E2E2E2E2E2F5F5F5F5F5F5F5F5F5E2E2E2E2E2E2E2E2E2E2E2E2E2E2E2E2F5F5F5F5F5F5F5F5E2E2E2E2E2E2E2E2E2E2E2E2E2E2E2E2F5F5F5F5F5F5F5F5F5E2E2E2E2E2E2E2E2F5F5F5E2E2EFF5F5F5F5F5F5F5F5F5F5F5F5F5F5F5F5F5F5F5F5F5F5F5F5F5F5F5F5F5F5F5F5F5F5F5F5
310
F5F5F5F5F5F5F5F5F5F5F5F5F5F5F5F5F5F5F5F5F5F5F5F5F5F5F5F5F5F5F5F5F5F5F5F5F5F5F5F5F5F5F5F5F5F5F5F5F5F5F5F5F5F5F5F5F5F5F5F5F5F5F5F5F5F5F5F5F5F5F5F5F5F5F5F5F5F5F5F5F5F5F5F5F5F5F5F5F5F5F5F5F5F5F5F5F5F5F5F5F5F5F5F5F5F5F5F5F5F5F5F5F5F5F5F5F5F5F5F5F5F5F5F5F5F5F5
310
F5F5F5F5F5F5F5F5F5F5F5F5F5F5E2E2EFF5F5F5F5F5F5F5F5F5F5F5F5F5F5F5F5F5F5F5F5F5F5F5F5F5F5F5F5F5F5F5F5F5F5F5F5F5F5F5F5F5F5F5F5F5F5F5F5F5F5F5F5F5F5F5F5F5F5F5F5F5F5F5F5F5F5F5F5F5F5F5F5F5F5F5F5F5F5F5F5F5F5F5F5F5F5F5F5F5F5F5F5F5F5F5F5F5F5F5F5F5F5F5F5F5F5F5F5F5F5
310
F5F5F5F5F5F5F5F5F5F5F5F5F5F5F5F5F5F5F5F5F5F5F5F5F5F5F5F5F5F5F5F5F5F5F5F5F5F5F5F5F5F5F5F5F5F5F5F5F5F5F5F5F5F5F5F5F5F5F5F5F5F5F5F5F5F5F5E2EFEFF5F5F5F5F5F5F5F5F5F5F5F5F5F5F5F5F5F5F5F5F5F5F5F5F5F5F5F5F5F5F5F5F5F5F5F5F5F5F5F5F5F5F5F5F5F5F5F5F5F5F5F5F5F5F5F5F5
310
F5F5F5F5F5F5F5F5F5F5F5F5F5F5F5F5F5F5F5F5F5F5F5F5F5F5F5F5F5F5F5F5F5F5F5F5F5F5F5F5F5F5F5F5F5F5F5F5F5F5F5F5F5F5F5F5F5F5F5F5F5F5F5F5F5F5F5F5F5F5F5F5F5F5F5F5F5F5F5F5F5F5F5F5F5F5F5F5F5F5F5F5F5F5F5F5F5F5F5F5F5F5F5F5F5F5F5F5F5F5F5F5F5F5F5F5F5F5F5F5E2EFEFE2E2E2E2
310
E2E2E2E2E2E2E2E2E2E2E2E2E2E2E2E2E2E2E2E2E2E2E2E2E2E2E2E2E2E2E2E2E2E2E2E2E2E2E2E2E2E2E2E2E2E2E2E2E2E2E2E2E2E2E2E2E2E2E2E2E2E2E2E2E2E2E2E2E2E2E2E2E2E2E2E2E2E2E2E2E2E2E2E2E2E2E2E2E2E2E2E2E2E2E2E2E2E2E2E2E2E2E2E2E2E2E2E2E2E2E2E2E2E2E2E2E2E2E2E2E2E2E2E2E2E2E2
310
E2E2E2E2E2E2E2E2E2E2E2E2E2E2E2E2E2E2E2E2E2E2E2E2E2E2E2E2E2E2E2E2E2E2E2E2E2E2E2E2E2E2E2E2E2E2E2EFEF
  0
XRECORD
  5
6F4
102
{ACAD_REACTORS
330
6A4
102
}
330
6A4
100
AcDbXrecord
280
     1
102
MATERIAL
148
0.0
149
0.0
149
0.0
 93
        0
 94
      127
282
     0
 72
     0
 77
     0
171
     0
175
     0
179
     0
273
     0
  0
XRECORD
  5
6A5
102
{ACAD_REACTORS
330
6A4
102
}
330
6A4
100
AcDbXrecord
280
     1
270
     1
271
     1
  0
XRECORD
  5
6A6
102
{ACAD_REACTORS
330
6A4
102
}
330
6A4
100
AcDbXrecord
280
     1
270
     1
271
     1
  0
XRECORD
  5
6A7
102
{ACAD_REACTORS
330
6A4
102
}
330
6A4
100
AcDbXrecord
280
     1
270
     1
271
     1
  0
XRECORD
  5
6A8
102
{ACAD_REACTORS
330
6A4
102
}
330
6A4
100
AcDbXrecord
280
     1
270
     1
271
     1
  0
XRECORD
  5
6A9
102
{ACAD_REACTORS
330
6A4
102
}
330
6A4
100
AcDbXrecord
280
     1
270
     1
271
     1
  0
XRECORD
  5
6AA
102
{ACAD_REACTORS
330
6A4
102
}
330
6A4
100
AcDbXrecord
280
     1
270
     1
271
     1
  0
XRECORD
  5
6F3
102
{ACAD_REACTORS
330
69C
102
}
330
69C
100
AcDbXrecord
280
     1
102
MATERIAL
148
0.0
149
0.0
149
0.0
 93
        0
 94
      127
282
     0
 72
     0
 77
     0
171
     0
175
     0
179
     0
273
     0
  0
XRECORD
  5
69D
102
{ACAD_REACTORS
330
69C
102
}
330
69C
100
AcDbXrecord
280
     1
270
     1
271
     1
  0
XRECORD
  5
69E
102
{ACAD_REACTORS
330
69C
102
}
330
69C
100
AcDbXrecord
280
     1
270
     1
271
     1
  0
XRECORD
  5
69F
102
{ACAD_REACTORS
330
69C
102
}
330
69C
100
AcDbXrecord
280
     1
270
     1
271
     1
  0
XRECORD
  5
6A0
102
{ACAD_REACTORS
330
69C
102
}
330
69C
100
AcDbXrecord
280
     1
270
     1
271
     1
  0
XRECORD
  5
6A1
102
{ACAD_REACTORS
330
69C
102
}
330
69C
100
AcDbXrecord
280
     1
270
     1
271
     1
  0
XRECORD
  5
6A2
102
{ACAD_REACTORS
330
69C
102
}
330
69C
100
AcDbXrecord
280
     1
270
     1
271
     1
  0
XRECORD
  5
6F2
102
{ACAD_REACTORS
330
672
102
}
330
672
100
AcDbXrecord
280
     1
102
MATERIAL
148
0.0
149
0.0
149
0.0
 93
        0
 94
      127
282
     0
 72
     0
 77
     0
171
     0
175
     0
179
     0
273
     0
  0
XRECORD
  5
673
102
{ACAD_REACTORS
330
672
102
}
330
672
100
AcDbXrecord
280
     1
270
     1
271
     1
  0
XRECORD
  5
674
102
{ACAD_REACTORS
330
672
102
}
330
672
100
AcDbXrecord
280
     1
270
     1
271
     1
  0
XRECORD
  5
675
102
{ACAD_REACTORS
330
672
102
}
330
672
100
AcDbXrecord
280
     1
270
     1
271
     1
  0
XRECORD
  5
676
102
{ACAD_REACTORS
330
672
102
}
330
672
100
AcDbXrecord
280
     1
270
     1
271
     1
  0
XRECORD
  5
677
102
{ACAD_REACTORS
330
672
102
}
330
672
100
AcDbXrecord
280
     1
270
     1
271
     1
  0
XRECORD
  5
678
102
{ACAD_REACTORS
330
672
102
}
330
672
100
AcDbXrecord
280
     1
270
     1
271
     1
  0
CELLSTYLEMAP
  5
98B
102
{ACAD_REACTORS
330
6EF
102
}
330
6EF
100
AcDbCellStyleMap
 90
        3
300
CELLSTYLE
  1
TABLEFORMAT_BEGIN
 90
        5
170
     1
 91
        0
 92
    32768
 62
   257
 93
        1
300
CONTENTFORMAT
  1
CONTENTFORMAT_BEGIN
 90
        0
 91
        0
 92
        4
 93
        0
300

 40
0.0
140
1.0
 94
        5
 62
     0
340
688
144
0.25
309
CONTENTFORMAT_END
171
     1
301
MARGIN
  1
CELLMARGIN_BEGIN
 40
0.06
 40
0.06
 40
0.06
 40
0.06
 40
0.18
 40
0.18
309
CELLMARGIN_END
 94
        6
 95
        1
302
GRIDFORMAT
  1
GRIDFORMAT_BEGIN
 90
        0
 91
        1
 62
     0
 92
       -2
340
0
 93
        0
 40
0.045
309
GRIDFORMAT_END
 95
        2
302
GRIDFORMAT
  1
GRIDFORMAT_BEGIN
 90
        0
 91
        1
 62
     0
 92
       -2
340
0
 93
        0
 40
0.045
309
GRIDFORMAT_END
 95
        4
302
GRIDFORMAT
  1
GRIDFORMAT_BEGIN
 90
        0
 91
        1
 62
     0
 92
       -2
340
0
 93
        0
 40
0.045
309
GRIDFORMAT_END
 95
        8
302
GRIDFORMAT
  1
GRIDFORMAT_BEGIN
 90
        0
 91
        1
 62
     0
 92
       -2
340
0
 93
        0
 40
0.045
309
GRIDFORMAT_END
 95
       16
302
GRIDFORMAT
  1
GRIDFORMAT_BEGIN
 90
        0
 91
        1
 62
     0
 92
       -2
340
0
 93
        0
 40
0.045
309
GRIDFORMAT_END
 95
       32
302
GRIDFORMAT
  1
GRIDFORMAT_BEGIN
 90
        0
 91
        1
 62
     0
 92
       -2
340
0
 93
        0
 40
0.045
309
GRIDFORMAT_END
309
TABLEFORMAT_END
  1
CELLSTYLE_BEGIN
 90
        1
 91
        1
300
_TITLE
309
CELLSTYLE_END
300
CELLSTYLE
  1
TABLEFORMAT_BEGIN
 90
        5
170
     1
 91
        0
 92
        0
 62
   257
 93
        1
300
CONTENTFORMAT
  1
CONTENTFORMAT_BEGIN
 90
        0
 91
        0
 92
        4
 93
        0
300

 40
0.0
140
1.0
 94
        5
 62
     0
340
688
144
0.18
309
CONTENTFORMAT_END
171
     1
301
MARGIN
  1
CELLMARGIN_BEGIN
 40
0.06
 40
0.06
 40
0.06
 40
0.06
 40
0.18
 40
0.18
309
CELLMARGIN_END
 94
        6
 95
        1
302
GRIDFORMAT
  1
GRIDFORMAT_BEGIN
 90
        0
 91
        1
 62
     0
 92
       -2
340
0
 93
        0
 40
0.045
309
GRIDFORMAT_END
 95
        2
302
GRIDFORMAT
  1
GRIDFORMAT_BEGIN
 90
        0
 91
        1
 62
     0
 92
       -2
340
0
 93
        0
 40
0.045
309
GRIDFORMAT_END
 95
        4
302
GRIDFORMAT
  1
GRIDFORMAT_BEGIN
 90
        0
 91
        1
 62
     0
 92
       -2
340
0
 93
        0
 40
0.045
309
GRIDFORMAT_END
 95
        8
302
GRIDFORMAT
  1
GRIDFORMAT_BEGIN
 90
        0
 91
        1
 62
     0
 92
       -2
340
0
 93
        0
 40
0.045
309
GRIDFORMAT_END
 95
       16
302
GRIDFORMAT
  1
GRIDFORMAT_BEGIN
 90
        0
 91
        1
 62
     0
 92
       -2
340
0
 93
        0
 40
0.045
309
GRIDFORMAT_END
 95
       32
302
GRIDFORMAT
  1
GRIDFORMAT_BEGIN
 90
        0
 91
        1
 62
     0
 92
       -2
340
0
 93
        0
 40
0.045
309
GRIDFORMAT_END
309
TABLEFORMAT_END
  1
CELLSTYLE_BEGIN
 90
        2
 91
        1
300
_HEADER
309
CELLSTYLE_END
300
CELLSTYLE
  1
TABLEFORMAT_BEGIN
 90
        5
170
     1
 91
        0
 92
        0
 62
   257
 93
        1
300
CONTENTFORMAT
  1
CONTENTFORMAT_BEGIN
 90
        0
 91
        0
 92
        4
 93
        0
300

 40
0.0
140
1.0
 94
        2
 62
     0
340
688
144
0.18
309
CONTENTFORMAT_END
171
     1
301
MARGIN
  1
CELLMARGIN_BEGIN
 40
0.06
 40
0.06
 40
0.06
 40
0.06
 40
0.18
 40
0.18
309
CELLMARGIN_END
 94
        6
 95
        1
302
GRIDFORMAT
  1
GRIDFORMAT_BEGIN
 90
        0
 91
        1
 62
     0
 92
       -2
340
0
 93
        0
 40
0.045
309
GRIDFORMAT_END
 95
        2
302
GRIDFORMAT
  1
GRIDFORMAT_BEGIN
 90
        0
 91
        1
 62
     0
 92
       -2
340
0
 93
        0
 40
0.045
309
GRIDFORMAT_END
 95
        4
302
GRIDFORMAT
  1
GRIDFORMAT_BEGIN
 90
        0
 91
        1
 62
     0
 92
       -2
340
0
 93
        0
 40
0.045
309
GRIDFORMAT_END
 95
        8
302
GRIDFORMAT
  1
GRIDFORMAT_BEGIN
 90
        0
 91
        1
 62
     0
 92
       -2
340
0
 93
        0
 40
0.045
309
GRIDFORMAT_END
 95
       16
302
GRIDFORMAT
  1
GRIDFORMAT_BEGIN
 90
        0
 91
        1
 62
     0
 92
       -2
340
0
 93
        0
 40
0.045
309
GRIDFORMAT_END
 95
       32
302
GRIDFORMAT
  1
GRIDFORMAT_BEGIN
 90
        0
 91
        1
 62
     0
 92
       -2
340
0
 93
        0
 40
0.045
309
GRIDFORMAT_END
309
TABLEFORMAT_END
  1
CELLSTYLE_BEGIN
 90
        3
 91
        2
300
_DATA
309
CELLSTYLE_END
  0
ENDSEC
  0
EOF
