  0
SECTION
  2
HEADER
  9
$ACADVER
  1
AC1015
  9
$ACADMAINTVER
 70
     6
  9
$DWGCODEPAGE
  3
ANSI_1252
  9
$INSBASE
 10
0.0
 20
0.0
 30
0.0
  9
$EXTMIN
 10
-6158.169527
 20
-12811.236847
 30
0.0
  9
$EXTMAX
 10
3168.590315
 20
4151.318271
 30
0.0
  9
$LIMMIN
 10
-40209.992062
 20
-43045.161744
  9
$LIMMAX
 10
37220.41285
 20
34385.243167
  9
$ORTHOMODE
 70
     0
  9
$REGENMODE
 70
     1
  9
$FILLMODE
 70
     1
  9
$QTEXTMODE
 70
     0
  9
$MIRRTEXT
 70
     1
  9
$LTSCALE
 40
1.0
  9
$ATTMODE
 70
     1
  9
$TEXTSIZE
 40
3.041915
  9
$TRACEWID
 40
0.05
  9
$TEXTSTYLE
  7
Standard
  9
$CLAYER
  8
Structure Numbers
  9
$CELTYPE
  6
ByLayer
  9
$CECOLOR
 62
   256
  9
$CELTSCALE
 40
1.0
  9
$DISPSILH
 70
     0
  9
$DIMSCALE
 40
1.0
  9
$DIMASZ
 40
3.041915
  9
$DIMEXO
 40
1.520958
  9
$DIMDLI
 40
0.0
  9
$DIMRND
 40
0.0
  9
$DIMDLE
 40
0.0
  9
$DIMEXE
 40
1.520958
  9
$DIMTP
 40
0.0
  9
$DIMTM
 40
0.0
  9
$DIMTXT
 40
3.041915
  9
$DIMCEN
 40
0.09
  9
$DIMTSZ
 40
0.0
  9
$DIMTOL
 70
     0
  9
$DIMLIM
 70
     0
  9
$DIMTIH
 70
     0
  9
$DIMTOH
 70
     0
  9
$DIMSE1
 70
     0
  9
$DIMSE2
 70
     0
  9
$DIMTAD
 70
     1
  9
$DIMZIN
 70
    11
  9
$DIMBLK
  1
TerminatorOpen_0.5
  9
$DIMASO
 70
     1
  9
$DIMSHO
 70
     1
  9
$DIMPOST
  1

  9
$DIMAPOST
  1

  9
$DIMALT
 70
     0
  9
$DIMALTD
 70
     4
  9
$DIMALTF
 40
1.0
  9
$DIMLFAC
 40
3.28084
  9
$DIMTOFL
 70
     0
  9
$DIMTVP
 40
0.0
  9
$DIMTIX
 70
     0
  9
$DIMSOXD
 70
     0
  9
$DIMSAH
 70
     0
  9
$DIMBLK1
  1

  9
$DIMBLK2
  1

  9
$DIMSTYLE
  2
Standard
  9
$DIMCLRD
 70
     0
  9
$DIMCLRE
 70
     0
  9
$DIMCLRT
 70
     0
  9
$DIMTFAC
 40
1.0
  9
$DIMGAP
 40
1.520958
  9
$DIMJUST
 70
     0
  9
$DIMSD1
 70
     0
  9
$DIMSD2
 70
     0
  9
$DIMTOLJ
 70
     0
  9
$DIMTZIN
 70
    11
  9
$DIMALTZ
 70
    15
  9
$DIMALTTZ
 70
    15
  9
$DIMUPT
 70
     0
  9
$DIMDEC
 70
     4
  9
$DIMTDEC
 70
     4
  9
$DIMALTU
 70
     2
  9
$DIMALTTD
 70
     4
  9
$DIMTXSTY
  7
Style-Garamond
  9
$DIMAUNIT
 70
     0
  9
$DIMADEC
 70
     4
  9
$DIMALTRND
 40
0.0
  9
$DIMAZIN
 70
     3
  9
$DIMDSEP
 70
    46
  9
$DIMATFIT
 70
     3
  9
$DIMFRAC
 70
     2
  9
$DIMLDRBLK
  1
TerminatorOpen_0.5
  9
$DIMLUNIT
 70
     2
  9
$DIMLWD
 70
    -2
  9
$DIMLWE
 70
    -2
  9
$DIMTMOVE
 70
     0
  9
$LUNITS
 70
     3
  9
$LUPREC
 70
     4
  9
$SKETCHINC
 40
0.1
  9
$FILLETRAD
 40
0.5
  9
$AUNITS
 70
     0
  9
$AUPREC
 70
     4
  9
$MENU
  1
.
  9
$ELEVATION
 40
0.0
  9
$PELEVATION
 40
0.0
  9
$THICKNESS
 40
0.0
  9
$LIMCHECK
 70
     0
  9
$CHAMFERA
 40
0.5
  9
$CHAMFERB
 40
0.5
  9
$CHAMFERC
 40
1.0
  9
$CHAMFERD
 40
0.0
  9
$SKPOLY
 70
     0
  9
$TDCREATE
 40
2451789.537468704
  9
$TDUCREATE
 40
2451789.745802037
  9
$TDUPDATE
 40
2451789.537561297
  9
$TDUUPDATE
 40
2451789.74589463
  9
$TDINDWG
 40
0.0000927662
  9
$TDUSRTIMER
 40
0.0000925926
  9
$USRTIMER
 70
     1
  9
$ANGBASE
 50
0.0
  9
$ANGDIR
 70
     0
  9
$PDMODE
 70
     0
  9
$PDSIZE
 40
0.0
  9
$PLINEWID
 40
0.0
  9
$SPLFRAME
 70
     0
  9
$SPLINETYPE
 70
     6
  9
$SPLINESEGS
 70
     8
  9
$HANDSEED
  5
1D98
  9
$SURFTAB1
 70
     6
  9
$SURFTAB2
 70
     6
  9
$SURFTYPE
 70
     6
  9
$SURFU
 70
     6
  9
$SURFV
 70
     6
  9
$UCSBASE
  2

  9
$UCSNAME
  2

  9
$UCSORG
 10
0.0
 20
0.0
 30
0.0
  9
$UCSXDIR
 10
1.0
 20
0.0
 30
0.0
  9
$UCSYDIR
 10
0.0
 20
1.0
 30
0.0
  9
$UCSORTHOREF
  2

  9
$UCSORTHOVIEW
 70
     0
  9
$UCSORGTOP
 10
0.0
 20
0.0
 30
0.0
  9
$UCSORGBOTTOM
 10
0.0
 20
0.0
 30
0.0
  9
$UCSORGLEFT
 10
0.0
 20
0.0
 30
0.0
  9
$UCSORGRIGHT
 10
0.0
 20
0.0
 30
0.0
  9
$UCSORGFRONT
 10
0.0
 20
0.0
 30
0.0
  9
$UCSORGBACK
 10
0.0
 20
0.0
 30
0.0
  9
$PUCSBASE
  2

  9
$PUCSNAME
  2

  9
$PUCSORG
 10
0.0
 20
0.0
 30
0.0
  9
$PUCSXDIR
 10
1.0
 20
0.0
 30
0.0
  9
$PUCSYDIR
 10
0.0
 20
1.0
 30
0.0
  9
$PUCSORTHOREF
  2

  9
$PUCSORTHOVIEW
 70
     0
  9
$PUCSORGTOP
 10
0.0
 20
0.0
 30
0.0
  9
$PUCSORGBOTTOM
 10
0.0
 20
0.0
 30
0.0
  9
$PUCSORGLEFT
 10
0.0
 20
0.0
 30
0.0
  9
$PUCSORGRIGHT
 10
0.0
 20
0.0
 30
0.0
  9
$PUCSORGFRONT
 10
0.0
 20
0.0
 30
0.0
  9
$PUCSORGBACK
 10
0.0
 20
0.0
 30
0.0
  9
$USERI1
 70
     0
  9
$USERI2
 70
     0
  9
$USERI3
 70
     0
  9
$USERI4
 70
     0
  9
$USERI5
 70
     0
  9
$USERR1
 40
0.0
  9
$USERR2
 40
0.0
  9
$USERR3
 40
0.0
  9
$USERR4
 40
0.0
  9
$USERR5
 40
0.0
  9
$WORLDVIEW
 70
     1
  9
$SHADEDGE
 70
     3
  9
$SHADEDIF
 70
    70
  9
$TILEMODE
 70
     1
  9
$MAXACTVP
 70
    64
  9
$PINSBASE
 10
0.0
 20
0.0
 30
0.0
  9
$PLIMCHECK
 70
     0
  9
$PEXTMIN
 10
1.000000E+20
 20
1.000000E+20
 30
1.000000E+20
  9
$PEXTMAX
 10
-1.000000E+20
 20
-1.000000E+20
 30
-1.000000E+20
  9
$PLIMMIN
 10
0.0
 20
0.0
  9
$PLIMMAX
 10
12.0
 20
9.0
  9
$UNITMODE
 70
     0
  9
$VISRETAIN
 70
     1
  9
$PLINEGEN
 70
     0
  9
$PSLTSCALE
 70
     0
  9
$TREEDEPTH
 70
  3020
  9
$CMLSTYLE
  2
Standard
  9
$CMLJUST
 70
     0
  9
$CMLSCALE
 40
1.0
  9
$PROXYGRAPHICS
 70
     1
  9
$MEASUREMENT
 70
     0
  9
$CELWEIGHT
370
    13
  9
$ENDCAPS
280
     0
  9
$JOINSTYLE
280
     0
  9
$LWDISPLAY
290
     1
  9
$INSUNITS
 70
     0
  9
$HYPERLINKBASE
  1

  9
$STYLESHEET
  1

  9
$XEDIT
290
     1
  9
$CEPSNTYPE
380
     0
  9
$PSTYLEMODE
290
     1
  9
$FINGERPRINTGUID
  2
{FDEAD576-A652-11D2-9A35-0060089B3A3F}
  9
$VERSIONGUID
  2
{A257D680-BC79-11D2-9A46-0060089B3A3F}
  9
$EXTNAMES
290
     1
  9
$PSVPSCALE
 40
0.0
  9
$OLESTARTUP
290
     0
  0
ENDSEC
  0
SECTION
  2
CLASSES
  0
CLASS
  1
ACDBDICTIONARYWDFLT
  2
AcDbDictionaryWithDefault
  3
ObjectDBX Classes
 90
        0
280
     0
281
     0
  0
CLASS
  1
ACDBPLACEHOLDER
  2
AcDbPlaceHolder
  3
ObjectDBX Classes
 90
        0
280
     0
281
     0
  0
CLASS
  1
LAYOUT
  2
AcDbLayout
  3
ObjectDBX Classes
 90
        0
280
     0
281
     0
  0
CLASS
  1
SORTENTSTABLE
  2
AcDbSortentsTable
  3
ObjectDBX Classes
 90
        0
280
     0
281
     0
  0
ENDSEC
  0
SECTION
  2
TABLES
  0
TABLE
  2
VPORT
  5
1B57
330
0
100
AcDbSymbolTable
 70
     1
  0
VPORT
  5
4B
330
1B57
100
AcDbSymbolTableRecord
100
AcDbViewportTableRecord
  2
*ACTIVE
 70
     0
 10
0.0
 20
0.0
 11
1.0
 21
1.0
 12
1739.951075
 22
-4683.584466
 13
0.0
 23
0.0
 14
3.937008
 24
3.937008
 15
3.937008
 25
3.937008
 16
0.0
 26
0.0
 36
1.0
 17
0.0
 27
0.0
 37
0.0
 40
15383.169879
 41
1.520997
 42
50.0
 43
0.0
 44
0.0
 50
0.0
 51
0.0
 71
     0
 72
   100
 73
     1
 74
     2
 75
     0
 76
     0
 77
     0
 78
     1
281
     0
 65
     1
110
0.0
120
0.0
130
0.0
111
1.0
121
0.0
131
0.0
112
0.0
122
1.0
132
0.0
 79
     0
146
0.0
  0
ENDTAB
  0
TABLE
  2
LTYPE
  5
1B53
330
0
100
AcDbSymbolTable
 70
    16
  0
LTYPE
  5
1B54
330
1B53
100
AcDbSymbolTableRecord
100
AcDbLinetypeTableRecord
  2
ByBlock
 70
     0
  3

 72
    65
 73
     0
 40
0.0
  0
LTYPE
  5
1B45
330
1B53
100
AcDbSymbolTableRecord
100
AcDbLinetypeTableRecord
  2
ByLayer
 70
     0
  3

 72
    65
 73
     0
 40
0.0
  0
LTYPE
  5
1B43
330
1B53
100
AcDbSymbolTableRecord
100
AcDbLinetypeTableRecord
  2
Continuous
 70
     0
  3
Solid line
 72
    65
 73
     0
 40
0.0
  0
LTYPE
  5
1B62
330
1B53
100
AcDbSymbolTableRecord
100
AcDbLinetypeTableRecord
  2
DGN Style 2
 70
     0
  3
Dgn Style 2
 72
    65
 73
     2
 40
234.593341
 49
140.756004
 74
     0
 49
-93.837336
 74
     0
  0
LTYPE
  5
1B63
330
1B53
100
AcDbSymbolTableRecord
100
AcDbLinetypeTableRecord
  2
DGN Style 4
 70
     0
  3
Dgn Style 4
 72
    65
 73
     4
 40
375.583938
 49
187.674673
 74
     0
 49
-93.837336
 74
     0
 49
0.234593
 74
     0
 49
-93.837336
 74
     0
  0
LTYPE
  5
1B64
330
1B53
100
AcDbSymbolTableRecord
100
AcDbLinetypeTableRecord
  2
DGN Style 3
 70
     0
  3
Dgn Style 3
 72
    65
 73
     2
 40
328.430677
 49
234.593341
 74
     0
 49
-93.837336
 74
     0
  0
LTYPE
  5
1B65
330
1B53
100
AcDbSymbolTableRecord
100
AcDbLinetypeTableRecord
  2
DGN Style 1
 70
     0
  3
Dgn Style 1
 72
    65
 73
     2
 40
140.990598
 49
0.234593
 74
     0
 49
-140.756004
 74
     0
  0
LTYPE
  5
1B6A
330
1B53
100
AcDbSymbolTableRecord
100
AcDbLinetypeTableRecord
  2
House14_sitemap|DGN Style 4
 70
    16
  3
Dgn Style 4
 72
    65
 73
     4
 40
375.583938
 49
187.674673
 74
     0
 49
-93.837336
 74
     0
 49
0.234593
 74
     0
 49
-93.837336
 74
     0
  0
LTYPE
  5
1B6C
330
1B53
100
AcDbSymbolTableRecord
100
AcDbLinetypeTableRecord
  2
House14_sitemap|DGN Style 2
 70
    16
  3
Dgn Style 2
 72
    65
 73
     2
 40
234.593341
 49
140.756004
 74
     0
 49
-93.837336
 74
     0
  0
LTYPE
  5
1B7B
330
1B53
100
AcDbSymbolTableRecord
100
AcDbLinetypeTableRecord
  2
House24_sitemap|DGN Style 4
 70
    16
  3
Dgn Style 4
 72
    65
 73
     4
 40
375.583938
 49
187.674673
 74
     0
 49
-93.837336
 74
     0
 49
0.234593
 74
     0
 49
-93.837336
 74
     0
  0
LTYPE
  5
1B7E
330
1B53
100
AcDbSymbolTableRecord
100
AcDbLinetypeTableRecord
  2
House24_sitemap|DGN Style 2
 70
    16
  3
Dgn Style 2
 72
    65
 73
     2
 40
234.593341
 49
140.756004
 74
     0
 49
-93.837336
 74
     0
  0
LTYPE
  5
1B8C
330
1B53
100
AcDbSymbolTableRecord
100
AcDbLinetypeTableRecord
  2
House26_sitemap|DGN Style 4
 70
    16
  3
Dgn Style 4
 72
    65
 73
     4
 40
375.583938
 49
187.674673
 74
     0
 49
-93.837336
 74
     0
 49
0.234593
 74
     0
 49
-93.837336
 74
     0
  0
LTYPE
  5
1B8E
330
1B53
100
AcDbSymbolTableRecord
100
AcDbLinetypeTableRecord
  2
House26_sitemap|DGN Style 2
 70
    16
  3
Dgn Style 2
 72
    65
 73
     2
 40
234.593341
 49
140.756004
 74
     0
 49
-93.837336
 74
     0
  0
LTYPE
  5
1B97
330
1B53
100
AcDbSymbolTableRecord
100
AcDbLinetypeTableRecord
  2
House26_sitemap|DGN Style 3
 70
    16
  3
Dgn Style 3
 72
    65
 73
     2
 40
328.430677
 49
234.593341
 74
     0
 49
-93.837336
 74
     0
  0
LTYPE
  5
1BA0
330
1B53
100
AcDbSymbolTableRecord
100
AcDbLinetypeTableRecord
  2
House37_sitemap|DGN Style 2
 70
    16
  3
Dgn Style 2
 72
    65
 73
     2
 40
234.593341
 49
140.756004
 74
     0
 49
-93.837336
 74
     0
  0
LTYPE
  5
1BAC
330
1B53
100
AcDbSymbolTableRecord
100
AcDbLinetypeTableRecord
  2
House37_sitemap|DGN Style 4
 70
    16
  3
Dgn Style 4
 72
    65
 73
     4
 40
375.583938
 49
187.674673
 74
     0
 49
-93.837336
 74
     0
 49
0.234593
 74
     0
 49
-93.837336
 74
     0
  0
LTYPE
  5
1BAF
330
1B53
100
AcDbSymbolTableRecord
100
AcDbLinetypeTableRecord
  2
House37_sitemap|DGN Style 1
 70
    16
  3
Dgn Style 1
 72
    65
 73
     2
 40
140.990598
 49
0.234593
 74
     0
 49
-140.756004
 74
     0
  0
LTYPE
  5
1BD0
330
1B53
100
AcDbSymbolTableRecord
100
AcDbLinetypeTableRecord
  2
DGN Style 6
 70
     0
  3
Dgn Style 6
 72
    65
 73
     6
 40
446.196534
 49
0.234593
 74
     0
 49
-93.837336
 74
     0
 49
164.215338
 74
     0
 49
-93.837336
 74
     0
 49
0.234593
 74
     0
 49
-93.837336
 74
     0
  0
ENDTAB
  0
TABLE
  2
LAYER
  5
1B51
330
0
100
AcDbSymbolTable
 70
    75
  0
LAYER
  5
1B41
330
1B51
100
AcDbSymbolTableRecord
100
AcDbLayerTableRecord
  2
0
 70
     0
 62
     7
  6
Continuous
370
    -3
390
1B42
  0
LAYER
  5
70
330
1B51
100
AcDbSymbolTableRecord
100
AcDbLayerTableRecord
  2
Fenceline
 70
     0
 62
    32
  6
DGN Style 2
370
     0
390
1B42
  0
LAYER
  5
72
330
1B51
100
AcDbSymbolTableRecord
100
AcDbLayerTableRecord
  2
Aqueduct
 70
     0
 62
    48
  6
DGN Style 4
370
     0
390
1B42
  0
LAYER
  5
76
330
1B51
100
AcDbSymbolTableRecord
100
AcDbLayerTableRecord
  2
Stone Wall
 70
     0
 62
   251
  6
DGN Style 3
370
     0
390
1B42
  0
LAYER
  5
79
330
1B51
100
AcDbSymbolTableRecord
100
AcDbLayerTableRecord
  2
Structures
 70
     0
 62
   178
  6
Continuous
370
     0
390
1B42
  0
LAYER
  5
144
330
1B51
100
AcDbSymbolTableRecord
100
AcDbLayerTableRecord
  2
Pond
 70
     0
 62
   132
  6
Continuous
370
    13
390
1B42
  0
LAYER
  5
14B
330
1B51
100
AcDbSymbolTableRecord
100
AcDbLayerTableRecord
  2
Sunken Footpath
 70
     0
 62
    96
  6
DGN Style 2
370
     0
390
1B42
  0
LAYER
  5
19A
330
1B51
100
AcDbSymbolTableRecord
100
AcDbLayerTableRecord
  2
Structure Numbers
 70
     0
 62
     1
  6
Continuous
370
     0
390
1B42
  0
LAYER
  5
19C
330
1B51
100
AcDbSymbolTableRecord
100
AcDbLayerTableRecord
  2
Datum
 70
     0
 62
   214
  6
Continuous
370
    30
390
1B42
  0
LAYER
  5
19E
330
1B51
100
AcDbSymbolTableRecord
100
AcDbLayerTableRecord
  2
Tombs
 70
     0
 62
   253
  6
Continuous
370
     0
390
1B42
  0
LAYER
  5
1BC
330
1B51
100
AcDbSymbolTableRecord
100
AcDbLayerTableRecord
  2
Probable graves
 70
     0
 62
   253
  6
DGN Style 1
370
     0
390
1B42
  0
LAYER
  5
1CA
330
1B51
100
AcDbSymbolTableRecord
100
AcDbLayerTableRecord
  2
1204 Quadrats
 70
     0
 62
   178
  6
DGN Style 4
370
     0
390
1B42
  0
LAYER
  5
1D3
330
1B51
100
AcDbSymbolTableRecord
100
AcDbLayerTableRecord
  2
Grove
 70
     0
 62
    94
  6
Continuous
370
     0
390
1B42
  0
LAYER
  5
1D8
330
1B51
100
AcDbSymbolTableRecord
100
AcDbLayerTableRecord
  2
Key
 70
     0
 62
     7
  6
Continuous
370
     0
390
1B42
  0
LAYER
  5
1DC
330
1B51
100
AcDbSymbolTableRecord
100
AcDbLayerTableRecord
  2
Base Map 2
 70
     0
 62
     1
  6
Continuous
370
     0
390
1B42
  0
LAYER
  5
1FC
330
1B51
100
AcDbSymbolTableRecord
100
AcDbLayerTableRecord
  2
Quadrat Outlines
 70
     0
 62
   178
  6
DGN Style 4
370
     0
390
1B42
  0
LAYER
  5
4F3
330
1B51
100
AcDbSymbolTableRecord
100
AcDbLayerTableRecord
  2
Scale
 70
     0
 62
   250
  6
Continuous
370
     0
390
1B42
  0
LAYER
  5
592
330
1B51
100
AcDbSymbolTableRecord
100
AcDbLayerTableRecord
  2
Depression Features
 70
     0
 62
   250
  6
Continuous
370
    13
390
1B42
  0
LAYER
  5
715
330
1B51
100
AcDbSymbolTableRecord
100
AcDbLayerTableRecord
  2
New Level (0)
 70
     0
 62
   250
  6
Continuous
370
     0
390
1B42
  0
LAYER
  5
1B69
330
1B51
100
AcDbSymbolTableRecord
100
AcDbLayerTableRecord
  2
House14_sitemap|Quadrat Outlines
 70
    16
 62
   178
  6
House14_sitemap|DGN Style 4
370
     0
390
1B42
  0
LAYER
  5
1B6B
330
1B51
100
AcDbSymbolTableRecord
100
AcDbLayerTableRecord
  2
House14_sitemap|Building Outline
 70
    16
 62
    92
  6
House14_sitemap|DGN Style 2
370
    53
390
1B42
  0
LAYER
  5
1B6D
330
1B51
100
AcDbSymbolTableRecord
100
AcDbLayerTableRecord
  2
House14_sitemap|Legend_Scale_Arrow
 70
    16
 62
   250
  6
Continuous
370
    30
390
1B42
  0
LAYER
  5
1B6E
330
1B51
100
AcDbSymbolTableRecord
100
AcDbLayerTableRecord
  2
House14_sitemap|Key
 70
    16
 62
     7
  6
Continuous
370
     0
390
1B42
  0
LAYER
  5
1B6F
330
1B51
100
AcDbSymbolTableRecord
100
AcDbLayerTableRecord
  2
House14_sitemap|Base Map 2
 70
    16
 62
     1
  6
Continuous
370
     0
390
1B42
  0
LAYER
  5
1B70
330
1B51
100
AcDbSymbolTableRecord
100
AcDbLayerTableRecord
  2
House14_sitemap|Scale
 70
    16
 62
   250
  6
Continuous
370
     0
390
1B42
  0
LAYER
  5
1B71
330
1B51
100
AcDbSymbolTableRecord
100
AcDbLayerTableRecord
  2
House14_sitemap|Grid Coordinates
 70
    16
 62
     7
  6
Continuous
370
     0
390
1B42
  0
LAYER
  5
1B72
330
1B51
100
AcDbSymbolTableRecord
100
AcDbLayerTableRecord
  2
House14_sitemap|Field notes
 70
    16
 62
     1
  6
Continuous
370
    13
390
1B42
  0
LAYER
  5
1B73
330
1B51
100
AcDbSymbolTableRecord
100
AcDbLayerTableRecord
  2
House14_sitemap|Stone Foundation
 70
    16
 62
   250
  6
Continuous
370
    13
390
1B42
  0
LAYER
  5
1B74
330
1B51
100
AcDbSymbolTableRecord
100
AcDbLayerTableRecord
  2
House14_sitemap|Features
 70
    16
 62
   250
  6
Continuous
370
    13
390
1B42
  0
LAYER
  5
1B75
330
1B51
100
AcDbSymbolTableRecord
100
AcDbLayerTableRecord
  2
House14_sitemap|Quadrat IDs
 70
    16
 62
   250
  6
Continuous
370
     0
390
1B42
  0
LAYER
  5
1B76
330
1B51
100
AcDbSymbolTableRecord
100
AcDbLayerTableRecord
  2
House14_sitemap|Feature Numbers
 70
    16
 62
   250
  6
Continuous
370
     0
390
1B42
  0
LAYER
  5
1B7A
330
1B51
100
AcDbSymbolTableRecord
100
AcDbLayerTableRecord
  2
House24_sitemap|Limits of Excavation
 70
    16
 62
   178
  6
House24_sitemap|DGN Style 4
370
     0
390
1B42
  0
LAYER
  5
1B7C
330
1B51
100
AcDbSymbolTableRecord
100
AcDbLayerTableRecord
  2
House24_sitemap|Quadrat Outlines
 70
    16
 62
   178
  6
House24_sitemap|DGN Style 4
370
     0
390
1B42
  0
LAYER
  5
1B7D
330
1B51
100
AcDbSymbolTableRecord
100
AcDbLayerTableRecord
  2
House24_sitemap|Building Outline
 70
    16
 62
    92
  6
House24_sitemap|DGN Style 2
370
    53
390
1B42
  0
LAYER
  5
1B7F
330
1B51
100
AcDbSymbolTableRecord
100
AcDbLayerTableRecord
  2
House24_sitemap|Key
 70
    16
 62
     7
  6
Continuous
370
     0
390
1B42
  0
LAYER
  5
1B80
330
1B51
100
AcDbSymbolTableRecord
100
AcDbLayerTableRecord
  2
House24_sitemap|Base Map 2
 70
    16
 62
     1
  6
Continuous
370
     0
390
1B42
  0
LAYER
  5
1B81
330
1B51
100
AcDbSymbolTableRecord
100
AcDbLayerTableRecord
  2
House24_sitemap|Scale
 70
    16
 62
   250
  6
Continuous
370
     0
390
1B42
  0
LAYER
  5
1B82
330
1B51
100
AcDbSymbolTableRecord
100
AcDbLayerTableRecord
  2
House24_sitemap|Scale_Legend_Arrow
 70
    16
 62
     7
  6
Continuous
370
     0
390
1B42
  0
LAYER
  5
1B83
330
1B51
100
AcDbSymbolTableRecord
100
AcDbLayerTableRecord
  2
House24_sitemap|Stone
 70
    16
 62
   250
  6
Continuous
370
    13
390
1B42
  0
LAYER
  5
1B84
330
1B51
100
AcDbSymbolTableRecord
100
AcDbLayerTableRecord
  2
House24_sitemap|Platform--conjectural
 70
    16
 62
    46
  6
House24_sitemap|DGN Style 2
370
    13
390
1B42
  0
LAYER
  5
1B85
330
1B51
100
AcDbSymbolTableRecord
100
AcDbLayerTableRecord
  2
House24_sitemap|Quadrat IDs
 70
    16
 62
   250
  6
Continuous
370
    13
390
1B42
  0
LAYER
  5
1B86
330
1B51
100
AcDbSymbolTableRecord
100
AcDbLayerTableRecord
  2
House24_sitemap|Bedrock
 70
    16
 62
   250
  6
Continuous
370
     0
390
1B42
  0
LAYER
  5
1B87
330
1B51
100
AcDbSymbolTableRecord
100
AcDbLayerTableRecord
  2
House24_sitemap|Feature Numbers
 70
    16
 62
   250
  6
Continuous
370
     0
390
1B42
  0
LAYER
  5
1B8B
330
1B51
100
AcDbSymbolTableRecord
100
AcDbLayerTableRecord
  2
House26_sitemap|Quadrat Outlines
 70
    16
 62
   178
  6
House26_sitemap|DGN Style 4
370
     0
390
1B42
  0
LAYER
  5
1B8D
330
1B51
100
AcDbSymbolTableRecord
100
AcDbLayerTableRecord
  2
House26_sitemap|Building Outline
 70
    16
 62
    92
  6
House26_sitemap|DGN Style 2
370
    53
390
1B42
  0
LAYER
  5
1B8F
330
1B51
100
AcDbSymbolTableRecord
100
AcDbLayerTableRecord
  2
House26_sitemap|Key
 70
    16
 62
     7
  6
Continuous
370
     0
390
1B42
  0
LAYER
  5
1B90
330
1B51
100
AcDbSymbolTableRecord
100
AcDbLayerTableRecord
  2
House26_sitemap|Base Map 2
 70
    16
 62
     1
  6
Continuous
370
     0
390
1B42
  0
LAYER
  5
1B91
330
1B51
100
AcDbSymbolTableRecord
100
AcDbLayerTableRecord
  2
House26_sitemap|Scale
 70
    16
 62
   250
  6
Continuous
370
     0
390
1B42
  0
LAYER
  5
1B92
330
1B51
100
AcDbSymbolTableRecord
100
AcDbLayerTableRecord
  2
House26_sitemap|Scale_Arrow_Legend
 70
    16
 62
   250
  6
Continuous
370
    30
390
1B42
  0
LAYER
  5
1B93
330
1B51
100
AcDbSymbolTableRecord
100
AcDbLayerTableRecord
  2
House26_sitemap|Grid Coordinates
 70
    16
 62
     7
  6
Continuous
370
     0
390
1B42
  0
LAYER
  5
1B94
330
1B51
100
AcDbSymbolTableRecord
100
AcDbLayerTableRecord
  2
House26_sitemap|Quadrats outside house
 70
    16
 62
   178
  6
House26_sitemap|DGN Style 4
370
     0
390
1B42
  0
LAYER
  5
1B95
330
1B51
100
AcDbSymbolTableRecord
100
AcDbLayerTableRecord
  2
House26_sitemap|Arbitrary Pits
 70
    16
 62
   250
  6
Continuous
370
    13
390
1B42
  0
LAYER
  5
1B96
330
1B51
100
AcDbSymbolTableRecord
100
AcDbLayerTableRecord
  2
House26_sitemap|Partition Outline
 70
    16
 62
    46
  6
House26_sitemap|DGN Style 3
370
    13
390
1B42
  0
LAYER
  5
1B98
330
1B51
100
AcDbSymbolTableRecord
100
AcDbLayerTableRecord
  2
House26_sitemap|Depression Features
 70
    16
 62
   250
  6
Continuous
370
    13
390
1B42
  0
LAYER
  5
1B99
330
1B51
100
AcDbSymbolTableRecord
100
AcDbLayerTableRecord
  2
House26_sitemap|Feature Numbers
 70
    16
 62
   250
  6
Continuous
370
     0
390
1B42
  0
LAYER
  5
1B9A
330
1B51
100
AcDbSymbolTableRecord
100
AcDbLayerTableRecord
  2
House26_sitemap|Stone Foundation
 70
    16
 62
   250
  6
Continuous
370
    13
390
1B42
  0
LAYER
  5
1B9B
330
1B51
100
AcDbSymbolTableRecord
100
AcDbLayerTableRecord
  2
House26_sitemap|Scale_Legend_Arrow
 70
    16
 62
     7
  6
Continuous
370
     0
390
1B42
  0
LAYER
  5
1B9F
330
1B51
100
AcDbSymbolTableRecord
100
AcDbLayerTableRecord
  2
House37_sitemap|Building Outline
 70
    16
 62
    92
  6
House37_sitemap|DGN Style 2
370
    53
390
1B42
  0
LAYER
  5
1BA1
330
1B51
100
AcDbSymbolTableRecord
100
AcDbLayerTableRecord
  2
House37_sitemap|field notes guidelines
 70
    16
 62
     1
  6
Continuous
370
     0
390
1B42
  0
LAYER
  5
1BA2
330
1B51
100
AcDbSymbolTableRecord
100
AcDbLayerTableRecord
  2
House37_sitemap|Scale
 70
    16
 62
   250
  6
Continuous
370
     0
390
1B42
  0
LAYER
  5
1BA3
330
1B51
100
AcDbSymbolTableRecord
100
AcDbLayerTableRecord
  2
House37_sitemap|Scale_Legend_Arrow
 70
    16
 62
     7
  6
Continuous
370
     0
390
1B42
  0
LAYER
  5
1BA4
330
1B51
100
AcDbSymbolTableRecord
100
AcDbLayerTableRecord
  2
House37_sitemap|Feature Numbers
 70
    16
 62
   250
  6
Continuous
370
     0
390
1B42
  0
LAYER
  5
1BA5
330
1B51
100
AcDbSymbolTableRecord
100
AcDbLayerTableRecord
  2
House37_sitemap|Quadrat IDs
 70
    16
 62
   250
  6
Continuous
370
    13
390
1B42
  0
LAYER
  5
1BA6
330
1B51
100
AcDbSymbolTableRecord
100
AcDbLayerTableRecord
  2
House37_sitemap|Key
 70
    16
 62
     7
  6
Continuous
370
     0
390
1B42
  0
LAYER
  5
1BA7
330
1B51
100
AcDbSymbolTableRecord
100
AcDbLayerTableRecord
  2
House37_sitemap|Base Map 2
 70
    16
 62
    -1
  6
Continuous
370
     0
390
1B42
  0
LAYER
  5
1BA8
330
1B51
100
AcDbSymbolTableRecord
100
AcDbLayerTableRecord
  2
House37_sitemap|Plaster Platform
 70
    16
 62
    41
  6
Continuous
370
    13
390
1B42
  0
LAYER
  5
1BA9
330
1B51
100
AcDbSymbolTableRecord
100
AcDbLayerTableRecord
  2
House37_sitemap|Other Features
 70
    16
 62
    46
  6
House37_sitemap|DGN Style 2
370
    13
390
1B42
  0
LAYER
  5
1BAA
330
1B51
100
AcDbSymbolTableRecord
100
AcDbLayerTableRecord
  2
House37_sitemap|Rubble Overlay
 70
    16
 62
   250
  6
Continuous
370
     0
390
1B42
  0
LAYER
  5
1BAB
330
1B51
100
AcDbSymbolTableRecord
100
AcDbLayerTableRecord
  2
House37_sitemap|Quadrat Outlines
 70
    16
 62
   178
  6
House37_sitemap|DGN Style 4
370
     0
390
1B42
  0
LAYER
  5
1BAD
330
1B51
100
AcDbSymbolTableRecord
100
AcDbLayerTableRecord
  2
House37_sitemap|Foundation
 70
    16
 62
   250
  6
Continuous
370
    13
390
1B42
  0
LAYER
  5
1BAE
330
1B51
100
AcDbSymbolTableRecord
100
AcDbLayerTableRecord
  2
House37_sitemap|Stone Wall
 70
    16
 62
     5
  6
House37_sitemap|DGN Style 1
370
    13
390
1B42
  0
LAYER
  5
1BB0
330
1B51
100
AcDbSymbolTableRecord
100
AcDbLayerTableRecord
  2
House37_sitemap|Plaster Shadowing
 70
    16
 62
     7
  6
Continuous
370
     0
390
1B42
  0
LAYER
  5
1BB1
330
1B51
100
AcDbSymbolTableRecord
100
AcDbLayerTableRecord
  2
House37_sitemap|Plaster Floor
 70
    16
 62
     7
  6
Continuous
370
     0
390
1B42
  0
LAYER
  5
1BB2
330
1B51
100
AcDbSymbolTableRecord
100
AcDbLayerTableRecord
  2
House37_sitemap|Deleted Features
 70
    16
 62
   250
  6
Continuous
370
     0
390
1B42
  0
LAYER
  5
1BB3
330
1B51
100
AcDbSymbolTableRecord
100
AcDbLayerTableRecord
  2
House37_sitemap|Partition_Conjectural
 70
    16
 62
   251
  6
Continuous
370
     0
390
1B42
  0
ENDTAB
  0
TABLE
  2
STYLE
  5
1B52
330
0
100
AcDbSymbolTable
 70
     3
  0
STYLE
  5
1B44
330
1B52
100
AcDbSymbolTableRecord
100
AcDbTextStyleTableRecord
  2
Standard
 70
     0
 40
0.0
 41
1.0
 50
0.0
 71
     0
 42
3.041915
  3
txt
  4

  0
STYLE
  5
1DE
330
1B52
100
AcDbSymbolTableRecord
100
AcDbTextStyleTableRecord
  2
STD
 70
     0
 40
0.0
 41
1.0
 50
0.0
 71
     0
 42
0.2
  3
txt.shx
  4

  0
STYLE
  5
1BB8
330
1B52
100
AcDbSymbolTableRecord
100
AcDbTextStyleTableRecord
  2
Style-Garamond
 70
     0
 40
0.0
 41
1.0
 50
0.0
 71
     0
 42
0.2
  3

  4

1001
ACAD
1000
Garamond
1071
       23
  0
ENDTAB
  0
TABLE
  2
VIEW
  5
1B55
330
0
100
AcDbSymbolTable
 70
     0
  0
ENDTAB
  0
TABLE
  2
UCS
  5
1B56
330
0
100
AcDbSymbolTable
 70
     0
  0
ENDTAB
  0
TABLE
  2
APPID
  5
1B58
330
0
100
AcDbSymbolTable
 70
     1
  0
APPID
  5
1B60
330
1B58
100
AcDbSymbolTableRecord
100
AcDbRegAppTableRecord
  2
ACAD
 70
     0
  0
ENDTAB
  0
TABLE
  2
DIMSTYLE
  5
1B59
330
0
100
AcDbSymbolTable
 70
     1
100
AcDbDimStyleTable
  0
DIMSTYLE
105
1B46
330
1B59
100
AcDbSymbolTableRecord
100
AcDbDimStyleTableRecord
  2
Standard
 70
     0
 42
0.0625
340
1B44
  0
ENDTAB
  0
TABLE
  2
BLOCK_RECORD
  5
1B48
330
0
100
AcDbSymbolTable
 70
     7
  0
BLOCK_RECORD
  5
1B49
102
{ACAD_XDICTIONARY
360
1D95
102
}
330
1B48
100
AcDbSymbolTableRecord
100
AcDbBlockTableRecord
  2
*Model_Space
340
1B4C
  0
BLOCK_RECORD
  5
1B4D
330
1B48
100
AcDbSymbolTableRecord
100
AcDbBlockTableRecord
  2
*Paper_Space
340
1B50
  0
BLOCK_RECORD
  5
1B66
330
1B48
100
AcDbSymbolTableRecord
100
AcDbBlockTableRecord
  2
House14_sitemap
340
0
102
{BLKREFS
331
641
102
}
  0
BLOCK_RECORD
  5
1B77
330
1B48
100
AcDbSymbolTableRecord
100
AcDbBlockTableRecord
  2
House24_sitemap
340
0
102
{BLKREFS
331
658
102
}
  0
BLOCK_RECORD
  5
1B88
330
1B48
100
AcDbSymbolTableRecord
100
AcDbBlockTableRecord
  2
House26_sitemap
340
0
102
{BLKREFS
331
66F
102
}
  0
BLOCK_RECORD
  5
1B9C
330
1B48
100
AcDbSymbolTableRecord
100
AcDbBlockTableRecord
  2
House37_sitemap
340
0
102
{BLKREFS
331
688
102
}
  0
BLOCK_RECORD
  5
1DF
330
1B48
100
AcDbSymbolTableRecord
100
AcDbBlockTableRecord
  2
AI9-BLK61
340
0
102
{BLKREFS
331
3BE
102
}
  0
BLOCK_RECORD
  5
1BB9
330
1B48
100
AcDbSymbolTableRecord
100
AcDbBlockTableRecord
  2
TerminatorOpen_0.5
340
0
  0
BLOCK_RECORD
  5
1BD5
330
1B48
100
AcDbSymbolTableRecord
100
AcDbBlockTableRecord
  2
*U6
340
0
102
{BLKREFS
331
510
102
}
  0
ENDTAB
  0
ENDSEC
  0
SECTION
  2
BLOCKS
  0
BLOCK
  5
1B4A
330
1B49
100
AcDbEntity
  8
0
100
AcDbBlockBegin
  2
*Model_Space
 70
     0
 71
     0
 10
0.0
 20
0.0
 30
0.0
  3
*Model_Space
  1

  0
ENDBLK
  5
1B4B
330
1B49
100
AcDbEntity
  8
0
100
AcDbBlockEnd
  0
BLOCK
  5
1B4E
330
1B4D
100
AcDbEntity
 67
     1
  8
0
100
AcDbBlockBegin
  2
*Paper_Space
 70
     0
 71
     0
 10
0.0
 20
0.0
 30
0.0
  3
*Paper_Space
  1

  0
ENDBLK
  5
1B4F
330
1B4D
100
AcDbEntity
 67
     1
  8
0
100
AcDbBlockEnd
  0
BLOCK
  5
1B67
330
1B66
100
AcDbEntity
  8
0
100
AcDbBlockBegin
  2
House14_sitemap
 70
    68
 71
     0
 10
0.0
 20
0.0
 30
0.0
  3
House14_sitemap
  1
P:\DAACS\Archaeological Sites\Jamaica Sites\Montpelier\MicroStation Site Maps\House 14\House14_sitemap.dwg
  0
ENDBLK
  5
1B68
330
1B66
100
AcDbEntity
  8
0
100
AcDbBlockEnd
  0
BLOCK
  5
1B78
330
1B77
100
AcDbEntity
  8
0
100
AcDbBlockBegin
  2
House24_sitemap
 70
    68
 71
     0
 10
0.0
 20
0.0
 30
0.0
  3
House24_sitemap
  1
P:\DAACS\Archaeological Sites\Jamaica Sites\Montpelier\MicroStation Site Maps\House 24\House24_sitemap.dwg
  0
ENDBLK
  5
1B79
330
1B77
100
AcDbEntity
  8
0
100
AcDbBlockEnd
  0
BLOCK
  5
1B89
330
1B88
100
AcDbEntity
  8
0
100
AcDbBlockBegin
  2
House26_sitemap
 70
    68
 71
     0
 10
0.0
 20
0.0
 30
0.0
  3
House26_sitemap
  1
P:\DAACS\Archaeological Sites\Jamaica Sites\Montpelier\MicroStation Site Maps\House 26\House26_sitemap.dwg
  0
ENDBLK
  5
1B8A
330
1B88
100
AcDbEntity
  8
0
100
AcDbBlockEnd
  0
BLOCK
  5
1B9D
330
1B9C
100
AcDbEntity
  8
0
100
AcDbBlockBegin
  2
House37_sitemap
 70
    68
 71
     0
 10
0.0
 20
0.0
 30
0.0
  3
House37_sitemap
  1
P:\DAACS\Archaeological Sites\Jamaica Sites\Montpelier\MicroStation Site Maps\House 37\House37_sitemap.dwg
  0
ENDBLK
  5
1B9E
330
1B9C
100
AcDbEntity
  8
0
100
AcDbBlockEnd
  0
BLOCK
  5
1BB6
330
1DF
100
AcDbEntity
  8
0
100
AcDbBlockBegin
  2
AI9-BLK61
 70
     0
 71
     0
 10
0.0
 20
0.0
 30
0.0
  3
AI9-BLK61
  1

  0
MTEXT
  5
1E0
330
1DF
100
AcDbEntity
  8
0
 62
     0
100
AcDbMText
 10
-8.572092
 20
31.10448
 30
0.0
 40
51.026772
 41
0.0
 71
     1
 72
     1
  1
\fTimes New Roman PS|b0|i0|c0|p39; 
  7
STD
 73
     1
 44
1.0
  0
ENDBLK
  5
1BB7
330
1DF
100
AcDbEntity
  8
0
100
AcDbBlockEnd
  0
BLOCK
  5
1BBD
330
1BB9
100
AcDbEntity
  8
0
100
AcDbBlockBegin
  2
TerminatorOpen_0.5
 70
     0
 71
     0
 10
0.0
 20
0.0
 30
0.0
  3
TerminatorOpen_0.5
  1

  0
LINE
  5
1BBA
330
1BB9
100
AcDbEntity
  8
0
  6
ByBlock
 62
     0
370
    -2
100
AcDbLine
 10
0.0
 20
0.0
 30
0.0
 11
-1.0
 21
0.0
 31
0.0
  0
LINE
  5
1BBB
330
1BB9
100
AcDbEntity
  8
0
  6
ByBlock
 62
     0
370
    -2
100
AcDbLine
 10
0.0
 20
0.0
 30
0.0
 11
-1.0
 21
0.25
 31
0.0
  0
LINE
  5
1BBC
330
1BB9
100
AcDbEntity
  8
0
  6
ByBlock
 62
     0
370
    -2
100
AcDbLine
 10
0.0
 20
0.0
 30
0.0
 11
-1.0
 21
-0.25
 31
0.0
  0
ENDBLK
  5
1BBE
330
1BB9
100
AcDbEntity
  8
0
100
AcDbBlockEnd
  0
BLOCK
  5
1BD6
330
1BD5
100
AcDbEntity
  8
0
100
AcDbBlockBegin
  2
*U6
 70
     1
 71
     0
 10
0.0
 20
0.0
 30
0.0
  3
*U6
  1

  0
TEXT
  5
408
330
1BD5
100
AcDbEntity
  8
Key
100
AcDbText
 10
-129.700017
 20
18.167834
 30
0.0
 40
19.482475
  1
0
 41
1.184186
  7
Style-Garamond
 11
-129.700017
 21
37.650309
 31
0.0
100
AcDbText
 73
     3
  0
TEXT
  5
409
330
1BD5
100
AcDbEntity
  8
Key
100
AcDbText
 10
-14.877272
 20
18.472378
 30
0.0
 40
19.482475
  1
10
 41
1.184186
  7
Style-Garamond
 11
-14.877272
 21
37.954853
 31
0.0
100
AcDbText
 73
     3
  0
TEXT
  5
40A
330
1BD5
100
AcDbEntity
  8
Key
100
AcDbText
 10
106.036361
 20
17.2542
 30
0.0
 40
19.482475
  1
20
 41
1.184186
  7
Style-Garamond
 11
106.036361
 21
36.736676
 31
0.0
100
AcDbText
 73
     3
  0
LWPOLYLINE
  5
4F4
330
1BD5
100
AcDbEntity
  8
Scale
 62
   250
370
    13
100
AcDbPolyline
 90
        5
 70
   128
 43
0.0
 10
-0.310454
 20
-1.498261
 10
-119.813422
 20
-1.498261
 10
-119.813422
 20
10.452036
 10
-0.310454
 20
10.452036
 10
-0.310454
 20
-1.498261
  0
LWPOLYLINE
  5
4F8
330
1BD5
100
AcDbEntity
  8
Scale
 62
   250
370
    13
100
AcDbPolyline
 90
        5
 70
   128
 43
0.0
 10
-0.310454
 20
-13.448558
 10
-119.813422
 20
-13.448558
 10
-119.813422
 20
-1.498261
 10
-0.310454
 20
-1.498261
 10
-0.310454
 20
-13.448558
  0
LWPOLYLINE
  5
4FC
330
1BD5
100
AcDbEntity
  8
Scale
 62
   250
370
    13
100
AcDbPolyline
 90
        5
 70
   128
 43
0.0
 10
119.459834
 20
-1.498261
 10
-0.043135
 20
-1.498261
 10
-0.043135
 20
10.452036
 10
119.459834
 20
10.452036
 10
119.459834
 20
-1.498261
  0
LWPOLYLINE
  5
500
330
1BD5
100
AcDbEntity
  8
Scale
 62
   250
370
    13
100
AcDbPolyline
 90
        5
 70
   128
 43
0.0
 10
119.459834
 20
-13.448558
 10
-0.043135
 20
-13.448558
 10
-0.043135
 20
-1.498261
 10
119.459834
 20
-1.498261
 10
119.459834
 20
-13.448558
  0
TEXT
  5
506
330
1BD5
100
AcDbEntity
  8
Scale
  6
Continuous
 62
   250
370
    13
100
AcDbText
 10
-139.029036
 20
-36.53816
 30
0.0
 40
22.312438
  1
Feet
  7
Style-Garamond
 11
-139.029036
 21
-14.225723
 31
0.0
100
AcDbText
 73
     3
  0
SOLID
  5
508
330
1BD5
100
AcDbEntity
  8
Key
100
AcDbTrace
 10
0.310454
 20
10.452036
 30
0.0
 11
119.813422
 21
10.452036
 31
0.0
 12
0.310454
 22
-1.498261
 32
0.0
 13
119.813422
 23
-1.498261
 33
0.0
210
0.0
220
0.0
230
-1.0
  0
SOLID
  5
50C
330
1BD5
100
AcDbEntity
  8
Key
100
AcDbTrace
 10
0.043135
 20
-1.498261
 30
0.0
 11
0.043135
 21
-13.448558
 31
0.0
 12
-119.459834
 22
-1.498261
 32
0.0
 13
-119.459834
 23
-13.448558
 33
0.0
210
0.0
220
0.0
230
-1.0
  0
ENDBLK
  5
1BD7
330
1BD5
100
AcDbEntity
  8
0
100
AcDbBlockEnd
  0
ENDSEC
  0
SECTION
  2
ENTITIES
  0
SPLINE
  5
262
330
1B49
100
AcDbEntity
  8
Fenceline
100
AcDbSpline
210
0.0
220
0.0
230
1.0
 70
     8
 71
     3
 72
    38
 73
    34
 74
     0
 42
0.0000000001
 43
0.00000001
 40
0.0
 40
0.0
 40
0.0
 40
0.0
 40
0.108146841433431
 40
0.108146841433431
 40
0.108146841433431
 40
0.2100691026088393
 40
0.2100691026088393
 40
0.2100691026088393
 40
0.3142029035868414
 40
0.3142029035868414
 40
0.3142029035868414
 40
0.5320018139712084
 40
0.5320018139712084
 40
0.5320018139712084
 40
0.6538926992488338
 40
0.6538926992488338
 40
0.6538926992488338
 40
0.8228700894984016
 40
0.8228700894984016
 40
0.8228700894984016
 40
0.8470276987564002
 40
0.8470276987564002
 40
0.8470276987564002
 40
0.8561201909897011
 40
0.8561201909897011
 40
0.8561201909897011
 40
0.863891814907102
 40
0.863891814907102
 40
0.863891814907102
 40
0.8936095316202497
 40
0.8936095316202497
 40
0.8936095316202497
 40
1.0
 40
1.0
 40
1.0
 40
1.0
 10
2896.231453229031
 20
4082.290906719045
 30
0.0
 10
2623.531187831374
 20
4034.56836027445
 30
0.0
 10
2350.830922433715
 20
3986.845813829863
 30
0.0
 10
2078.130657036058
 20
3939.123267385276
 30
0.0
 10
1821.126131484827
 20
3894.1474754138
 30
0.0
 10
1564.703064583448
 20
3845.84140479704
 30
0.0
 10
1308.604595617042
 20
3795.955628051506
 30
0.0
 10
1046.949225234099
 20
3744.987414754967
 30
0.0
 10
785.3334399717587
 20
3693.835318751491
 30
0.0
 10
523.7391442694316
 20
3642.561728765326
 30
0.0
 10
-23.39302637675792
 20
3535.321505844415
 30
0.0
 10
-570.4954885339212
 20
3427.933908567244
 30
0.0
 10
-1117.575578092712
 20
3320.434540264334
 30
0.0
 10
-1423.748259656639
 20
3260.272654485834
 30
0.0
 10
-1729.327728697186
 20
3197.102920522306
 30
0.0
 10
-2035.382408821681
 20
3136.36186112092
 30
0.0
 10
-2459.666152461014
 20
3052.156502572067
 30
0.0
 10
-2885.946207394101
 20
2978.50593152269
 30
0.0
 10
-3311.108337885111
 20
2898.601317227338
 30
0.0
 10
-3371.89102960813
 20
2887.177869112726
 30
0.0
 10
-3432.196720562879
 20
2873.851636531599
 30
0.0
 10
-3492.624452040396
 20
2860.252842405793
 30
0.0
 10
-3515.368369837368
 20
2855.134499417021
 30
0.0
 10
-3535.877764121877
 20
2844.861355990332
 30
0.0
 10
-3556.538576742976
 20
2832.130627536659
 30
0.0
 10
-3574.197988640077
 20
2821.249294762554
 30
0.0
 10
-3590.909496657368
 20
2807.868824826488
 30
0.0
 10
-3597.44361655262
 20
2788.669022738901
 30
0.0
 10
-3622.429272842812
 20
2715.251383716266
 30
0.0
 10
-3636.647717568802
 20
2641.381273770319
 30
0.0
 10
-3648.57491631469
 20
2566.247868773942
 30
0.0
 10
-3691.274706250837
 20
2297.267643082727
 30
0.0
 10
-3733.974496186986
 20
2028.287417391512
 30
0.0
 10
-3776.674286123134
 20
1759.307191700296
 30
0.0
  0
SPLINE
  5
263
330
1B49
100
AcDbEntity
  8
Aqueduct
100
AcDbSpline
210
0.0
220
0.0
230
1.0
 70
     8
 71
     3
 72
    38
 73
    34
 74
     0
 42
0.0000000001
 43
0.00000001
 40
0.0
 40
0.0
 40
0.0
 40
0.0
 40
0.2142788325551291
 40
0.2142788325551291
 40
0.2142788325551291
 40
0.4514839517815973
 40
0.4514839517815973
 40
0.4514839517815973
 40
0.6202441184988196
 40
0.6202441184988196
 40
0.6202441184988196
 40
0.7099360446146097
 40
0.7099360446146097
 40
0.7099360446146097
 40
0.7659524561043768
 40
0.7659524561043768
 40
0.7659524561043768
 40
0.7826795366536367
 40
0.7826795366536367
 40
0.7826795366536367
 40
0.7902166177873069
 40
0.7902166177873069
 40
0.7902166177873069
 40
0.7966654746241035
 40
0.7966654746241035
 40
0.7966654746241035
 40
0.8043128445441099
 40
0.8043128445441099
 40
0.8043128445441099
 40
0.8295812902526121
 40
0.8295812902526121
 40
0.8295812902526121
 40
1.0
 40
1.0
 40
1.0
 40
1.0
 10
2878.335498312294
 20
4151.318161397805
 30
0.0
 10
2295.438681024811
 20
4040.533678579999
 30
0.0
 10
1712.541863737321
 20
3929.749195762237
 30
0.0
 10
1129.645046449841
 20
3818.964712944409
 30
0.0
 10
484.3824818153607
 20
3696.327091010917
 30
0.0
 10
-158.7155751284354
 20
3562.557935230016
 30
0.0
 10
-803.1180845560375
 20
3435.479964728958
 30
0.0
 10
-1261.579838158295
 20
3345.070029404709
 30
0.0
 10
-1720.065234553273
 20
3254.776657491533
 30
0.0
 10
-2178.550048155435
 20
3164.484075990036
 30
0.0
 10
-2422.223580996408
 20
3116.49576389974
 30
0.0
 10
-2666.035667181532
 20
3069.228717927963
 30
0.0
 10
-2909.727634752921
 20
3021.316436656267
 30
0.0
 10
-3061.92360292298
 20
2991.393185151293
 30
0.0
 10
-3213.226375083697
 20
2957.237507796486
 30
0.0
 10
-3364.796202635265
 20
2924.166967108358
 30
0.0
 10
-3410.056522724772
 20
2914.291761196622
 30
0.0
 10
-3454.911287993547
 20
2902.824849696688
 30
0.0
 10
-3499.930644834374
 20
2891.827323743542
 30
0.0
 10
-3520.21598656485
 20
2886.871931489979
 30
0.0
 10
-3539.997410424676
 20
2881.019542660819
 30
0.0
 10
-3559.5369675735
 20
2872.668148577384
 30
0.0
 10
-3576.255350256723
 20
2865.522551511815
 30
0.0
 10
-3588.19938946736
 20
2851.899880533758
 30
0.0
 10
-3599.984115146457
 20
2837.542994106127
 30
0.0
 10
-3613.959019374386
 20
2820.517895830544
 30
0.0
 10
-3627.893851129677
 20
2803.846186762818
 30
0.0
 10
-3632.980472377029
 20
2783.258664468711
 30
0.0
 10
-3649.787690305926
 20
2715.233357101231
 30
0.0
 10
-3665.622353315372
 20
2647.178136108738
 30
0.0
 10
-3680.878410292427
 20
2578.894129363154
 30
0.0
 10
-3783.770276925427
 20
2118.36432629545
 30
0.0
 10
-3886.662143558426
 20
1657.834523227746
 30
0.0
 10
-3989.554010191423
 20
1197.304720160042
 30
0.0
  0
SPLINE
  5
264
330
1B49
100
AcDbEntity
  8
Fenceline
100
AcDbSpline
210
0.0
220
0.0
230
1.0
 70
     8
 71
     3
 72
   119
 73
   115
 74
     0
 42
0.0000000001
 43
0.00000001
 40
0.0
 40
0.0
 40
0.0
 40
0.0
 40
0.0584107068651818
 40
0.0584107068651818
 40
0.0584107068651818
 40
0.1071482365205082
 40
0.1071482365205082
 40
0.1071482365205082
 40
0.1172196166549245
 40
0.1172196166549245
 40
0.1172196166549245
 40
0.1301191123982076
 40
0.1301191123982076
 40
0.1301191123982076
 40
0.1473684996191925
 40
0.1473684996191925
 40
0.1473684996191925
 40
0.1654934967466497
 40
0.1654934967466497
 40
0.1654934967466497
 40
0.1940674355774766
 40
0.1940674355774766
 40
0.1940674355774766
 40
0.2080966774002148
 40
0.2080966774002148
 40
0.2080966774002148
 40
0.2311755707490475
 40
0.2311755707490475
 40
0.2311755707490475
 40
0.2449337410295606
 40
0.2449337410295606
 40
0.2449337410295606
 40
0.2637092778372205
 40
0.2637092778372205
 40
0.2637092778372205
 40
0.2776428917905733
 40
0.2776428917905733
 40
0.2776428917905733
 40
0.2975098926156867
 40
0.2975098926156867
 40
0.2975098926156867
 40
0.3071870151278707
 40
0.3071870151278707
 40
0.3071870151278707
 40
0.3272493422872769
 40
0.3272493422872769
 40
0.3272493422872769
 40
0.3425765902358757
 40
0.3425765902358757
 40
0.3425765902358757
 40
0.3619495357131797
 40
0.3619495357131797
 40
0.3619495357131797
 40
0.371449454438767
 40
0.371449454438767
 40
0.371449454438767
 40
0.3832531833938674
 40
0.3832531833938674
 40
0.3832531833938674
 40
0.3973774056535419
 40
0.3973774056535419
 40
0.3973774056535419
 40
0.4105949388409148
 40
0.4105949388409148
 40
0.4105949388409148
 40
0.4304212386219749
 40
0.4304212386219749
 40
0.4304212386219749
 40
0.463566071824832
 40
0.463566071824832
 40
0.463566071824832
 40
0.5031525848468327
 40
0.5031525848468327
 40
0.5031525848468327
 40
0.5396514544671804
 40
0.5396514544671804
 40
0.5396514544671804
 40
0.5705169416307894
 40
0.5705169416307894
 40
0.5705169416307894
 40
0.6099335138145646
 40
0.6099335138145646
 40
0.6099335138145646
 40
0.6498221407550301
 40
0.6498221407550301
 40
0.6498221407550301
 40
0.7181258704709037
 40
0.7181258704709037
 40
0.7181258704709037
 40
0.7643872366267114
 40
0.7643872366267114
 40
0.7643872366267114
 40
0.8420918803425088
 40
0.8420918803425088
 40
0.8420918803425088
 40
0.8756077680676339
 40
0.8756077680676339
 40
0.8756077680676339
 40
0.879701414069806
 40
0.879701414069806
 40
0.879701414069806
 40
0.8899435826200393
 40
0.8899435826200393
 40
0.8899435826200393
 40
0.9209818933218
 40
0.9209818933218
 40
0.9209818933218
 40
0.9607916493811779
 40
0.9607916493811779
 40
0.9607916493811779
 40
0.9938632881630047
 40
0.9938632881630047
 40
0.9938632881630047
 40
1.0
 40
1.0
 40
1.0
 40
1.0
 10
-3776.674286123134
 20
1759.307191700296
 30
0.0
 10
-3776.674286123134
 20
1460.944891054693
 30
0.0
 10
-3776.674286123134
 20
1162.582590409089
 30
0.0
 10
-3776.674286123134
 20
864.2202897634852
 30
0.0
 10
-3776.674286123134
 20
615.2686462007769
 30
0.0
 10
-3759.831430816548
 20
366.7899218287821
 30
0.0
 10
-3725.200795560815
 20
119.1412555245042
 30
0.0
 10
-3718.044538474676
 20
67.96582919964931
 30
0.0
 10
-3707.561064408266
 20
17.80741164279607
 30
0.0
 10
-3696.104968942647
 20
-32.42532773778294
 30
0.0
 10
-3681.431919894641
 20
-96.76377978358869
 30
0.0
 10
-3665.700604557243
 20
-160.6749583053606
 30
0.0
 10
-3649.246136730613
 20
-224.4631534691835
 30
0.0
 10
-3627.242990816592
 20
-309.7616256270158
 30
0.0
 10
-3588.205004369502
 20
-390.7283201170176
 30
0.0
 10
-3573.291477900442
 20
-477.6453495698152
 30
0.0
 10
-3557.620914016115
 20
-568.9744436980072
 30
0.0
 10
-3546.12670277723
 20
-660.8049606946988
 30
0.0
 10
-3533.505704227457
 20
-752.5288767647762
 30
0.0
 10
-3513.608782975049
 20
-897.1310275226315
 30
0.0
 10
-3496.191496271473
 20
-1042.066404447236
 30
0.0
 10
-3475.635487975895
 20
-1186.55549865156
 30
0.0
 10
-3465.542892306943
 20
-1257.496801330977
 30
0.0
 10
-3440.756813638975
 20
-1325.553128209544
 30
0.0
 10
-3428.61593727149
 20
-1396.335032563497
 30
0.0
 10
-3408.643511506298
 20
-1512.775253799431
 30
0.0
 10
-3398.33377462247
 20
-1630.256235786961
 30
0.0
 10
-3386.450620009355
 20
-1747.473901913596
 30
0.0
 10
-3379.366638027819
 20
-1817.351628981312
 30
0.0
 10
-3372.646430047502
 20
-1888.522666062909
 30
0.0
 10
-3379.895587017662
 20
-1958.202465500552
 30
0.0
 10
-3389.788386041271
 20
-2053.293281533322
 30
0.0
 10
-3459.937325238987
 20
-2134.498447937869
 30
0.0
 10
-3479.252376491633
 20
-2228.219391179835
 30
0.0
 10
-3493.586372392821
 20
-2297.771141196641
 30
0.0
 10
-3504.617514316071
 20
-2368.444579882173
 30
0.0
 10
-3519.038150164559
 20
-2437.998925091772
 30
0.0
 10
-3539.599562678191
 20
-2537.171777037827
 30
0.0
 10
-3587.75903196334
 20
-2633.103003722135
 30
0.0
 10
-3587.75903196334
 20
-2734.583783381084
 30
0.0
 10
-3587.75903196334
 20
-2784.014593095966
 30
0.0
 10
-3587.75903196334
 20
-2833.445402810849
 30
0.0
 10
-3587.75903196334
 20
-2882.876212525731
 30
0.0
 10
-3587.75903196334
 20
-2985.354720471223
 30
0.0
 10
-3587.75903196334
 20
-3087.833228416712
 30
0.0
 10
-3587.75903196334
 20
-3190.311736362201
 30
0.0
 10
-3587.75903196334
 20
-3268.603426463891
 30
0.0
 10
-3572.797003595699
 20
-3346.099890430938
 30
0.0
 10
-3547.973258290385
 20
-3421.792601368485
 30
0.0
 10
-3516.597171340196
 20
-3517.464751185606
 30
0.0
 10
-3476.370232626359
 20
-3606.330229438023
 30
0.0
 10
-3435.849714302938
 20
-3696.676128563449
 30
0.0
 10
-3415.979652146301
 20
-3740.9790818695
 30
0.0
 10
-3384.298827441677
 20
-3780.013663791691
 30
0.0
 10
-3370.745721019926
 20
-3826.884115129491
 30
0.0
 10
-3353.905872246158
 20
-3885.121045315478
 30
0.0
 10
-3345.451198852876
 20
-3944.718238970698
 30
0.0
 10
-3334.57683586271
 20
-4004.111652399919
 30
0.0
 10
-3321.564683483599
 20
-4075.181208065424
 30
0.0
 10
-3298.407950705463
 20
-4145.361448388834
 30
0.0
 10
-3298.407950705463
 20
-4217.508074827594
 30
0.0
 10
-3298.407950705463
 20
-4285.023327121089
 30
0.0
 10
-3298.407950705463
 20
-4352.538579414588
 30
0.0
 10
-3298.407950705463
 20
-4420.053831708083
 30
0.0
 10
-3298.407950705463
 20
-4521.326710148329
 30
0.0
 10
-3298.407950705463
 20
-4622.599588588582
 30
0.0
 10
-3298.407950705463
 20
-4723.872467028828
 30
0.0
 10
-3298.407950705463
 20
-4893.176507668923
 30
0.0
 10
-3347.25889639997
 20
-5059.13110771104
 30
0.0
 10
-3392.447052114272
 20
-5223.003082198626
 30
0.0
 10
-3446.417500650736
 20
-5418.723483393304
 30
0.0
 10
-3501.567640059935
 20
-5612.41952750957
 30
0.0
 10
-3562.440812353254
 20
-5805.322133230076
 30
0.0
 10
-3618.566038075358
 20
-5983.17884548218
 30
0.0
 10
-3678.988878762435
 20
-6159.287025791011
 30
0.0
 10
-3736.051461107974
 20
-6337.00474504138
 30
0.0
 10
-3784.306774799297
 20
-6487.292796132424
 30
0.0
 10
-3862.64255915829
 20
-6635.07157294936
 30
0.0
 10
-3862.64255915829
 20
-6792.732698022497
 30
0.0
 10
-3862.64255915829
 20
-6994.072825397758
 30
0.0
 10
-3862.64255915829
 20
-7195.412952773022
 30
0.0
 10
-3862.64255915829
 20
-7396.753080148279
 30
0.0
 10
-3862.64255915829
 20
-7600.504466534014
 30
0.0
 10
-3862.64255915829
 20
-7804.255852919749
 30
0.0
 10
-3862.64255915829
 20
-8008.00723930548
 30
0.0
 10
-3862.64255915829
 20
-8356.903170110447
 30
0.0
 10
-3909.429278530111
 20
-8704.547240210719
 30
0.0
 10
-3916.895886894114
 20
-9053.288020349482
 30
0.0
 10
-3921.952938755059
 20
-9289.486321534081
 30
0.0
 10
-3911.838835033168
 20
-9525.999868246632
 30
0.0
 10
-3916.895886894114
 20
-9762.198169431231
 30
0.0
 10
-3925.390154265804
 20
-10158.93753026227
 30
0.0
 10
-3946.861468544514
 20
-10555.50093341586
 30
0.0
 10
-3960.298549082809
 20
-10952.15449110416
 30
0.0
 10
-3966.094286134536
 20
-11123.24074115989
 30
0.0
 10
-3965.80725287641
 20
-11294.57372380884
 30
0.0
 10
-3960.298549082809
 20
-11465.75266033684
 30
0.0
 10
-3959.625713457901
 20
-11486.66053468351
 30
0.0
 10
-3950.701316327079
 20
-11512.24345781749
 30
0.0
 10
-3930.482660177482
 20
-11520.94510434939
 30
0.0
 10
-3879.896243073152
 20
-11542.71633967286
 30
0.0
 10
-3828.70589740912
 20
-11545.30671037675
 30
0.0
 10
-3777.100833626511
 20
-11554.22717933002
 30
0.0
 10
-3620.714615648067
 20
-11581.26015438985
 30
0.0
 10
-3457.898102514389
 20
-11578.77716614267
 30
0.0
 10
-3307.532084472687
 20
-11629.92876000101
 30
0.0
 10
-3114.672538881481
 20
-11695.53582518943
 30
0.0
 10
-2925.494414298064
 20
-11769.27618512057
 30
0.0
 10
-2734.173342252667
 20
-11838.29217745634
 30
0.0
 10
-2575.234880620305
 20
-11895.62666514557
 30
0.0
 10
-2425.674221200927
 20
-12008.28593769533
 30
0.0
 10
-2256.744058177201
 20
-12008.28593769533
 30
0.0
 10
-2225.397691040933
 20
-12008.28593769533
 30
0.0
 10
-2194.051323904661
 20
-12008.28593769533
 30
0.0
 10
-2162.704956768392
 20
-12008.28593769533
 30
0.0
  0
SPLINE
  5
265
330
1B49
100
AcDbEntity
  8
Fenceline
100
AcDbSpline
210
0.0
220
0.0
230
1.0
 70
     8
 71
     3
 72
    41
 73
    37
 74
     0
 42
0.0000000001
 43
0.00000001
 40
0.0
 40
0.0
 40
0.0
 40
0.0
 40
0.0730446295233013
 40
0.0730446295233013
 40
0.0730446295233013
 40
0.1253406799526403
 40
0.1253406799526403
 40
0.1253406799526403
 40
0.1737221639482936
 40
0.1737221639482936
 40
0.1737221639482936
 40
0.2597186390887527
 40
0.2597186390887527
 40
0.2597186390887527
 40
0.3635773945252278
 40
0.3635773945252278
 40
0.3635773945252278
 40
0.468390777326033
 40
0.468390777326033
 40
0.468390777326033
 40
0.5689711785095197
 40
0.5689711785095197
 40
0.5689711785095197
 40
0.6470727169596566
 40
0.6470727169596566
 40
0.6470727169596566
 40
0.7475794737567139
 40
0.7475794737567139
 40
0.7475794737567139
 40
0.8570040818163682
 40
0.8570040818163682
 40
0.8570040818163682
 40
0.9460892035476981
 40
0.9460892035476981
 40
0.9460892035476981
 40
1.0
 40
1.0
 40
1.0
 40
1.0
 10
-1927.607203246369
 20
-12040.83793433684
 30
0.0
 10
-1801.016105196064
 20
-12026.37038027395
 30
0.0
 10
-1674.425007145759
 20
-12011.90282621106
 30
0.0
 10
-1547.833909095452
 20
-11997.43527214817
 30
0.0
 10
-1457.201449313692
 20
-11987.07727674455
 30
0.0
 10
-1367.015831012281
 20
-11972.73246132427
 30
0.0
 10
-1276.567270416184
 20
-11961.26638699094
 30
0.0
 10
-1192.889142699392
 20
-11950.65859371981
 30
0.0
 10
-1106.763204793278
 20
-11943.17849991299
 30
0.0
 10
-1023.385074315582
 20
-11961.26638699094
 30
0.0
 10
-875.183226568879
 20
-11993.41700336274
 30
0.0
 10
-740.709827938419
 20
-12060.70890159792
 30
0.0
 10
-603.8260064917085
 20
-12124.02637019847
 30
0.0
 10
-438.5101221880341
 20
-12200.49547518796
 30
0.0
 10
-288.4660734981208
 20
-12301.81555219533
 30
0.0
 10
-119.1629453847945
 20
-12369.97478926764
 30
0.0
 10
51.69634810221396
 20
-12438.76051827669
 30
0.0
 10
228.6145095513075
 20
-12481.69625045942
 30
0.0
 10
408.9027779107855
 20
-12518.2672184123
 30
0.0
 10
581.9099443213436
 20
-12553.36123532196
 30
0.0
 10
754.4651858537181
 20
-12584.72670771476
 30
0.0
 10
929.7347241749176
 20
-12594.22187724249
 30
0.0
 10
1065.833013953645
 20
-12601.59495727831
 30
0.0
 10
1202.390607616335
 20
-12588.00474335776
 30
0.0
 10
1338.443126451661
 20
-12594.22187724249
 30
0.0
 10
1513.525432044646
 20
-12602.22253863441
 30
0.0
 10
1690.123765070654
 20
-12604.14036570813
 30
0.0
 10
1862.891961231501
 20
-12634.00765091545
 30
0.0
 10
2050.989684733288
 20
-12666.5250266797
 30
0.0
 10
2239.050499216158
 20
-12699.10176441964
 30
0.0
 10
2427.126569684357
 20
-12731.66364083997
 30
0.0
 10
2580.24367861908
 20
-12758.17302274357
 30
0.0
 10
2731.076103602677
 20
-12811.23518818589
 30
0.0
 10
2886.471411181185
 20
-12811.23518818589
 30
0.0
 10
2980.510512589984
 20
-12811.23518818589
 30
0.0
 10
3074.549613998784
 20
-12811.23518818589
 30
0.0
 10
3168.588715407583
 20
-12811.23518818589
 30
0.0
  0
SPLINE
  5
266
330
1B49
100
AcDbEntity
  8
Stone Wall
100
AcDbSpline
210
0.0
220
0.0
230
1.0
 70
     8
 71
     3
 72
    50
 73
    46
 74
     0
 42
0.0000000001
 43
0.00000001
 40
0.0
 40
0.0
 40
0.0
 40
0.0
 40
0.0641037286983284
 40
0.0641037286983284
 40
0.0641037286983284
 40
0.1030670656576509
 40
0.1030670656576509
 40
0.1030670656576509
 40
0.147426100238251
 40
0.147426100238251
 40
0.147426100238251
 40
0.2343958683413246
 40
0.2343958683413246
 40
0.2343958683413246
 40
0.2964982557339034
 40
0.2964982557339034
 40
0.2964982557339034
 40
0.4355741691787068
 40
0.4355741691787068
 40
0.4355741691787068
 40
0.4544741637445678
 40
0.4544741637445678
 40
0.4544741637445678
 40
0.4852281111195412
 40
0.4852281111195412
 40
0.4852281111195412
 40
0.5348308805597478
 40
0.5348308805597478
 40
0.5348308805597478
 40
0.6083945632376623
 40
0.6083945632376623
 40
0.6083945632376623
 40
0.7545846106095154
 40
0.7545846106095154
 40
0.7545846106095154
 40
0.9658771093068113
 40
0.9658771093068113
 40
0.9658771093068113
 40
0.9878733853846958
 40
0.9878733853846958
 40
0.9878733853846958
 40
0.9997860202596197
 40
0.9997860202596197
 40
0.9997860202596197
 40
1.0
 40
1.0
 40
1.0
 40
1.0
 10
2751.618010064304
 20
4056.412789951541
 30
0.0
 10
2699.490871047437
 20
3727.360224907588
 30
0.0
 10
2647.363732030583
 20
3398.307659863636
 30
0.0
 10
2595.236593013729
 20
3069.255094819677
 30
0.0
 10
2563.552831031687
 20
2869.251347308007
 30
0.0
 10
2535.039213561414
 20
2668.753996477291
 30
0.0
 10
2507.272045922762
 20
2468.16402303147
 30
0.0
 10
2475.659641913983
 20
2239.796068359254
 30
0.0
 10
2457.748080181751
 20
2009.6370925228
 30
0.0
 10
2424.194418114643
 20
1781.551863793706
 30
0.0
 10
2358.409528146332
 20
1334.370818537569
 30
0.0
 10
2292.383755984698
 20
887.2258617469379
 30
0.0
 10
2226.274187159963
 20
440.0925206566026
 30
0.0
 10
2179.067414702616
 20
120.8086066001633
 30
0.0
 10
2131.763479227187
 20
-198.4595735151561
 30
0.0
 10
2084.553527957895
 20
-517.7436587782831
 30
0.0
 10
1978.828653727923
 20
-1232.768115497707
 30
0.0
 10
1874.468068766601
 20
-1948.01492421002
 30
0.0
 10
1786.451451705193
 20
-2665.544683582524
 30
0.0
 10
1774.490260561723
 20
-2763.054800302813
 30
0.0
 10
1767.536082516924
 20
-2861.085558174524
 30
0.0
 10
1757.129936008204
 20
-2958.759840552379
 30
0.0
 10
1740.197122562666
 20
-3117.694793135001
 30
0.0
 10
1726.062979940462
 20
-3276.992187884949
 30
0.0
 10
1703.373823897074
 20
-3435.234470628409
 30
0.0
 10
1666.778684993735
 20
-3690.46204746309
 30
0.0
 10
1627.41565635581
 20
-3945.192654758212
 30
0.0
 10
1588.531220750541
 20
-4200.037338391459
 30
0.0
 10
1530.863426910446
 20
-4577.986264439805
 30
0.0
 10
1472.426346768172
 20
-4955.814285971963
 30
0.0
 10
1415.045586210033
 20
-5333.802612008265
 30
0.0
 10
1301.015186984989
 20
-6084.963093345126
 30
0.0
 10
1196.564004313424
 20
-6837.575842363352
 30
0.0
 10
1085.178534618948
 20
-7589.11586103477
 30
0.0
 10
924.190049879946
 20
-8675.3373328165
 30
0.0
 10
723.4900655062484
 20
-9755.517291908931
 30
0.0
 10
566.7516870178006
 20
-10842.41630549138
 30
0.0
 10
550.4346825501179
 20
-10955.56623234132
 30
0.0
 10
539.4896709181357
 20
-11069.40791472474
 30
0.0
 10
525.600022729659
 20
-11182.89139950553
 30
0.0
 10
518.0777354650054
 20
-11244.35122632988
 30
0.0
 10
509.5867681540422
 20
-11305.54047370797
 30
0.0
 10
499.6633031362635
 20
-11366.80632025879
 30
0.0
 10
499.4850536985487
 20
-11367.90680307194
 30
0.0
 10
498.8066115706497
 20
-11369.40583426965
 30
0.0
 10
497.6974463003444
 20
-11369.50186194645
 30
0.0
  0
SPLINE
  5
267
330
1B49
100
AcDbEntity
  8
Stone Wall
100
AcDbSpline
210
0.0
220
0.0
230
1.0
 70
     8
 71
     3
 72
    14
 73
    10
 74
     0
 42
0.0000000001
 43
0.00000001
 40
0.0
 40
0.0
 40
0.0
 40
0.0
 40
0.2915689691515606
 40
0.2915689691515606
 40
0.2915689691515606
 40
0.7822485965140329
 40
0.7822485965140329
 40
0.7822485965140329
 40
1.0
 40
1.0
 40
1.0
 40
1.0
 10
497.6974463003444
 20
-11369.50186194645
 30
0.0
 10
117.1453347902734
 20
-11320.71312970157
 30
0.0
 10
-263.4067767197976
 20
-11271.92439745669
 30
0.0
 10
-643.9588882298667
 20
-11223.1356652118
 30
0.0
 10
-1284.387699331157
 20
-11141.02940737828
 30
0.0
 10
-1923.921552613949
 20
-11052.06402547644
 30
0.0
 10
-2563.573735101138
 20
-10964.11185038445
 30
0.0
 10
-2847.435449980438
 20
-10925.08086458855
 30
0.0
 10
-3131.297164859738
 20
-10886.04987879264
 30
0.0
 10
-3415.158879739038
 20
-10847.01889299673
 30
0.0
  0
LWPOLYLINE
  5
268
330
1B49
100
AcDbEntity
  8
Structures
100
AcDbPolyline
 90
        4
 70
   129
 43
0.0
 10
1982.596178
 20
1211.001373
 10
2266.411523
 20
1194.690147
 10
2282.72275
 20
1396.949358
 10
1998.907404
 20
1432.834057
  0
LWPOLYLINE
  5
269
330
1B49
100
AcDbEntity
  8
Structures
100
AcDbPolyline
 90
        4
 70
   129
 43
0.0
 10
1649.847152
 20
1279.508526
 10
1897.777799
 20
1269.72179
 10
1910.82678
 20
1485.029982
 10
1656.371643
 20
1501.341209
  0
LWPOLYLINE
  5
26A
330
1B49
100
AcDbEntity
  8
Structures
100
AcDbPolyline
 90
        4
 70
   129
 43
0.0
 10
1643.322662
 20
1788.418799
 10
1874.942081
 20
1915.646368
 10
1773.812476
 20
2104.856598
 10
1538.930811
 20
1977.62903
  0
LWPOLYLINE
  5
26B
330
1B49
100
AcDbEntity
  8
Structures
100
AcDbPolyline
 90
        4
 70
   129
 43
0.0
 10
1773.812476
 20
274.736959
 10
2119.610482
 20
219.278788
 10
2155.495181
 20
434.586981
 10
1803.172684
 20
493.307397
  0
LWPOLYLINE
  5
26C
330
1B49
100
AcDbEntity
  8
Structures
100
AcDbPolyline
 90
        4
 70
   129
 43
0.0
 10
1688.994097
 20
-703.936645
 10
1998.907404
 20
-749.608079
 10
2047.841085
 20
-472.317225
 10
1741.190022
 20
-423.383545
  0
LWPOLYLINE
  5
26D
330
1B49
100
AcDbEntity
  8
Structures
100
AcDbPolyline
 90
        4
 70
   129
 43
0.0
 10
1235.541994
 20
-1000.800971
 10
1414.965488
 20
-1017.112198
 10
1460.636922
 20
-635.429492
 10
1264.902202
 20
-612.593775
  0
LWPOLYLINE
  5
26E
330
1B49
100
AcDbEntity
  8
Structures
100
AcDbPolyline
 90
        4
 70
   129
 43
0.0
 10
521.110263
 20
1034.840125
 10
720.107229
 20
992.430935
 10
795.138872
 20
1328.442206
 10
576.568434
 20
1367.58915
  0
LWPOLYLINE
  5
26F
330
1B49
100
AcDbEntity
  8
Structures
100
AcDbPolyline
 90
        4
 70
   129
 43
0.0
 10
162.263275
 20
1233.837091
 10
488.487809
 20
1155.543202
 10
543.94598
 20
1390.424867
 10
217.721446
 20
1475.243246
  0
LWPOLYLINE
  5
270
330
1B49
100
AcDbEntity
  8
Structures
100
AcDbPolyline
 90
        4
 70
   129
 43
0.0
 10
48.084688
 20
545.503323
 10
351.473505
 20
525.929851
 10
371.046977
 20
760.811516
 10
61.133669
 20
780.384988
  0
LWPOLYLINE
  5
271
330
1B49
100
AcDbEntity
  8
Structures
  6
Continuous
370
    13
100
AcDbPolyline
 90
        4
 70
   129
 43
0.0
 10
397.14494
 20
512.880869
 10
667.911303
 20
496.569643
 10
690.747021
 20
728.189062
 10
410.193921
 20
754.287025
  0
LWPOLYLINE
  5
272
330
1B49
100
AcDbEntity
  8
Structures
100
AcDbPolyline
 90
        4
 70
   129
 43
0.0
 10
367.784732
 20
88.788974
 10
622.239869
 20
69.215502
 10
648.337831
 20
287.78594
 10
390.620449
 20
320.408394
  0
LWPOLYLINE
  5
273
330
1B49
100
AcDbEntity
  8
Structures
100
AcDbPolyline
 90
        4
 70
   129
 43
0.0
 10
-809.885838
 20
-912.720347
 10
-424.940887
 20
-929.031573
 10
-405.367415
 20
-593.020303
 10
-790.312366
 20
-570.184585
  0
LWPOLYLINE
  5
274
330
1B49
100
AcDbEntity
  8
Structures
100
AcDbPolyline
 90
        4
 70
   129
 43
0.0
 10
123.116331
 20
-1330.287751
 10
423.242902
 20
-1372.69694
 10
462.389847
 20
-1160.650993
 10
159.001029
 20
-1111.717313
  0
LWPOLYLINE
  5
275
330
1B49
100
AcDbEntity
  8
Structures
100
AcDbPolyline
 90
        4
 70
   129
 43
0.0
 10
1568.291019
 20
-1594.529624
 10
1897.777799
 20
-1636.938813
 10
1930.400252
 20
-1405.319394
 10
1604.175718
 20
-1353.123468
  0
LWPOLYLINE
  5
276
330
1B49
100
AcDbEntity
  8
Structures
100
AcDbPolyline
 90
        4
 70
   129
 43
0.0
 10
1600.913472
 20
-1294.403052
 10
1887.991063
 20
-1362.910204
 10
1917.351271
 20
-1229.158145
 10
1627.011435
 20
-1154.126502
  0
LWPOLYLINE
  5
277
330
1B49
100
AcDbEntity
  8
Structures
100
AcDbPolyline
 90
        4
 70
   129
 43
0.0
 10
1189.870559
 20
-2145.849087
 10
1538.930811
 20
-2227.405221
 10
1600.913472
 20
-2021.883764
 10
1245.32873
 20
-1914.229668
  0
LWPOLYLINE
  5
278
330
1B49
100
AcDbEntity
  8
Structures
100
AcDbPolyline
 90
        4
 70
   129
 43
0.0
 10
1408.440997
 20
-2537.318529
 10
1750.976758
 20
-2592.7767
 10
1799.910438
 20
-2344.846053
 10
1454.112432
 20
-2282.863392
  0
LWPOLYLINE
  5
279
330
1B49
100
AcDbEntity
  8
Structures
100
AcDbPolyline
 90
        4
 70
   129
 43
0.0
 10
886.481742
 20
-1920.754159
 10
1016.971555
 20
-1920.754159
 10
1026.758291
 20
-1679.348003
 10
889.743987
 20
-1676.085758
  0
LWPOLYLINE
  5
27A
330
1B49
100
AcDbEntity
  8
Structures
100
AcDbPolyline
 90
        4
 70
   129
 43
0.0
 10
139.427557
 20
-2126.275615
 10
371.046977
 20
-2132.800106
 10
387.358204
 20
-1728.281683
 10
152.476539
 20
-1718.494947
  0
LWPOLYLINE
  5
27B
330
1B49
100
AcDbEntity
  8
Structures
100
AcDbPolyline
 90
        4
 70
   129
 43
0.0
 10
-330.335772
 20
-2883.116535
 10
-105.240843
 20
-2964.672669
 10
28.511216
 20
-2641.71038
 10
-209.632695
 20
-2553.629756
  0
LWPOLYLINE
  5
27C
330
1B49
100
AcDbEntity
  8
Structures
100
AcDbPolyline
 90
        4
 70
   129
 43
0.0
 10
1010.447065
 20
-3137.571672
 10
1222.493012
 20
-3153.882899
 10
1251.85322
 20
-2964.672669
 10
1020.233801
 20
-2941.836952
  0
LWPOLYLINE
  5
27D
330
1B49
100
AcDbEntity
  8
Structures
100
AcDbPolyline
 90
        4
 70
   129
 43
0.0
 10
1222.493012
 20
-3470.320698
 10
1587.864491
 20
-3532.303359
 10
1662.896134
 20
-3157.145144
 10
1304.049146
 20
-3098.424728
  0
LWPOLYLINE
  5
27E
330
1B49
100
AcDbEntity
  8
Structures
100
AcDbPolyline
 90
        4
 70
   129
 43
0.0
 10
723.369474
 20
-4008.59118
 10
1163.772596
 20
-4018.377916
 10
1170.297087
 20
-3790.020742
 10
726.63172
 20
-3776.97176
  0
LWPOLYLINE
  5
27F
330
1B49
100
AcDbEntity
  8
Structures
100
AcDbPolyline
 90
        4
 70
   129
 43
0.0
 10
-69.356145
 20
-3832.429931
 10
230.770427
 20
-3913.986065
 10
286.228598
 20
-3737.824816
 10
-13.897974
 20
-3659.530928
  0
LWPOLYLINE
  5
280
330
1B49
100
AcDbEntity
  8
Structures
100
AcDbPolyline
 90
        4
 70
   129
 43
0.0
 10
-141.125542
 20
-3470.320698
 10
165.52552
 20
-3467.058452
 10
162.263275
 20
-3274.585977
 10
-154.174524
 20
-3277.848222
  0
LWPOLYLINE
  5
281
330
1B49
100
AcDbEntity
  8
Structures
100
AcDbPolyline
 90
        4
 70
   129
 43
0.0
 10
-862.081764
 20
-3082.113502
 10
-607.626627
 20
-3170.194126
 10
-522.808248
 20
-2951.623688
 10
-793.574611
 20
-2843.969591
  0
LWPOLYLINE
  5
282
330
1B49
100
AcDbEntity
  8
Structures
100
AcDbPolyline
 90
        4
 70
   129
 43
0.0
 10
-1658.069628
 20
-2560.154246
 10
-1370.992038
 20
-2680.857324
 10
-1266.600187
 20
-2459.024641
 10
-1553.677777
 20
-2322.010336
  0
LWPOLYLINE
  5
283
330
1B49
100
AcDbEntity
  8
Structures
100
AcDbPolyline
 90
        4
 70
   129
 43
0.0
 10
-2865.100406
 20
-2335.059317
 10
-2558.449343
 20
-2335.059317
 10
-2561.711589
 20
-2103.439898
 10
-2865.100406
 20
-2100.177653
  0
LWPOLYLINE
  5
284
330
1B49
100
AcDbEntity
  8
Structures
100
AcDbPolyline
 90
        4
 70
   129
 43
0.0
 10
-3044.5239
 20
-3033.179821
 10
-2760.708555
 20
-3121.260446
 10
-2701.988139
 20
-2925.525725
 10
-2982.541238
 20
-2843.969591
  0
LWPOLYLINE
  5
285
330
1B49
100
AcDbEntity
  8
Structures
100
AcDbPolyline
 90
        4
 70
   129
 43
0.0
 10
-1472.121643
 20
-3927.035046
 10
-1217.666506
 20
-3923.772801
 10
-1211.142016
 20
-3744.349307
 10
-1468.859398
 20
-3741.087061
  0
LWPOLYLINE
  5
286
330
1B49
100
AcDbEntity
  8
Structures
100
AcDbPolyline
 90
        4
 70
   129
 43
0.0
 10
-2131.095203
 20
-3982.493217
 10
-1860.328839
 20
-4064.049351
 10
-1798.346178
 20
-3861.790139
 10
-2072.374787
 20
-3770.447269
  0
LWPOLYLINE
  5
287
330
1B49
100
AcDbEntity
  8
Structures
100
AcDbPolyline
 90
        4
 70
   129
 43
0.0
 10
-777.263385
 20
-4357.651432
 10
-473.874568
 20
-4354.389186
 10
-467.350077
 20
-4129.294257
 10
-774.001139
 20
-4126.032012
  0
LWPOLYLINE
  5
288
330
1B49
100
AcDbEntity
  8
Structures
100
AcDbPolyline
 90
        4
 70
   129
 43
0.0
 10
-261.82862
 20
-4230.423863
 10
54.609178
 20
-4354.389186
 10
142.689803
 20
-4145.605484
 10
-177.010241
 20
-4024.902406
  0
LWPOLYLINE
  5
289
330
1B49
100
AcDbEntity
  8
Structures
100
AcDbPolyline
 90
        4
 70
   129
 43
0.0
 10
312.326561
 20
-5424.40566
 10
694.009266
 20
-5473.33934
 10
742.942946
 20
-5222.146448
 10
354.73575
 20
-5160.163787
  0
LWPOLYLINE
  5
28A
330
1B49
100
AcDbEntity
  8
Structures
100
AcDbPolyline
 90
        4
 70
   129
 43
0.0
 10
1151.551053
 20
-4408.620056
 10
1458.708872
 20
-4408.620056
 10
1467.569194
 20
-4184.158573
 10
1148.597612
 20
-4172.344811
  0
LWPOLYLINE
  5
28B
330
1B49
100
AcDbEntity
  8
Structures
100
AcDbPolyline
 90
        4
 70
   129
 43
0.0
 10
814.858828
 20
-4633.081539
 10
1086.575361
 20
-4423.387259
 10
986.158381
 20
-4287.528993
 10
702.628087
 20
-4491.316392
  0
LWPOLYLINE
  5
28C
330
1B49
100
AcDbEntity
  8
Structures
100
AcDbPolyline
 90
        4
 70
   129
 43
0.0
 10
-2177.908378
 20
-1414.261433
 10
-1949.747925
 20
-1414.261433
 10
-1946.62244
 20
-1136.09321
 10
-2187.284835
 20
-1142.344182
  0
LWPOLYLINE
  5
28D
330
1B49
100
AcDbEntity
  8
Structures
100
AcDbPolyline
 90
        4
 70
   129
 43
0.0
 10
-2009.132153
 20
-854.799502
 10
-1840.355928
 20
-798.54076
 10
-1893.489184
 20
-582.88225
 10
-2074.767351
 20
-626.63905
  0
LWPOLYLINE
  5
28E
330
1B49
100
AcDbEntity
  8
Structures
100
AcDbPolyline
 90
        4
 70
   129
 43
0.0
 10
-468.009799
 20
807.837485
 10
-185.350587
 20
844.706078
 10
-205.833139
 20
1061.821125
 10
-484.39584
 20
1029.049043
  0
LWPOLYLINE
  5
28F
330
1B49
100
AcDbEntity
  8
Structures
100
AcDbPolyline
 90
        4
 70
   129
 43
0.0
 10
715.881683
 20
1659.911631
 10
871.549075
 20
1643.52559
 10
904.321157
 20
1848.351106
 10
736.364234
 20
1877.026678
  0
LWPOLYLINE
  5
290
330
1B49
100
AcDbEntity
  8
Structures
100
AcDbPolyline
 90
        4
 70
   129
 43
0.0
 10
-3536.296027
 20
1033.145553
 10
-3315.084469
 20
1033.145553
 10
-3315.084469
 20
1393.638461
 10
-3544.489047
 20
1381.34893
  0
LWPOLYLINE
  5
2C5
330
1B49
100
AcDbEntity
  8
Stone Wall
100
AcDbPolyline
 90
        8
 70
   128
 43
0.0
 10
-875.442355
 20
-8817.080893
 10
-977.744651
 20
-9418.859108
 42
-0.396907
 10
-990.853418
 20
-9428.757023
 10
-2143.372238
 20
-9302.700277
 42
-0.441048
 10
-2153.808195
 20
-9288.419669
 10
-1847.642889
 20
-7775.602864
 42
0.555236
 10
-1862.424311
 20
-7761.6444
 10
-3406.731947
 20
-8167.403661
  0
LWPOLYLINE
  5
2CD
330
1B49
100
AcDbEntity
  8
Stone Wall
100
AcDbPolyline
 90
        4
 70
   128
 43
0.0
 10
-3210.602972
 20
-6849.662106
 10
-2127.224524
 20
-6466.219172
 42
-0.304862
 10
-2114.283124
 20
-6469.546398
 10
-1623.184075
 20
-7021.274959
  0
LWPOLYLINE
  5
2D1
330
1B49
100
AcDbEntity
  8
Stone Wall
100
AcDbPolyline
 90
        4
 70
   128
 43
0.0
 10
-2114.283124
 20
-6469.546398
 10
-2035.443067
 20
-6307.495762
 42
-0.150532
 10
-2030.62826
 20
-6302.344193
 10
-1488.345404
 20
-5991.597837
  0
LWPOLYLINE
  5
2D5
330
1B49
100
AcDbEntity
  8
Stone Wall
100
AcDbPolyline
 90
        4
 70
   128
 43
0.0
 10
-2916.409508
 20
-4398.04991
 10
-2394.465128
 20
-4584.030091
 42
0.414214
 10
-2379.164092
 20
-4576.768582
 10
-1912.950697
 20
-3268.363248
  0
LWPOLYLINE
  5
2D9
330
1B49
100
AcDbEntity
  8
Stone Wall
100
AcDbPolyline
 90
        4
 70
   128
 43
0.0
 10
-2221.073925
 20
-3225.832151
 10
-2129.59846
 20
-3130.111701
 42
-0.220421
 10
-2120.22531
 20
-3126.431201
 10
-1764.151776
 20
-3147.72769
  0
LWPOLYLINE
  5
2DD
330
1B49
100
AcDbEntity
  8
Stone Wall
100
AcDbPolyline
 90
        4
 70
   128
 43
0.0
 10
-2504.37955
 20
-3186.726697
 10
-2413.829008
 20
-1860.631287
 10
-2413.829008
 20
-1860.631287
 10
-1984.796874
 20
-1682.889403
  0
SPLINE
  5
2DE
330
1B49
100
AcDbEntity
  8
Stone Wall
100
AcDbSpline
210
0.0
220
0.0
230
1.0
 70
     8
 71
     3
 72
    26
 73
    22
 74
     0
 42
0.0000000001
 43
0.00000001
 40
0.0
 40
0.0
 40
0.0
 40
0.0
 40
0.2187728924864588
 40
0.2187728924864588
 40
0.2187728924864588
 40
0.3437834479567362
 40
0.3437834479567362
 40
0.3437834479567362
 40
0.5652712823294946
 40
0.5652712823294946
 40
0.5652712823294946
 40
0.6717139347756272
 40
0.6717139347756272
 40
0.6717139347756272
 40
0.9390297892515161
 40
0.9390297892515161
 40
0.9390297892515161
 40
0.9606643801622702
 40
0.9606643801622702
 40
0.9606643801622702
 40
1.0
 40
1.0
 40
1.0
 40
1.0
 10
-1346.265700122154
 20
-2931.032246318726
 30
0.0
 10
-1302.841816626922
 20
-2824.5403415566
 30
0.0
 10
-1259.417933131692
 20
-2718.048436794474
 30
0.0
 10
-1215.99404963646
 20
-2611.556532032348
 30
0.0
 10
-1191.180903296809
 20
-2550.705244580338
 30
0.0
 10
-1163.378811088283
 20
-2491.036100661047
 30
0.0
 10
-1135.34969457389
 20
-2431.657586123532
 30
0.0
 10
-1085.689021578713
 20
-2326.45352120508
 30
0.0
 10
-963.7177936465596
 20
-2264.961529863169
 30
0.0
 10
-921.3319830616729
 20
-2155.605755332388
 30
0.0
 10
-900.9622046604727
 20
-2103.051542888523
 30
0.0
 10
-887.84817346608
 20
-2048.960987098548
 30
0.0
 10
-874.8063936024701
 20
-1994.31704520723
 30
0.0
 10
-842.0537850568362
 20
-1857.086417419181
 30
0.0
 10
-814.5434857116416
 20
-1719.427026115693
 30
0.0
 10
-787.9586266119986
 20
-1581.790152002508
 30
0.0
 10
-785.8070424788057
 20
-1570.650829677194
 30
0.0
 10
-797.056964106232
 20
-1554.495139519819
 30
0.0
 10
-787.9586266119986
 20
-1547.67138639911
 30
0.0
 10
-771.4161948042984
 20
-1535.264562543274
 30
0.0
 10
-754.8737629965799
 20
-1522.857738687555
 30
0.0
 10
-738.3313311888742
 20
-1510.450914831774
 30
0.0
  0
SPLINE
  5
2DF
330
1B49
100
AcDbEntity
  8
Stone Wall
100
AcDbSpline
210
0.0
220
0.0
230
1.0
 70
     8
 71
     3
 72
    32
 73
    28
 74
     0
 42
0.0000000001
 43
0.00000001
 40
0.0
 40
0.0
 40
0.0
 40
0.0
 40
0.2473795120651092
 40
0.2473795120651092
 40
0.2473795120651092
 40
0.2911774093389177
 40
0.2911774093389177
 40
0.2911774093389177
 40
0.3320554467944668
 40
0.3320554467944668
 40
0.3320554467944668
 40
0.4624395302876688
 40
0.4624395302876688
 40
0.4624395302876688
 40
0.5605919980856406
 40
0.5605919980856406
 40
0.5605919980856406
 40
0.6659095243910327
 40
0.6659095243910327
 40
0.6659095243910327
 40
0.7736282146383119
 40
0.7736282146383119
 40
0.7736282146383119
 40
0.914872189300311
 40
0.914872189300311
 40
0.914872189300311
 40
1.0
 40
1.0
 40
1.0
 40
1.0
 10
-738.3313311888742
 20
-1510.450914831774
 30
0.0
 10
-662.8564860662009
 20
-1465.993129348557
 30
0.0
 10
-593.4418979336351
 20
-1399.306451123724
 30
0.0
 10
-511.9067958208561
 20
-1377.077558382112
 30
0.0
 10
-497.4712186918769
 20
-1373.141990910579
 30
0.0
 10
-480.889736181407
 20
-1377.077558382112
 30
0.0
 10
-465.3812063616842
 20
-1377.077558382112
 30
0.0
 10
-450.9065785299426
 20
-1377.077558382112
 30
0.0
 10
-436.431950698201
 20
-1377.077558382112
 30
0.0
 10
-421.9573228664613
 20
-1377.077558382112
 30
0.0
 10
-375.7892286716542
 20
-1377.077558382112
 30
0.0
 10
-338.3273466155206
 20
-1417.617694897221
 30
0.0
 10
-307.1942022004914
 20
-1454.620207480748
 30
0.0
 10
-283.7573311286851
 20
-1482.475508737582
 30
0.0
 10
-276.5149504577275
 20
-1517.687289856207
 30
0.0
 10
-254.465200813389
 20
-1544.569680435157
 30
0.0
 10
-230.8058355392022
 20
-1573.414465904822
 30
0.0
 10
-207.5467001572088
 20
-1603.365443714898
 30
0.0
 10
-176.922551714797
 20
-1625.214035497746
 30
0.0
 10
-145.6001946876368
 20
-1647.560759477674
 30
0.0
 10
-113.5858292516859
 20
-1667.623614973258
 30
0.0
 10
-80.76966683247156
 20
-1687.24815477664
 30
0.0
 10
-37.74013126530736
 20
-1712.980439456107
 30
0.0
 10
3.184857971056772
 20
-1742.819157818598
 30
0.0
 10
49.50198365322285
 20
-1761.689097911341
 30
0.0
 10
77.41733732873581
 20
-1773.06201977915
 30
0.0
 10
105.3326910042579
 20
-1784.434941646938
 30
0.0
 10
133.2480446797727
 20
-1795.807863514739
 30
0.0
  0
SPLINE
  5
2E0
330
1B49
100
AcDbEntity
  8
Stone Wall
100
AcDbSpline
210
0.0
220
0.0
230
1.0
 70
     8
 71
     3
 72
    35
 73
    31
 74
     0
 42
0.0000000001
 43
0.00000001
 40
0.0
 40
0.0
 40
0.0
 40
0.0
 40
0.2354295563943779
 40
0.2354295563943779
 40
0.2354295563943779
 40
0.449950560852613
 40
0.449950560852613
 40
0.449950560852613
 40
0.5916252550865901
 40
0.5916252550865901
 40
0.5916252550865901
 40
0.6595367737754484
 40
0.6595367737754484
 40
0.6595367737754484
 40
0.6976233423000999
 40
0.6976233423000999
 40
0.6976233423000999
 40
0.7563753000429205
 40
0.7563753000429205
 40
0.7563753000429205
 40
0.8212775978639583
 40
0.8212775978639583
 40
0.8212775978639583
 40
0.854871549385723
 40
0.854871549385723
 40
0.854871549385723
 40
0.9267027279193789
 40
0.9267027279193789
 40
0.9267027279193789
 40
1.0
 40
1.0
 40
1.0
 40
1.0
 10
-714.6902337294614
 20
-2762.87385975643
 30
0.0
 10
-638.9581678452159
 20
-2726.50535354083
 30
0.0
 10
-563.2261019609705
 20
-2690.136847325237
 30
0.0
 10
-487.4940360767268
 20
-2653.768341109641
 30
0.0
 10
-418.487752023033
 20
-2620.629730123408
 30
0.0
 10
-358.2565992200744
 20
-2571.768766044184
 30
0.0
 10
-294.0915238486832
 20
-2529.930619647857
 30
0.0
 10
-251.715405683939
 20
-2502.299728150843
 30
0.0
 10
-209.7860041200074
 20
-2474.259270952018
 30
0.0
 10
-167.8790461585031
 20
-2445.826058512215
 30
0.0
 10
-147.791018623424
 20
-2432.196647498273
 30
0.0
 10
-130.8875301657645
 20
-2415.836545512248
 30
0.0
 10
-113.9680840036035
 20
-2397.049473705429
 30
0.0
 10
-104.479212924065
 20
-2386.51318896961
 30
0.0
 10
-97.47427982615591
 20
-2374.554622697946
 30
0.0
 10
-94.71416894830873
 20
-2361.108832268837
 30
0.0
 10
-90.4564496540188
 20
-2340.367491116023
 30
0.0
 10
-97.10909429497951
 20
-2318.990734908322
 30
0.0
 10
-94.71416894830873
 20
-2298.212709754807
 30
0.0
 10
-92.06853526935629
 20
-2275.259575451619
 30
0.0
 10
-89.01027973084638
 20
-2252.596209648691
 30
0.0
 10
-80.59463124106696
 20
-2230.182209892682
 30
0.0
 10
-76.23862387489498
 20
-2218.580543287775
 30
0.0
 10
-69.23483057140402
 20
-2209.355297250062
 30
0.0
 10
-60.05712184873482
 20
-2200.659540141209
 30
0.0
 10
-40.43318349302172
 20
-2182.066119210456
 30
0.0
 10
-20.61649551148003
 20
-2165.009832921562
 30
0.0
 10
4.122595002329035
 20
-2158.300927019511
 30
0.0
 10
29.36661696373812
 20
-2151.455090555395
 30
0.0
 10
54.61063892515267
 20
-2144.609254091294
 30
0.0
 10
79.85466088656358
 20
-2137.763417627179
 30
0.0
  0
SPLINE
  5
2E1
330
1B49
100
AcDbEntity
  8
Stone Wall
100
AcDbSpline
210
0.0
220
0.0
230
1.0
 70
     8
 71
     3
 72
    11
 73
     7
 74
     0
 42
0.0000000001
 43
0.00000001
 40
0.0
 40
0.0
 40
0.0
 40
0.0
 40
0.3664023737418676
 40
0.3664023737418676
 40
0.3664023737418676
 40
1.0
 40
1.0
 40
1.0
 40
1.0
 10
-2378.421535635005
 20
-2465.413660753708
 30
0.0
 10
-2304.563581250537
 20
-2438.160584025103
 30
0.0
 10
-2231.726069951257
 20
-2407.734360958981
 30
0.0
 10
-2156.847672481592
 20
-2383.654430567909
 30
0.0
 10
-2027.364955406685
 20
-2342.014452692132
 30
0.0
 10
-1894.353056411323
 20
-2311.348737710425
 30
0.0
 10
-1763.105748376189
 20
-2275.195891281677
 30
0.0
  0
SPLINE
  5
2E2
330
1B49
100
AcDbEntity
  8
Stone Wall
100
AcDbSpline
210
0.0
220
0.0
230
1.0
 70
     8
 71
     3
 72
    20
 73
    16
 74
     0
 42
0.0000000001
 43
0.00000001
 40
0.0
 40
0.0
 40
0.0
 40
0.0
 40
0.3724435496016793
 40
0.3724435496016793
 40
0.3724435496016793
 40
0.6765582725111901
 40
0.6765582725111901
 40
0.6765582725111901
 40
0.8014025009469269
 40
0.8014025009469269
 40
0.8014025009469269
 40
0.8936820244947934
 40
0.8936820244947934
 40
0.8936820244947934
 40
1.0
 40
1.0
 40
1.0
 40
1.0
 10
-2524.452744709904
 20
-2067.160223997002
 30
0.0
 10
-2524.452744709904
 20
-1988.528122985601
 30
0.0
 10
-2524.452744709904
 20
-1909.896021974197
 30
0.0
 10
-2524.452744709904
 20
-1831.263920962796
 30
0.0
 10
-2524.452744709904
 20
-1767.057735524897
 30
0.0
 10
-2547.545846497731
 20
-1706.196188495374
 30
0.0
 10
-2571.632005316744
 20
-1644.512681060714
 30
0.0
 10
-2581.51978018332
 20
-1619.190559792743
 30
0.0
 10
-2592.820834770666
 20
-1598.640891031104
 30
0.0
 10
-2616.84546339832
 20
-1579.641197726291
 30
0.0
 10
-2634.603443170012
 20
-1565.597435610162
 30
0.0
 10
-2652.97320655574
 20
-1555.314015118147
 30
0.0
 10
-2671.887934106282
 20
-1559.983172473447
 30
0.0
 10
-2693.68015260818
 20
-1565.362647120099
 30
0.0
 10
-2715.472371110074
 20
-1570.742121766769
 30
0.0
 10
-2737.264589611972
 20
-1576.121596413424
 30
0.0
  0
SPLINE
  5
2E3
330
1B49
100
AcDbEntity
  8
Stone Wall
100
AcDbSpline
210
0.0
220
0.0
230
1.0
 70
     8
 71
     3
 72
     8
 73
     4
 74
     0
 42
0.0000000001
 43
0.00000001
 40
0.0
 40
0.0
 40
0.0
 40
0.0
 40
1.0
 40
1.0
 40
1.0
 40
1.0
 10
-2561.916808564572
 20
-1669.641107336141
 30
0.0
 10
-2399.372527849588
 20
-1657.988627702187
 30
0.0
 10
-2236.828247134605
 20
-1646.336148068236
 30
0.0
 10
-2074.283966419622
 20
-1634.683668434282
 30
0.0
  0
SPLINE
  5
2E4
330
1B49
100
AcDbEntity
  8
Stone Wall
100
AcDbSpline
210
0.0
220
0.0
230
1.0
 70
    24
 71
     3
 72
     8
 73
     4
 74
     0
 42
0.0000000001
 43
0.00000001
 40
0.0
 40
0.0
 40
0.0
 40
0.0
 40
1.0
 40
1.0
 40
1.0
 40
1.0
 10
-1542.954263481044
 20
680.0583478196168
 30
0.0
 10
-1278.111677307523
 20
680.0583478196168
 30
0.0
 10
-1013.269091134
 20
680.0583478196168
 30
0.0
 10
-748.4265049604783
 20
680.0583478196168
 30
0.0
  0
SPLINE
  5
2E5
330
1B49
100
AcDbEntity
  8
Stone Wall
100
AcDbSpline
210
0.0
220
0.0
230
1.0
 70
     8
 71
     3
 72
    14
 73
    10
 74
     0
 42
0.0000000001
 43
0.00000001
 40
0.0
 40
0.0
 40
0.0
 40
0.0
 40
0.4002242460848597
 40
0.4002242460848597
 40
0.4002242460848597
 40
0.5735650695042448
 40
0.5735650695042448
 40
0.5735650695042448
 40
1.0
 40
1.0
 40
1.0
 40
1.0
 10
-1522.227452389196
 20
756.0566551563716
 30
0.0
 10
-1447.380634557547
 20
821.6915569472003
 30
0.0
 10
-1372.5338167259
 20
887.326458738029
 30
0.0
 10
-1297.686998894251
 20
952.9613605288541
 30
0.0
 10
-1265.270149689899
 20
981.388443677286
 30
0.0
 10
-1240.589372648452
 20
1019.796118397153
 30
0.0
 10
-1225.143160072812
 20
1060.049884503365
 30
0.0
 10
-1187.144006404435
 20
1159.077981942159
 30
0.0
 10
-1149.144852736083
 20
1258.106079380959
 30
0.0
 10
-1111.145699067705
 20
1357.134176819749
 30
0.0
  0
SPLINE
  5
2E6
330
1B49
100
AcDbEntity
  8
Stone Wall
100
AcDbSpline
210
0.0
220
0.0
230
1.0
 70
     8
 71
     3
 72
     8
 73
     4
 74
     0
 42
0.0000000001
 43
0.00000001
 40
0.0
 40
0.0
 40
0.0
 40
0.0
 40
1.0
 40
1.0
 40
1.0
 40
1.0
 10
-2776.199523445575
 20
1612.764846952454
 30
0.0
 10
-2359.360322598548
 20
1643.855063590214
 30
0.0
 10
-1942.521121751521
 20
1674.945280227978
 30
0.0
 10
-1525.681920904493
 20
1706.035496865741
 30
0.0
  0
LWPOLYLINE
  5
2E7
330
1B49
100
AcDbEntity
  8
Stone Wall
100
AcDbPolyline
 90
        4
 70
   128
 43
0.0
 10
-2430.752672
 20
1225.864373
 10
-2220.49397
 20
1225.864373
 42
0.385026
 10
-2208.578559
 20
1236.63684
 10
-2175.122002
 20
1567.856756
  0
POINT
  5
2EB
330
1B49
100
AcDbEntity
  8
Stone Wall
100
AcDbPoint
 10
-2175.122002
 20
1567.856756
 30
0.0
  0
LWPOLYLINE
  5
2EC
330
1B49
100
AcDbEntity
  8
Stone Wall
100
AcDbPolyline
 90
        3
 70
   128
 43
0.0
 10
564.271531
 20
1688.763154
 10
-903.877588
 20
1875.304454
 10
-903.877588
 20
1875.304454
  0
LWPOLYLINE
  5
2ED
330
1B49
100
AcDbEntity
  8
Stone Wall
100
AcDbPolyline
 90
        4
 70
   128
 43
0.0
 10
1472.79675
 20
248.249783
 10
1524.613778
 20
590.242166
 10
1524.613778
 20
590.242166
 10
1524.613778
 20
590.242166
  0
LWPOLYLINE
  5
2EE
330
1B49
100
AcDbEntity
  8
Stone Wall
100
AcDbPolyline
 90
        3
 70
   128
 43
0.0
 10
97.918281
 20
894.235396
 10
315.549798
 20
766.420061
 10
315.549798
 20
766.420061
  0
LWPOLYLINE
  5
2EF
330
1B49
100
AcDbEntity
  8
Stone Wall
100
AcDbPolyline
 90
        5
 70
   128
 43
0.0
 10
-201.090284
 20
-295.795469
 10
-201.090284
 20
-81.28602
 42
0.360664
 10
-210.848983
 20
-69.517036
 10
-477.632227
 20
-19.253526
 10
-477.632227
 20
-19.253526
  0
LWPOLYLINE
  5
2F3
330
1B49
100
AcDbEntity
  8
Stone Wall
100
AcDbPolyline
 90
        3
 70
   128
 43
0.0
 10
-680.804659
 20
526.077302
 10
-646.878951
 20
759.033831
 10
-646.878951
 20
759.033831
  0
LINE
  5
2F4
330
1B49
100
AcDbEntity
  8
Stone Wall
100
AcDbLine
 10
-511.176119
 20
37.547107
 30
0.0
 11
-511.176119
 21
295.382488
 31
0.0
  0
LINE
  5
2F5
330
1B49
100
AcDbEntity
  8
Stone Wall
100
AcDbLine
 10
-198.707823
 20
-4531.745623
 30
0.0
 11
-152.229869
 21
-4341.186014
 31
0.0
  0
LINE
  5
2F6
330
1B49
100
AcDbEntity
  8
Stone Wall
100
AcDbLine
 10
-1077.141143
 20
-4008.094014
 30
0.0
 11
-1010.522743
 21
-3690.494666
 31
0.0
  0
LINE
  5
2F7
330
1B49
100
AcDbEntity
  8
Stone Wall
100
AcDbLine
 10
-1518.743746
 20
-4383.666713
 30
0.0
 11
-1571.493967
 21
-4141.266888
 31
0.0
  0
LWPOLYLINE
  5
2F8
330
1B49
100
AcDbEntity
  8
Stone Wall
100
AcDbPolyline
 90
       10
 70
   128
 43
0.0
 10
-923.709772
 20
-2161.494707
 10
-1936.171006
 20
-1694.479544
 42
-0.378826
 10
-1942.560437
 20
-1679.952733
 10
-1736.22215
 20
-1035.519385
 42
-0.231019
 10
-1728.954307
 20
-1027.932803
 10
-1408.741427
 20
-910.036243
 42
0.414214
 10
-1401.640732
 20
-894.659918
 10
-1471.998915
 20
-703.563618
 42
0.414214
 10
-1487.37524
 20
-696.462923
 10
-1714.317757
 20
-780.019032
  0
LWPOLYLINE
  5
302
330
1B49
100
AcDbEntity
  8
Stone Wall
100
AcDbPolyline
 90
        4
 70
   128
 43
0.0
 10
-2426.15259
 20
-1018.763325
 10
-2600.839502
 20
-322.012099
 42
-0.473739
 10
-2589.782961
 20
-307.136705
 10
-2365.040051
 20
-296.616825
  0
LWPOLYLINE
  5
306
330
1B49
100
AcDbEntity
  8
Stone Wall
100
AcDbPolyline
 90
        4
 70
   128
 43
0.0
 10
-2106.330303
 20
264.44177
 10
-2092.330672
 20
-47.550013
 42
0.414214
 10
-2079.829821
 20
-58.977172
 10
-1925.593502
 20
-52.056311
  0
LWPOLYLINE
  5
30A
330
1B49
100
AcDbEntity
  8
Stone Wall
100
AcDbPolyline
 90
        9
 70
   128
 43
0.0
 10
-1728.528701
 20
-3297.500418
 10
-1913.430535
 20
-3269.824425
 42
0.001636
 10
-1913.508062
 20
-3269.81308
 10
-2221.04507
 20
-3225.836278
 42
0.001217
 10
-2221.102801
 20
-3225.828166
 10
-2504.37955
 20
-3186.726697
 10
-2668.035432
 20
-3164.136825
 42
-0.012231
 10
-2668.613646
 20
-3164.042547
 10
-3052.749452
 20
-3091.72223
  0
LWPOLYLINE
  5
312
330
1B49
100
AcDbEntity
  8
Stone Wall
100
AcDbPolyline
 90
       10
 70
   128
 43
0.0
 10
-3363.647475
 20
77.395668
 10
-3113.673514
 20
-1527.275887
 42
-0.030911
 10
-3113.536524
 20
-1528.748887
 10
-3086.668257
 20
-2397.099394
 10
-3071.423847
 20
-2889.780641
 42
0.003412
 10
-3071.417678
 20
-2889.943961
 10
-3042.26593
 20
-3543.445956
 42
-0.016
 10
-3042.256289
 20
-3544.212159
 10
-3045.668989
 20
-3719.966173
 10
-3045.668989
 20
-3719.966173
  0
LINE
  5
31A
330
1B49
100
AcDbEntity
  8
Stone Wall
100
AcDbLine
 10
-3046.524024
 20
-3782.383749
 30
0.0
 11
-3046.524024
 21
-3836.250972
 31
0.0
  0
LINE
  5
31B
330
1B49
100
AcDbEntity
  8
Stone Wall
100
AcDbLine
 10
-3049.944165
 20
-3902.943725
 30
0.0
 11
-3049.944165
 21
-3973.056619
 31
0.0
  0
LINE
  5
31C
330
1B49
100
AcDbEntity
  8
Stone Wall
100
AcDbLine
 10
-3075.595224
 20
-4172.279841
 30
0.0
 11
-3075.595224
 21
-4254.514502
 31
0.0
  0
LINE
  5
31D
330
1B49
100
AcDbEntity
  8
Stone Wall
100
AcDbLine
 10
-3080.725436
 20
-4315.92577
 30
0.0
 11
-3080.725436
 21
-4416.819934
 31
0.0
  0
LINE
  5
31E
330
1B49
100
AcDbEntity
  8
Stone Wall
100
AcDbLine
 10
-3058.494518
 20
-4044.879583
 30
0.0
 11
-3058.494518
 21
-4121.832759
 31
0.0
  0
LINE
  5
31F
330
1B49
100
AcDbEntity
  8
Stone Wall
100
AcDbLine
 10
-3079.015365
 20
-4499.758357
 30
0.0
 11
-3079.015365
 21
-4588.682027
 31
0.0
  0
LINE
  5
320
330
1B49
100
AcDbEntity
  8
Stone Wall
100
AcDbLine
 10
-3098.681177
 20
-4672.475485
 30
0.0
 11
-3098.681177
 21
-4816.976449
 31
0.0
  0
LINE
  5
321
330
1B49
100
AcDbEntity
  8
Stone Wall
100
AcDbLine
 10
-3132.027553
 20
-4918.725649
 30
0.0
 11
-3149.983294
 21
-4989.693578
 31
0.0
  0
LINE
  5
322
330
1B49
100
AcDbEntity
  8
Stone Wall
100
AcDbLine
 10
-3169.649106
 20
-5075.197107
 30
0.0
 11
-3197.86527
 21
-5201.74233
 31
0.0
  0
LINE
  5
323
330
1B49
100
AcDbEntity
  8
Stone Wall
100
AcDbLine
 10
-3227.791505
 20
-5369.329246
 30
0.0
 11
-3246.602282
 21
-5447.992493
 31
0.0
  0
LINE
  5
324
330
1B49
100
AcDbEntity
  8
Stone Wall
100
AcDbLine
 10
-3279.948658
 20
-5553.161834
 30
0.0
 11
-3321.845387
 21
-5695.952727
 31
0.0
  0
LINE
  5
325
330
1B49
100
AcDbEntity
  8
Stone Wall
100
AcDbLine
 10
-3348.351481
 20
-5814.802632
 30
0.0
 11
-3379.132752
 21
-5989.912415
 31
0.0
  0
LINE
  5
326
330
1B49
100
AcDbEntity
  8
Stone Wall
100
AcDbLine
 10
-3409.058987
 20
-6116.630089
 30
0.0
 11
-3424.449622
 21
-6297.042535
 31
0.0
  0
LINE
  5
327
330
1B49
100
AcDbEntity
  8
Stone Wall
100
AcDbLine
 10
-3456.940963
 20
-6403.066911
 30
0.0
 11
-3469.766492
 21
-6607.420345
 31
0.0
  0
LINE
  5
328
330
1B49
100
AcDbEntity
  8
Stone Wall
100
AcDbLine
 10
-3476.606775
 20
-6743.370957
 30
0.0
 11
-3491.99741
 21
-6940.884108
 31
0.0
  0
LINE
  5
329
330
1B49
100
AcDbEntity
  8
Stone Wall
100
AcDbLine
 10
-3518.931021
 20
-7125.999249
 30
0.0
 11
-3530.04648
 21
-7318.382189
 31
0.0
  0
LINE
  5
32A
330
1B49
100
AcDbEntity
  8
Stone Wall
100
AcDbLine
 10
-3560.773674
 20
-7551.687678
 30
0.0
 11
-3560.773674
 21
-7650.135881
 31
0.0
  0
LINE
  5
32B
330
1B49
100
AcDbEntity
  8
Stone Wall
100
AcDbLine
 10
-3568.269878
 20
-7896.070594
 30
0.0
 11
-3568.269878
 21
-8091.068448
 31
0.0
  0
LINE
  5
32C
330
1B49
100
AcDbEntity
  8
Stone Wall
100
AcDbLine
 10
-3574.993942
 20
-8309.974085
 30
0.0
 11
-3574.993942
 21
-8504.971939
 31
0.0
  0
LINE
  5
32D
330
1B49
100
AcDbEntity
  8
Stone Wall
100
AcDbLine
 10
-3592.812284
 20
-8716.406394
 30
0.0
 11
-3592.812284
 21
-8886.002228
 31
0.0
  0
POINT
  5
32E
330
1B49
100
AcDbEntity
  8
Stone Wall
100
AcDbPoint
 10
-3899.243247
 20
-9307.376901
 30
0.0
  0
LINE
  5
32F
330
1B49
100
AcDbEntity
  8
Stone Wall
100
AcDbLine
 10
-3613.096971
 20
-9041.402817
 30
0.0
 11
-3613.096971
 21
-9178.872568
 31
0.0
  0
LINE
  5
330
330
1B49
100
AcDbEntity
  8
Stone Wall
100
AcDbLine
 10
-3592.812284
 20
-9352.203994
 30
0.0
 11
-3592.812284
 21
-9491.167982
 31
0.0
  0
HATCH
  5
1BC0
330
1B49
100
AcDbEntity
  8
Pond
100
AcDbHatch
 10
0.0
 20
0.0
 30
0.0
210
0.0
220
0.0
230
1.0
  2
SOLID
 70
     1
 71
     1
 91
        1
 92
        1
 93
        1
 72
     2
 10
1719.100230103692
 20
2637.019595162354
 40
124.2395528445509
 50
180.0
 51
540.0
 73
     1
 97
        1
330
331
 75
     0
 76
     1
 98
        0
  0
CIRCLE
  5
331
102
{ACAD_REACTORS
330
1BC0
102
}
330
1B49
100
AcDbEntity
  8
Pond
 62
   250
100
AcDbCircle
 10
1719.10023
 20
2637.019595
 30
0.0
 40
124.2395528445509
  0
LWPOLYLINE
  5
332
330
1B49
100
AcDbEntity
  8
Stone Wall
100
AcDbPolyline
 90
        4
 70
   128
 43
0.0
 10
1562.196109
 20
-1588.41398
 10
1387.128147
 20
-1561.05961
 42
-0.398234
 10
1377.060915
 20
-1548.029962
 10
1407.21496
 20
-1247.892019
  0
LWPOLYLINE
  5
336
330
1B49
100
AcDbEntity
  8
Structures
100
AcDbPolyline
 90
        4
 70
   129
 43
0.0
 10
271.725758
 20
-420.31317
 10
617.594878
 20
-433.531099
 10
613.188902
 20
-214.33379
 10
272.827252
 20
-194.506897
  0
LWPOLYLINE
  5
337
330
1B49
100
AcDbEntity
  8
Sunken Footpath
100
AcDbPolyline
 90
       41
 70
   128
 43
0.0
 10
-601.557761
 20
-8069.045239
 10
-326.968013
 20
-6970.686246
 10
-125.156616
 20
-6163.440658
 10
38.483655
 20
-5508.879575
 42
-0.019104
 10
38.739267
 20
-5508.001192
 10
190.481665
 20
-5052.218163
 42
0.022164
 10
190.77195
 20
-5051.197389
 10
291.556732
 20
-4626.011591
 42
-0.016511
 10
291.764413
 20
-4625.248615
 10
534.506704
 20
-3837.124294
 42
0.023953
 10
534.791406
 20
-3836.013405
 10
568.688003
 20
-3671.32364
 42
0.054252
 10
568.932742
 20
-3668.743938
 10
566.252179
 20
-3474.659145
 42
0.04363
 10
566.041807
 20
-3472.583671
 10
528.487693
 20
-3275.424573
 42
0.027741
 10
528.1673
 20
-3274.135936
 10
424.20854
 20
-2937.057532
 10
384.806338
 20
-2809.298878
 42
-0.056096
 10
384.308102
 20
-2806.666802
 10
373.790486
 20
-2666.70469
 42
-0.045154
 10
373.823388
 20
-2664.546263
 10
402.115112
 20
-2397.346648
 10
444.490585
 20
-1997.133846
 10
480.532482
 20
-1656.738151
 10
511.374467
 20
-1365.452736
 42
-0.026837
 10
511.578064
 20
-1364.184282
 10
578.680762
 20
-1053.644961
 42
0.035885
 10
578.922158
 20
-1051.945177
 10
594.643556
 20
-825.557055
 10
658.482614
 20
93.725382
 10
682.600745
 20
441.026472
 42
-0.034804
 10
682.831325
 20
442.675671
 10
730.043913
 20
665.831865
 42
0.063564
 10
730.290914
 20
668.85454
 10
724.111739
 20
804.796394
 42
-0.058478
 10
724.3109
 20
807.581061
 10
774.547184
 20
1071.321551
 10
824.959577
 20
1335.986613
 42
-0.019376
 10
825.168366
 20
1336.890666
 10
960.76322
 20
1835.122919
  0
LWPOLYLINE
  5
357
330
1B49
100
AcDbEntity
  8
Sunken Footpath
100
AcDbPolyline
 90
       29
 70
   128
 43
0.0
 10
1052.293136
 20
1803.560879
 10
863.097457
 20
1160.29557
 42
0.026107
 10
862.807856
 20
1159.079824
 10
806.185269
 20
850.801294
 42
0.017569
 10
806.062436
 20
849.96893
 10
752.453756
 20
370.644262
 10
719.874682
 20
79.349016
 10
668.547488
 20
-379.57649
 42
0.030207
 10
668.473811
 20
-381.020323
 10
673.540559
 20
-919.382849
 42
-0.035874
 10
673.433692
 20
-921.095823
 10
597.79976
 20
-1482.047487
 10
501.380781
 20
-2197.154916
 42
0.018341
 10
501.295415
 20
-2198.029092
 10
471.5516
 20
-2687.717416
 10
459.928677
 20
-2879.071801
 42
0.109752
 10
460.745884
 20
-2884.202115
 10
591.108285
 20
-3213.844952
 42
-0.042955
 10
591.697057
 20
-3215.812691
 10
641.639177
 20
-3456.159143
 42
-0.07094
 10
641.852847
 20
-3459.53371
 10
607.380988
 20
-3898.266459
 42
-0.05981
 10
606.819714
 20
-3901.065666
 10
465.239192
 20
-4332.099701
 10
364.710285
 20
-4638.154372
 42
0.011797
 10
364.546672
 20
-4638.695196
 10
-20.816225
 20
-6030.137454
 10
-148.164511
 20
-6489.958024
 10
-554.439544
 20
-8082.481902
  0
LINE
  5
36D
330
1B49
100
AcDbEntity
  8
Stone Wall
100
AcDbLine
 10
490.364112
 20
-1722.788256
 30
0.0
 11
490.918792
 21
-1710.791472
 31
0.0
  0
LWPOLYLINE
  5
36E
330
1B49
100
AcDbEntity
  8
Stone Wall
100
AcDbPolyline
 90
       20
 70
   128
 43
0.0
 10
-633.085659
 20
-8061.503732
 10
-347.836566
 20
-6887.434999
 42
-0.010808
 10
-347.703497
 20
-6886.934692
 10
-58.397524
 20
-5886.762613
 42
0.010101
 10
-58.272497
 20
-5886.295205
 10
255.924446
 20
-4608.836578
 10
383.094933
 20
-4091.78815
 10
475.536854
 20
-3715.938763
 10
520.61083
 20
-3532.677465
 42
0.081682
 10
520.914347
 20
-3528.802346
 10
499.981713
 20
-3282.656836
 42
0.047368
 10
499.577491
 20
-3280.429176
 10
425.906408
 20
-3018.487547
 42
0.069031
 10
424.588449
 20
-3015.471782
 10
348.157742
 20
-2890.76905
 42
-0.100041
 10
346.528789
 20
-2886.312524
 10
318.20832
 20
-2700.206584
 42
-0.071759
 10
318.181837
 20
-2696.786763
 10
342.757991
 20
-2516.561632
 10
371.326307
 20
-2256.517109
  0
LWPOLYLINE
  5
37E
330
1B49
100
AcDbEntity
  8
Stone Wall
100
AcDbPolyline
 90
        7
 70
   128
 43
0.0
 10
371.326307
 20
-2256.517109
 10
382.05828
 20
-2128.75785
 42
-0.008752
 10
382.10068
 20
-2128.340758
 10
488.190929
 20
-1239.6309
 42
-0.020007
 10
488.342447
 20
-1238.684927
 10
532.349939
 20
-1020.277373
 10
556.585488
 20
-899.997242
  0
LINE
  5
384
330
1B49
100
AcDbEntity
  8
Stone Wall
100
AcDbLine
 10
520.916039
 20
-2645.524539
 30
0.0
 11
710.392091
 21
-1044.778587
 31
0.0
  0
TEXT
  5
385
330
1B49
100
AcDbEntity
  8
Structure Numbers
100
AcDbText
 10
496.531559
 20
-5388.180943
 30
0.0
 40
119.760434
  1
1
 50
359.9
  7
Style-Garamond
 11
496.74058
 21
-5268.420692
 31
0.0
100
AcDbText
 73
     3
  0
HATCH
  5
1BC1
330
1B49
100
AcDbEntity
  8
Tombs
100
AcDbHatch
 10
0.0
 20
0.0
 30
0.0
210
0.0
220
0.0
230
1.0
  2
SOLID
 70
     1
 71
     1
 91
        1
 92
        3
 72
     1
 73
     1
 93
        8
 10
1928.767771024634
 20
3393.947720133485
 42
0.0
 10
1953.235671737024
 20
3384.3210050991
 42
0.4142135623730954
 10
1968.764890579166
 20
3391.080782712754
 42
0.0
 10
1999.632682575181
 20
3469.536420702589
 42
0.414213562373093
 10
1992.872904961529
 20
3485.065639544748
 42
0.0
 10
1964.385932078924
 20
3496.273628875617
 42
0.4292852979203943
 10
1948.646984084058
 20
3488.937954115176
 42
0.0
 10
1921.798264258309
 20
3408.901041828849
 42
0.3993007574554891
 97
        1
330
387
 75
     0
 76
     1
 98
        0
  0
LWPOLYLINE
  5
387
102
{ACAD_REACTORS
330
1BC1
102
}
330
1B49
100
AcDbEntity
  8
Tombs
 62
   250
100
AcDbPolyline
 90
        8
 70
   129
 43
0.0
 10
1928.767771
 20
3393.94772
 10
1953.235672
 20
3384.321005
 42
0.414214
 10
1968.764891
 20
3391.080783
 10
1999.632683
 20
3469.536421
 42
0.414214
 10
1992.872905
 20
3485.06564
 10
1964.385932
 20
3496.273629
 42
0.429285
 10
1948.646984
 20
3488.937954
 10
1921.798264
 20
3408.901042
 42
0.399301
  0
HATCH
  5
1BC2
330
1B49
100
AcDbEntity
  8
Tombs
100
AcDbHatch
 10
0.0
 20
0.0
 30
0.0
210
0.0
220
0.0
230
1.0
  2
SOLID
 70
     1
 71
     1
 91
        1
 92
        3
 72
     1
 73
     1
 93
        8
 10
1857.265269899429
 20
3416.197582975055
 42
0.0
 10
1881.716331566252
 20
3406.528178081822
 42
0.4142135623730954
 10
1897.257324787689
 20
3413.260841813612
 42
0.0
 10
1928.262000619801
 20
3491.662485875739
 42
0.414213562373093
 10
1921.529336888017
 20
3507.20347909717
 42
0.0
 10
1893.061969015255
 20
3518.461170479128
 42
0.4292852979203943
 10
1877.31024183092
 20
3511.15297652395
 42
0.0
 10
1850.321872204752
 20
3431.163045973091
 42
0.3993007574554891
 97
        1
330
390
 75
     0
 76
     1
 98
        0
  0
LWPOLYLINE
  5
390
102
{ACAD_REACTORS
330
1BC2
102
}
330
1B49
100
AcDbEntity
  8
Tombs
 62
   250
100
AcDbPolyline
 90
        8
 70
   129
 43
0.0
 10
1857.26527
 20
3416.197583
 10
1881.716332
 20
3406.528178
 42
0.414214
 10
1897.257325
 20
3413.260842
 10
1928.262001
 20
3491.662486
 42
0.414214
 10
1921.529337
 20
3507.203479
 10
1893.061969
 20
3518.46117
 42
0.429285
 10
1877.310242
 20
3511.152977
 10
1850.321872
 20
3431.163046
 42
0.399301
  0
SOLID
  5
39C
330
1B49
100
AcDbEntity
  8
0
  6
Continuous
 62
   253
370
     0
100
AcDbTrace
 10
-2903.146537
 20
-3445.049195
 30
0.0
 11
-3011.517231
 21
-3449.148059
 31
0.0
 12
-2904.697013
 22
-3404.055854
 32
0.0
 13
-3013.067707
 23
-3408.154718
 33
0.0
  0
HATCH
  5
1BC3
330
1B49
100
AcDbEntity
  8
Tombs
  6
DGN Style 2
100
AcDbHatch
 10
0.0
 20
0.0
 30
0.0
210
0.0
220
0.0
230
1.0
  2
SOLID
 70
     1
 71
     1
 91
        1
 92
        3
 72
     0
 73
     1
 93
        4
 10
-2787.002047871105
 20
-5005.491329885637
 10
-2824.307723541873
 20
-4975.866234500034
 10
-2722.426297947475
 20
-4847.57110597381
 10
-2685.120622276736
 20
-4877.196201359398
 97
        1
330
3A2
 75
     0
 76
     1
 98
        0
  0
LWPOLYLINE
  5
3A2
102
{ACAD_REACTORS
330
1BC3
102
}
330
1B49
100
AcDbEntity
  8
Tombs
  6
DGN Style 2
 62
   250
100
AcDbPolyline
 90
        4
 70
   129
 43
0.0
 10
-2824.307724
 20
-4975.866235
 10
-2722.426298
 20
-4847.571106
 10
-2685.120622
 20
-4877.196201
 10
-2787.002048
 20
-5005.49133
  0
HATCH
  5
1BC4
330
1B49
100
AcDbEntity
  8
Tombs
  6
DGN Style 2
100
AcDbHatch
 10
0.0
 20
0.0
 30
0.0
210
0.0
220
0.0
230
1.0
  2
SOLID
 70
     1
 71
     1
 91
        1
 92
        3
 72
     0
 73
     1
 93
        4
 10
-2237.137385763232
 20
-4777.973896433974
 10
-2260.929024545054
 20
-4736.702627518032
 10
-2168.320323562943
 20
-4683.316511227113
 10
-2144.52868478112
 20
-4724.58778014304
 97
        1
330
3A3
 75
     0
 76
     1
 98
        0
  0
LWPOLYLINE
  5
3A3
102
{ACAD_REACTORS
330
1BC4
102
}
330
1B49
100
AcDbEntity
  8
Tombs
  6
DGN Style 2
 62
   250
100
AcDbPolyline
 90
        4
 70
   129
 43
0.0
 10
-2144.528685
 20
-4724.58778
 10
-2237.137386
 20
-4777.973896
 10
-2260.929025
 20
-4736.702628
 10
-2168.320324
 20
-4683.316511
  0
HATCH
  5
1BC5
330
1B49
100
AcDbEntity
  8
Probable graves
  6
DGN Style 2
100
AcDbHatch
 10
0.0
 20
0.0
 30
0.0
210
0.0
220
0.0
230
1.0
  2
SOLID
 70
     1
 71
     1
 91
        1
 92
        3
 72
     0
 73
     1
 93
        4
 10
-1301.727519527844
 20
-4456.182325861013
 10
-1323.786216613966
 20
-4420.64331388893
 10
-1238.887465791766
 20
-4367.947537516546
 10
-1216.828768705645
 20
-4403.486549488629
 97
        1
330
3A4
 75
     0
 76
     1
 98
        0
  0
LWPOLYLINE
  5
3A4
102
{ACAD_REACTORS
330
1BC5
102
}
330
1B49
100
AcDbEntity
  8
Probable graves
  6
DGN Style 2
 62
   250
100
AcDbPolyline
 90
        4
 70
   129
 43
0.0
 10
-1216.828769
 20
-4403.486549
 10
-1301.72752
 20
-4456.182326
 10
-1323.786217
 20
-4420.643314
 10
-1238.887466
 20
-4367.947538
  0
HATCH
  5
1BC6
330
1B49
100
AcDbEntity
  8
Probable graves
  6
DGN Style 2
100
AcDbHatch
 10
0.0
 20
0.0
 30
0.0
210
0.0
220
0.0
230
1.0
  2
SOLID
 70
     1
 71
     1
 91
        1
 92
        3
 72
     0
 73
     1
 93
        4
 10
-233.9592252947787
 20
-4458.446502057148
 10
-330.6766824413753
 20
-4432.608982798945
 10
-320.3107316012665
 20
-4393.80617065031
 10
-223.5932744546699
 20
-4419.643689908527
 97
        1
330
3A5
 75
     0
 76
     1
 98
        0
  0
LWPOLYLINE
  5
3A5
102
{ACAD_REACTORS
330
1BC6
102
}
330
1B49
100
AcDbEntity
  8
Probable graves
  6
DGN Style 2
 62
   250
100
AcDbPolyline
 90
        4
 70
   129
 43
0.0
 10
-233.959225
 20
-4458.446502
 10
-330.676682
 20
-4432.608983
 10
-320.310732
 20
-4393.806171
 10
-223.593274
 20
-4419.64369
  0
HATCH
  5
1BC7
330
1B49
100
AcDbEntity
  8
Probable graves
  6
DGN Style 2
100
AcDbHatch
 10
0.0
 20
0.0
 30
0.0
210
0.0
220
0.0
230
1.0
  2
SOLID
 70
     1
 71
     1
 91
        1
 92
        3
 72
     0
 73
     1
 93
        4
 10
-56.44356795365638
 20
-4523.339144645186
 10
-88.92112075966179
 20
-4489.701679238948
 10
-31.99617930296699
 20
-4434.739666797985
 10
0.4813735030384123
 20
-4468.377132204223
 97
        1
330
3A6
 75
     0
 76
     1
 98
        0
  0
LWPOLYLINE
  5
3A6
102
{ACAD_REACTORS
330
1BC7
102
}
330
1B49
100
AcDbEntity
  8
Probable graves
  6
DGN Style 2
 62
   250
100
AcDbPolyline
 90
        4
 70
   129
 43
0.0
 10
-56.443568
 20
-4523.339145
 10
-88.921121
 20
-4489.701679
 10
-31.996179
 20
-4434.739667
 10
0.481374
 20
-4468.377132
  0
HATCH
  5
1BC8
330
1B49
100
AcDbEntity
  8
Probable graves
  6
DGN Style 2
100
AcDbHatch
 10
0.0
 20
0.0
 30
0.0
210
0.0
220
0.0
230
1.0
  2
SOLID
 70
     1
 71
     1
 91
        1
 92
        3
 72
     0
 73
     1
 93
        4
 10
-3028.327556669012
 20
-3450.410704117709
 10
-3028.327556669012
 20
-3395.948235758897
 10
-2895.927418072573
 20
-3395.948235758897
 10
-2895.927418072573
 20
-3450.410704117709
 97
        1
330
3A7
 75
     0
 76
     1
 98
        0
  0
LWPOLYLINE
  5
3A7
102
{ACAD_REACTORS
330
1BC8
102
}
330
1B49
100
AcDbEntity
  8
Probable graves
  6
DGN Style 2
 62
   250
100
AcDbPolyline
 90
        4
 70
   129
 43
0.0
 10
-3028.327557
 20
-3395.948236
 10
-2895.927418
 20
-3395.948236
 10
-2895.927418
 20
-3450.410704
 10
-3028.327557
 20
-3450.410704
  0
HATCH
  5
1BC9
330
1B49
100
AcDbEntity
  8
Probable graves
  6
DGN Style 2
100
AcDbHatch
 10
0.0
 20
0.0
 30
0.0
210
0.0
220
0.0
230
1.0
  2
SOLID
 70
     1
 71
     1
 91
        1
 92
        3
 72
     0
 73
     1
 93
        4
 10
-2801.922302696417
 20
-2625.878631158081
 10
-2847.735834242794
 20
-2589.227805920986
 10
-2784.079137778368
 20
-2509.656935340438
 10
-2738.265606231991
 20
-2546.307760577533
 97
        1
330
3A8
 75
     0
 76
     1
 98
        0
  0
LWPOLYLINE
  5
3A8
102
{ACAD_REACTORS
330
1BC9
102
}
330
1B49
100
AcDbEntity
  8
Probable graves
  6
DGN Style 2
 62
   250
100
AcDbPolyline
 90
        4
 70
   129
 43
0.0
 10
-2847.735834
 20
-2589.227806
 10
-2784.079138
 20
-2509.656935
 10
-2738.265606
 20
-2546.307761
 10
-2801.922303
 20
-2625.878631
  0
HATCH
  5
1BCA
330
1B49
100
AcDbEntity
  8
Probable graves
  6
DGN Style 2
100
AcDbHatch
 10
0.0
 20
0.0
 30
0.0
210
0.0
220
0.0
230
1.0
  2
SOLID
 70
     1
 71
     1
 91
        1
 92
        3
 72
     0
 73
     1
 93
        4
 10
-2722.666409584073
 20
-2668.079820997104
 10
-2768.47994113045
 20
-2631.428995760012
 10
-2704.823244666024
 20
-2551.858125179479
 10
-2659.009713119647
 20
-2588.508950416584
 97
        1
330
3A9
 75
     0
 76
     1
 98
        0
  0
LWPOLYLINE
  5
3A9
102
{ACAD_REACTORS
330
1BCA
102
}
330
1B49
100
AcDbEntity
  8
Probable graves
  6
DGN Style 2
 62
   250
100
AcDbPolyline
 90
        4
 70
   129
 43
0.0
 10
-2768.479941
 20
-2631.428996
 10
-2704.823245
 20
-2551.858125
 10
-2659.009713
 20
-2588.50895
 10
-2722.66641
 20
-2668.079821
  0
HATCH
  5
1BCB
330
1B49
100
AcDbEntity
  8
Probable graves
  6
DGN Style 2
100
AcDbHatch
 10
0.0
 20
0.0
 30
0.0
210
0.0
220
0.0
230
1.0
  2
SOLID
 70
     1
 71
     1
 91
        1
 92
        3
 72
     0
 73
     1
 93
        4
 10
-2425.826822129207
 20
-5975.146249313642
 10
-2453.816052220473
 20
-5936.761019474219
 10
-2346.337408670059
 20
-5858.391175218691
 10
-2318.348178578794
 20
-5896.776405058128
 97
        1
330
3AA
 75
     0
 76
     1
 98
        0
  0
LWPOLYLINE
  5
3AA
102
{ACAD_REACTORS
330
1BCB
102
}
330
1B49
100
AcDbEntity
  8
Probable graves
  6
DGN Style 2
 62
   250
100
AcDbPolyline
 90
        4
 70
   129
 43
0.0
 10
-2318.348179
 20
-5896.776405
 10
-2425.826822
 20
-5975.146249
 10
-2453.816052
 20
-5936.761019
 10
-2346.337409
 20
-5858.391175
  0
HATCH
  5
1BCC
330
1B49
100
AcDbEntity
  8
Probable graves
  6
DGN Style 2
100
AcDbHatch
 10
0.0
 20
0.0
 30
0.0
210
0.0
220
0.0
230
1.0
  2
SOLID
 70
     1
 71
     1
 91
        1
 92
        3
 72
     0
 73
     1
 93
        4
 10
-2557.383546589635
 20
-5928.096745884443
 10
-2585.372776680901
 20
-5889.711516045005
 10
-2477.894133130489
 20
-5811.341671789476
 10
-2449.904903039253
 20
-5849.726901628914
 97
        1
330
3AB
 75
     0
 76
     1
 98
        0
  0
LWPOLYLINE
  5
3AB
102
{ACAD_REACTORS
330
1BCC
102
}
330
1B49
100
AcDbEntity
  8
Probable graves
  6
DGN Style 2
 62
   250
100
AcDbPolyline
 90
        4
 70
   129
 43
0.0
 10
-2585.372777
 20
-5889.711516
 10
-2477.894133
 20
-5811.341672
 10
-2449.904903
 20
-5849.726902
 10
-2557.383547
 20
-5928.096746
  0
HATCH
  5
1BCD
330
1B49
100
AcDbEntity
  8
Probable graves
  6
DGN Style 2
100
AcDbHatch
 10
0.0
 20
0.0
 30
0.0
210
0.0
220
0.0
230
1.0
  2
SOLID
 70
     1
 71
     1
 91
        1
 92
        3
 72
     0
 73
     1
 93
        4
 10
-835.9547946235489
 20
-4054.682960422681
 10
-908.3242694721193
 20
-3990.639177370831
 10
-859.3802401479516
 20
-3935.332424234512
 10
-787.010765299352
 20
-3999.376207286361
 97
        1
330
3AC
 75
     0
 76
     1
 98
        0
  0
LWPOLYLINE
  5
3AC
102
{ACAD_REACTORS
330
1BCD
102
}
330
1B49
100
AcDbEntity
  8
Probable graves
  6
DGN Style 2
 62
   250
100
AcDbPolyline
 90
        4
 70
   129
 43
0.0
 10
-908.324269
 20
-3990.639177
 10
-859.38024
 20
-3935.332424
 10
-787.010765
 20
-3999.376207
 10
-835.954795
 20
-4054.68296
  0
HATCH
  5
1BCE
330
1B49
100
AcDbEntity
  8
Probable graves
  6
DGN Style 2
100
AcDbHatch
 10
0.0
 20
0.0
 30
0.0
210
0.0
220
0.0
230
1.0
  2
SOLID
 70
     1
 71
     1
 91
        1
 92
        3
 72
     0
 73
     1
 93
        4
 10
-3181.422729184458
 20
-6160.831091887179
 10
-3313.698817559882
 20
-6146.812256265988
 10
-3308.692090552304
 20
-6099.570796131928
 10
-3176.416002176911
 20
-6113.589631753101
 97
        1
330
3AD
 75
     0
 76
     1
 98
        0
  0
LWPOLYLINE
  5
3AD
102
{ACAD_REACTORS
330
1BCE
102
}
330
1B49
100
AcDbEntity
  8
Probable graves
  6
DGN Style 2
 62
   250
100
AcDbPolyline
 90
        4
 70
   129
 43
0.0
 10
-3181.422729
 20
-6160.831092
 10
-3313.698818
 20
-6146.812256
 10
-3308.692091
 20
-6099.570796
 10
-3176.416002
 20
-6113.589632
  0
CIRCLE
  5
3AE
330
1B49
100
AcDbEntity
  8
Pond
  6
Continuous
 62
   250
370
    13
100
AcDbCircle
 10
-4909.118082
 20
-12112.891404
 30
0.0
 40
218.0195680082958
  0
LWPOLYLINE
  5
3AF
330
1B49
100
AcDbEntity
  8
Pond
  6
Continuous
 62
   250
370
    13
100
AcDbPolyline
 90
        4
 70
   128
 43
0.0
 10
-5014.639472
 20
-11922.109412
 10
-5104.115857
 20
-12210.402428
 10
-4719.089051
 20
-12006.019989
 10
-5015.919933
 20
-11922.823267
  0
LINE
  5
3B0
330
1B49
100
AcDbEntity
  8
Pond
  6
Continuous
 62
   250
370
    13
100
AcDbLine
 10
-4911.607963
 20
-12108.214133
 30
0.0
 11
-4806.764095
 21
-12305.391257
 31
0.0
  0
MTEXT
  5
3B4
330
1B49
100
AcDbEntity
  8
1204 Quadrats
  6
Continuous
 62
   250
370
    13
100
AcDbMText
 10
-2188.290813
 20
-5275.281869
 30
0.0
 40
53.307998
 41
0.0
 71
     1
 72
     1
  1
Quadrat W160/S450
  7
Style-Garamond
 73
     2
 44
0.63
  0
MTEXT
  5
3B7
330
1B49
100
AcDbEntity
  8
1204 Quadrats
  6
Continuous
 62
   250
370
    13
100
AcDbMText
 10
-2195.819337
 20
-5878.342189
 30
0.0
 40
53.307998
 41
0.0
 71
     1
 72
     1
  1
Quadrat W160/S500
  7
Style-Garamond
 73
     2
 44
0.63
  0
HATCH
  5
1BCF
330
1B49
100
AcDbEntity
  8
Grove
  6
Continuous
 62
    98
370
    13
100
AcDbHatch
 10
0.0
 20
0.0
 30
0.0
210
0.0
220
0.0
230
1.0
  2
SOLID
 70
     1
 71
     1
 91
        1
 92
        1
 93
       19
 72
     1
 10
1062.100668846999
 20
-7062.900204588917
 11
1056.727986800532
 21
-7057.527522542463
 72
     4
 94
        3
 73
     0
 74
     0
 95
        8
 96
        4
 40
0.0
 40
0.0
 40
0.0
 40
0.0
 40
1.0
 40
1.0
 40
1.0
 40
1.0
 10
1056.727986800532
 20
-7057.527522542463
 10
1040.510751748667
 20
-7041.310287490625
 10
1036.681164183283
 20
-7003.80070207774
 10
1013.74653042876
 20
-7003.80070207774
 72
     1
 10
1013.74653042876
 20
-7003.80070207774
 11
841.8207049416996
 21
-7003.80070207774
 72
     4
 94
        3
 73
     0
 74
     0
 95
       20
 96
       16
 40
0.0
 40
0.0
 40
0.0
 40
0.0
 40
0.1929437994063796
 40
0.1929437994063796
 40
0.1929437994063796
 40
0.355225889458729
 40
0.355225889458729
 40
0.355225889458729
 40
0.5341818623891779
 40
0.5341818623891779
 40
0.5341818623891779
 40
0.7701445711435088
 40
0.7701445711435088
 40
0.7701445711435088
 40
1.0
 40
1.0
 40
1.0
 40
1.0
 10
841.8207049416997
 20
-7003.80070207774
 10
822.6573021278564
 20
-7003.80070207774
 10
814.176615422728
 20
-6976.369369662003
 10
806.8982716396004
 20
-6958.132904682734
 10
800.7765675740666
 20
-6942.794491833462
 10
816.9134576224769
 20
-6925.416880888592
 10
806.8982716396004
 20
-6909.778766264495
 10
795.8540624414891
 20
-6892.533893361691
 10
784.056053571092
 20
-6878.325351693755
 10
771.9758383375593
 20
-6869.483650915969
 10
756.0474495715262
 20
-6857.825411007252
 10
739.9160905299796
 20
-6923.113595443494
 10
723.6216999193184
 20
-6920.524130357429
 10
707.7490471533783
 20
-6918.001686828076
 10
661.8358563849088
 20
-6913.803887931255
 10
661.8358563849088
 20
-6890.974379101855
 72
     1
 10
661.8358563849087
 20
-6890.974379101855
 11
661.8358563849087
 21
-6727.107576684483
 72
     4
 94
        3
 73
     0
 74
     0
 95
       62
 96
       58
 40
0.0
 40
0.0
 40
0.0
 40
0.0
 40
0.0510637704392093
 40
0.0510637704392093
 40
0.0510637704392093
 40
0.1012361433564667
 40
0.1012361433564667
 40
0.1012361433564667
 40
0.129567675349938
 40
0.129567675349938
 40
0.129567675349938
 40
0.1753339962624538
 40
0.1753339962624538
 40
0.1753339962624538
 40
0.238685227706539
 40
0.238685227706539
 40
0.238685227706539
 40
0.2757341541595443
 40
0.2757341541595443
 40
0.2757341541595443
 40
0.3441670887728786
 40
0.3441670887728786
 40
0.3441670887728786
 40
0.3921127583002868
 40
0.3921127583002868
 40
0.3921127583002868
 40
0.4291616847532803
 40
0.4291616847532803
 40
0.4291616847532803
 40
0.5032595376592554
 40
0.5032595376592554
 40
0.5032595376592554
 40
0.5680562303256839
 40
0.5680562303256839
 40
0.5680562303256839
 40
0.618228603242945
 40
0.618228603242945
 40
0.618228603242945
 40
0.6552775296959148
 40
0.6552775296959148
 40
0.6552775296959148
 40
0.6988645019935618
 40
0.6988645019935618
 40
0.6988645019935618
 40
0.7499282724327711
 40
0.7499282724327711
 40
0.7499282724327711
 40
0.7917921922460619
 40
0.7917921922460619
 40
0.7917921922460619
 40
0.8655366607914413
 40
0.8655366607914413
 40
0.8655366607914413
 40
0.9134823303188495
 40
0.9134823303188495
 40
0.9134823303188495
 40
1.0
 40
1.0
 40
1.0
 40
1.0
 10
661.8358563849088
 20
-6727.107576684484
 10
661.8358563849088
 20
-6706.126582578381
 10
696.7977673397909
 20
-6701.423407884427
 10
710.1899948031496
 20
-6686.812461335947
 10
723.3484401099704
 20
-6672.456571580857
 10
731.9539827983699
 20
-6650.127871649562
 10
745.1124281051907
 20
-6635.771981894472
 10
752.5427905241522
 20
-6627.665441855756
 10
772.2048853763208
 20
-6642.743384613321
 10
780.0348614072609
 20
-6635.771981894472
 10
792.6832842264685
 20
-6624.510485194795
 10
788.9130886984785
 20
-6591.468913016917
 10
780.0348614072609
 20
-6579.358820406531
 10
767.7453301378737
 20
-6562.595635940892
 10
721.1541872780963
 20
-6564.470070835432
 10
710.1899948031496
 20
-6544.436387104473
 10
703.7779401143707
 20
-6532.720332685138
 10
703.7779401143707
 20
-6510.484644128792
 10
710.1899948031496
 20
-6498.768589709453
 10
722.0336772324044
 20
-6477.127909053783
 10
764.8851831270276
 20
-6467.885303691364
 10
777.3485203840264
 20
-6447.728110267995
 10
786.0806177682625
 20
-6433.605522365873
 10
786.0806177682625
 20
-6402.751195658922
 10
777.3485203840264
 20
-6388.628607756804
 10
770.6009905871197
 20
-6377.715698923348
 10
735.512029354988
 20
-6403.013188700199
 10
731.6807229890201
 20
-6388.628607756804
 10
724.0181102570859
 20
-6359.859445870014
 10
723.3444597290054
 20
-6326.149511836589
 10
731.6807229890201
 20
-6297.293012966806
 10
738.9705737372096
 20
-6272.0587367312
 10
746.9398550090791
 20
-6246.943587626498
 10
758.5441332213886
 20
-6222.075464316196
 10
767.5293784545211
 20
-6202.819963685943
 10
780.1575190643944
 20
-6186.27411520977
 10
793.4665665234606
 20
-6171.034984874736
 10
803.2944038729729
 20
-6159.781910998387
 10
830.0732145923721
 20
-6182.919847427555
 10
839.1343639184361
 20
-6171.034984874736
 10
849.7945395961688
 20
-6157.052793636114
 10
827.8442168796028
 20
-6133.588715183661
 10
839.1343639184361
 20
-6117.308164410013
 10
852.3611940060855
 20
-6098.234889449501
 10
866.2142261018471
 20
-6079.440771560461
 10
879.4294792669753
 20
-6068.954025991774
 10
890.2638202108319
 20
-6060.35661393595
 10
900.8312306019252
 20
-6109.067802523096
 10
911.6655715457819
 20
-6109.249141340311
 10
930.7505668951799
 20
-6109.568574751276
 10
978.3988971141953
 20
-6106.299228601718
 10
997.6284842893274
 20
-6079.699390084727
 10
1010.130783784238
 20
-6062.405251389653
 10
988.1756754862417
 20
-6038.029141561343
 10
997.6284842893274
 20
-6020.599887573535
 10
1014.686020405636
 20
-5989.148904530242
 10
1031.925119690783
 20
-5940.009656876471
 10
1067.473350893468
 20
-5940.009656876471
 72
     1
 10
1067.473350893468
 20
-5940.009656876471
 11
1207.16308410172
 21
-5940.009656876471
 72
     4
 94
        3
 73
     0
 74
     0
 95
       11
 96
        7
 40
0.0
 40
0.0
 40
0.0
 40
0.0
 40
0.5120708766845066
 40
0.5120708766845066
 40
0.5120708766845066
 40
1.0
 40
1.0
 40
1.0
 40
1.0
 10
1207.16308410172
 20
-5940.009656876471
 10
1240.81092779601
 20
-5940.009656876471
 10
1268.389187385108
 20
-5894.074648482922
 10
1298.498678891703
 20
-5897.028200504701
 10
1327.188648314315
 20
-5899.842506324985
 10
1376.402568565545
 20
-5921.379857183962
 10
1376.402568565545
 20
-5953.441361992656
 72
     1
 10
1376.402568565545
 20
-5953.441361992656
 11
1376.402568565545
 21
-6171.034984874736
 72
     4
 94
        3
 73
     0
 74
     0
 95
       11
 96
        7
 40
0.0
 40
0.0
 40
0.0
 40
0.0
 40
0.5948736295576396
 40
0.5948736295576396
 40
0.5948736295576396
 40
1.0
 40
1.0
 40
1.0
 40
1.0
 10
1376.402568565545
 20
-6171.034984874736
 10
1376.402568565545
 20
-6197.658538428175
 10
1403.265978797885
 20
-6221.904667292471
 10
1403.265978797885
 20
-6246.25253352533
 10
1403.265978797885
 20
-6262.834143778033
 10
1373.716227542313
 20
-6273.788910928812
 10
1373.716227542313
 20
-6291.920330920322
 72
     1
 10
1373.716227542313
 20
-6291.920330920322
 11
1373.716227542313
 21
-6469.218838453864
 72
     4
 94
        3
 73
     0
 74
     0
 95
       20
 96
       16
 40
0.0
 40
0.0
 40
0.0
 40
0.0
 40
0.1413043478261052
 40
0.1413043478261052
 40
0.1413043478261052
 40
0.3478260869565713
 40
0.3478260869565713
 40
0.3478260869565713
 40
0.521739130434826
 40
0.521739130434826
 40
0.521739130434826
 40
0.6956521739130233
 40
0.6956521739130233
 40
0.6956521739130233
 40
1.0
 40
1.0
 40
1.0
 40
1.0
 10
1373.716227542313
 20
-6469.218838453864
 10
1373.716227542313
 20
-6480.859649554554
 10
1402.818255294038
 20
-6463.398432903519
 10
1408.638660844383
 20
-6469.218838453864
 10
1417.145407417964
 20
-6477.725585027449
 10
1417.145407417964
 20
-6511.752571321773
 10
1408.638660844383
 20
-6520.259317895354
 10
1401.47508478242
 20
-6527.422893957315
 10
1372.820780534572
 20
-6513.095741833393
 10
1365.657204472611
 20
-6520.259317895354
 10
1358.49362841065
 20
-6527.422893957311
 10
1372.82078053457
 20
-6556.077198205152
 10
1365.657204472611
 20
-6563.240774267113
 10
1353.120946364175
 20
-6575.777032375547
 10
1290.439655822001
 20
-6538.168258050242
 10
1290.439655822001
 20
-6563.240774267113
 72
     1
 10
1290.439655822001
 20
-6563.240774267112
 11
1290.439655822001
 21
-6630.399299848002
 72
     1
 10
1290.439655822001
 20
-6630.399299848003
 11
1373.716227542313
 21
-6630.399299848003
 72
     4
 94
        3
 73
     0
 74
     0
 95
       26
 96
       22
 40
0.0
 40
0.0
 40
0.0
 40
0.0
 40
0.1329677708049966
 40
0.1329677708049966
 40
0.1329677708049966
 40
0.2991774843112387
 40
0.2991774843112387
 40
0.2991774843112387
 40
0.372309758253947
 40
0.372309758253947
 40
0.372309758253947
 40
0.4959769337008848
 40
0.4959769337008848
 40
0.4959769337008848
 40
0.668835035747395
 40
0.668835035747395
 40
0.668835035747395
 40
0.8126616704338647
 40
0.8126616704338647
 40
0.8126616704338647
 40
1.0
 40
1.0
 40
1.0
 40
1.0
 10
1373.716227542313
 20
-6630.399299848003
 10
1391.625167697215
 20
-6630.399299848003
 10
1380.432080100398
 20
-6669.202003516959
 10
1373.716227542313
 20
-6684.126120312711
 10
1365.321411844703
 20
-6702.781266307404
 10
1340.088280740878
 20
-6717.668953941764
 10
1333.421112193802
 20
-6737.852940777433
 10
1330.487558033092
 20
-6746.733894985126
 10
1336.354666354515
 20
-6758.521737825315
 10
1333.421112193802
 20
-6767.402692033007
 10
1328.460452043128
 20
-6782.420446342127
 10
1309.62908613408
 20
-6793.289007083298
 10
1303.871360938199
 20
-6807.697807381544
 10
1295.823393109484
 20
-6827.837976859188
 10
1321.589930407838
 20
-6861.255686905373
 10
1303.871360938199
 20
-6877.54267398567
 10
1289.128619995743
 20
-6891.094266379711
 10
1272.15245200209
 20
-6899.851765363434
 10
1255.51722251996
 20
-6909.778766264495
 10
1233.849357524541
 20
-6922.708970537577
 10
1188.358696939053
 20
-6919.469288761353
 10
1188.358696939053
 20
-6944.701199566563
 72
     1
 10
1188.358696939053
 20
-6944.701199566563
 11
1188.358696939053
 21
-7049.468499472747
 72
     4
 94
        3
 73
     0
 74
     0
 95
       11
 96
        7
 40
0.0
 40
0.0
 40
0.0
 40
0.0
 40
0.5139294320256451
 40
0.5139294320256451
 40
0.5139294320256451
 40
1.0
 40
1.0
 40
1.0
 40
1.0
 10
1188.358696939053
 20
-7049.468499472747
 10
1188.358696939053
 20
-7069.350649618897
 10
1170.570375402333
 20
-7085.108638093425
 10
1153.436263637012
 20
-7097.822637890986
 10
1137.230950380912
 20
-7109.847442694379
 10
1110.31981182784
 20
-7111.119347569747
 10
1097.023102149071
 20
-7097.822637890986
 72
     1
 10
1097.023102149071
 20
-7097.822637890986
 11
1056.727986800532
 21
-7057.527522542463
 72
     1
 10
1056.727986800532
 20
-7057.527522542463
 11
1062.100668846999
 21
-7062.900204588917
 97
        1
330
3B9
 75
     0
 76
     1
 98
        0
  0
SPLINE
  5
3B9
102
{ACAD_REACTORS
330
1BCF
102
}
330
1B49
100
AcDbEntity
  8
Grove
  6
Continuous
 62
    96
370
    13
100
AcDbSpline
210
0.0
220
0.0
230
1.0
 70
    11
 71
     3
 72
   200
 73
   196
 74
     0
 42
0.0000000001
 43
0.00000001
 40
0.0
 40
0.0
 40
0.0
 40
0.0
 40
0.0008109670427991
 40
0.0008109670427991
 40
0.0008109670427991
 40
0.0081545859496973
 40
0.0081545859496973
 40
0.0081545859496973
 40
0.0133155486072461
 40
0.0133155486072461
 40
0.0133155486072461
 40
0.0199101120030052
 40
0.0199101120030052
 40
0.0199101120030052
 40
0.026504675398758
 40
0.026504675398758
 40
0.026504675398758
 40
0.0326407545151947
 40
0.0326407545151947
 40
0.0326407545151947
 40
0.0378017171727435
 40
0.0378017171727435
 40
0.0378017171727435
 40
0.0434929496022829
 40
0.0434929496022829
 40
0.0434929496022829
 40
0.0509971340015738
 40
0.0509971340015738
 40
0.0509971340015738
 40
0.0583070921403958
 40
0.0583070921403958
 40
0.0583070921403958
 40
0.0631813346503032
 40
0.0631813346503032
 40
0.0631813346503032
 40
0.0694891778984177
 40
0.0694891778984177
 40
0.0694891778984177
 40
0.0757970211465338
 40
0.0757970211465338
 40
0.0757970211465338
 40
0.0825150889671153
 40
0.0825150889671153
 40
0.0825150889671153
 40
0.0891158824666652
 40
0.0891158824666652
 40
0.0891158824666652
 40
0.0928432443860069
 40
0.0928432443860069
 40
0.0928432443860069
 40
0.09886436748648
 40
0.09886436748648
 40
0.09886436748648
 40
0.1071990021148686
 40
0.1071990021148686
 40
0.1071990021148686
 40
0.1120732446247775
 40
0.1120732446247775
 40
0.1120732446247775
 40
0.1210764398831674
 40
0.1210764398831674
 40
0.1210764398831674
 40
0.1273842831312834
 40
0.1273842831312834
 40
0.1273842831312834
 40
0.1322585256411908
 40
0.1322585256411908
 40
0.1322585256411908
 40
0.1420070106610041
 40
0.1420070106610041
 40
0.1420070106610041
 40
0.1505318135131685
 40
0.1505318135131685
 40
0.1505318135131685
 40
0.1571326070127189
 40
0.1571326070127189
 40
0.1571326070127189
 40
0.1620068495226232
 40
0.1620068495226232
 40
0.1620068495226232
 40
0.1677412524754564
 40
0.1677412524754564
 40
0.1677412524754564
 40
0.1744593202960378
 40
0.1744593202960378
 40
0.1744593202960378
 40
0.1799670344762097
 40
0.1799670344762097
 40
0.1799670344762097
 40
0.1896690274316729
 40
0.1896690274316729
 40
0.1896690274316729
 40
0.1959768706797889
 40
0.1959768706797889
 40
0.1959768706797889
 40
0.207359335538873
 40
0.207359335538873
 40
0.207359335538873
 40
0.2176812608539707
 40
0.2176812608539707
 40
0.2176812608539707
 40
0.2222687832162366
 40
0.2222687832162366
 40
0.2222687832162366
 40
0.2330427482062383
 40
0.2330427482062383
 40
0.2330427482062383
 40
0.2433087710002708
 40
0.2433087710002708
 40
0.2433087710002708
 40
0.2499033343960267
 40
0.2499033343960267
 40
0.2499033343960267
 40
0.2547775769059341
 40
0.2547775769059341
 40
0.2547775769059341
 40
0.2607987000064072
 40
0.2607987000064072
 40
0.2607987000064072
 40
0.2665331029592404
 40
0.2665331029592404
 40
0.2665331029592404
 40
0.2750579058114024
 40
0.2750579058114024
 40
0.2750579058114024
 40
0.2808635463149178
 40
0.2808635463149178
 40
0.2808635463149178
 40
0.2868846694153909
 40
0.2868846694153909
 40
0.2868846694153909
 40
0.2934792328111485
 40
0.2934792328111485
 40
0.2934792328111485
 40
0.299787076059263
 40
0.299787076059263
 40
0.299787076059263
 40
0.3035144379786046
 40
0.3035144379786046
 40
0.3035144379786046
 40
0.3089621207837964
 40
0.3089621207837964
 40
0.3089621207837964
 40
0.3135496431460624
 40
0.3135496431460624
 40
0.3135496431460624
 40
0.3181371655083268
 40
0.3181371655083268
 40
0.3181371655083268
 40
0.326165329642293
 40
0.326165329642293
 40
0.326165329642293
 40
0.3333333333333333
 40
0.3333333333333333
 40
0.3333333333333333
 40
0.369612385852736
 40
0.369612385852736
 40
0.369612385852736
 40
0.3930182261878308
 40
0.3930182261878308
 40
0.3930182261878308
 40
0.4222755266066986
 40
0.4222755266066986
 40
0.4222755266066986
 40
0.4351487387909936
 40
0.4351487387909936
 40
0.4351487387909936
 40
0.456917428644779
 40
0.456917428644779
 40
0.456917428644779
 40
0.4873450210804047
 40
0.4873450210804047
 40
0.4873450210804047
 40
0.5126623083224573
 40
0.5126623083224573
 40
0.5126623083224573
 40
0.5456388033326568
 40
0.5456388033326568
 40
0.5456388033326568
 40
0.5655337676174829
 40
0.5655337676174829
 40
0.5655337676174829
 40
0.5912801919860923
 40
0.5912801919860923
 40
0.5912801919860923
 40
0.6172648916843451
 40
0.6172648916843451
 40
0.6172648916843451
 40
0.6418410240361939
 40
0.6418410240361939
 40
0.6418410240361939
 40
0.6666666666666666
 40
0.6666666666666666
 40
0.6666666666666666
 40
1.0
 40
1.0
 40
1.0
 40
1.0
 10
1062.100668846999
 20
-7062.900204588917
 30
0.0
 10
1060.309774831514
 20
-7061.109310573425
 30
0.0
 10
1058.51888081602
 20
-7059.318416557948
 30
0.0
 10
1056.727986800532
 20
-7057.527522542463
 30
0.0
 10
1040.510751748667
 20
-7041.310287490625
 30
0.0
 10
1036.681164183283
 20
-7003.80070207774
 30
0.0
 10
1013.74653042876
 20
-7003.80070207774
 30
0.0
 10
997.6284842893474
 20
-7003.80070207774
 30
0.0
 10
981.5104381499314
 20
-7003.80070207774
 30
0.0
 10
965.392392010519
 20
-7003.80070207774
 30
0.0
 10
944.7971108323727
 20
-7003.80070207774
 30
0.0
 10
924.2018296542265
 20
-7003.80070207774
 30
0.0
 10
903.6065484760802
 20
-7003.80070207774
 30
0.0
 10
883.011267297954
 20
-7003.80070207774
 30
0.0
 10
862.4159861198259
 20
-7003.80070207774
 30
0.0
 10
841.8207049416997
 20
-7003.80070207774
 30
0.0
 10
822.6573021278564
 20
-7003.80070207774
 30
0.0
 10
814.176615422728
 20
-6976.369369662003
 30
0.0
 10
806.8982716396004
 20
-6958.132904682734
 30
0.0
 10
800.7765675740666
 20
-6942.794491833462
 30
0.0
 10
816.9134576224769
 20
-6925.416880888592
 30
0.0
 10
806.8982716396004
 20
-6909.778766264495
 30
0.0
 10
795.8540624414891
 20
-6892.533893361691
 30
0.0
 10
784.056053571092
 20
-6878.325351693755
 30
0.0
 10
771.9758383375593
 20
-6869.483650915969
 30
0.0
 10
756.0474495715262
 20
-6857.825411007252
 30
0.0
 10
739.9160905299796
 20
-6923.113595443494
 30
0.0
 10
723.6216999193184
 20
-6920.524130357429
 30
0.0
 10
707.7490471533783
 20
-6918.001686828076
 30
0.0
 10
661.8358563849088
 20
-6913.803887931255
 30
0.0
 10
661.8358563849088
 20
-6890.974379101855
 30
0.0
 10
661.8358563849088
 20
-6875.751779970189
 30
0.0
 10
661.8358563849088
 20
-6860.529180838519
 30
0.0
 10
661.8358563849088
 20
-6845.306581706849
 30
0.0
 10
661.8358563849088
 20
-6825.606747536458
 30
0.0
 10
661.8358563849088
 20
-6805.906913366067
 30
0.0
 10
661.8358563849088
 20
-6786.207079195676
 30
0.0
 10
661.8358563849088
 20
-6766.507245025277
 30
0.0
 10
661.8358563849088
 20
-6746.807410854879
 30
0.0
 10
661.8358563849088
 20
-6727.107576684484
 30
0.0
 10
661.8358563849088
 20
-6706.126582578381
 30
0.0
 10
696.7977673397909
 20
-6701.423407884427
 30
0.0
 10
710.1899948031496
 20
-6686.812461335947
 30
0.0
 10
723.3484401099704
 20
-6672.456571580857
 30
0.0
 10
731.9539827983699
 20
-6650.127871649562
 30
0.0
 10
745.1124281051907
 20
-6635.771981894472
 30
0.0
 10
752.5427905241522
 20
-6627.665441855756
 30
0.0
 10
772.2048853763208
 20
-6642.743384613321
 30
0.0
 10
780.0348614072609
 20
-6635.771981894472
 30
0.0
 10
792.6832842264685
 20
-6624.510485194795
 30
0.0
 10
788.9130886984785
 20
-6591.468913016917
 30
0.0
 10
780.0348614072609
 20
-6579.358820406531
 30
0.0
 10
767.7453301378737
 20
-6562.595635940892
 30
0.0
 10
721.1541872780963
 20
-6564.470070835432
 30
0.0
 10
710.1899948031496
 20
-6544.436387104473
 30
0.0
 10
703.7779401143707
 20
-6532.720332685138
 30
0.0
 10
703.7779401143707
 20
-6510.484644128792
 30
0.0
 10
710.1899948031496
 20
-6498.768589709453
 30
0.0
 10
722.0336772324044
 20
-6477.127909053783
 30
0.0
 10
764.8851831270276
 20
-6467.885303691364
 30
0.0
 10
777.3485203840264
 20
-6447.728110267995
 30
0.0
 10
786.0806177682625
 20
-6433.605522365873
 30
0.0
 10
786.0806177682625
 20
-6402.751195658922
 30
0.0
 10
777.3485203840264
 20
-6388.628607756804
 30
0.0
 10
770.6009905871197
 20
-6377.715698923348
 30
0.0
 10
735.512029354988
 20
-6403.013188700199
 30
0.0
 10
731.6807229890201
 20
-6388.628607756804
 30
0.0
 10
724.0181102570859
 20
-6359.859445870014
 30
0.0
 10
723.3444597290054
 20
-6326.149511836589
 30
0.0
 10
731.6807229890201
 20
-6297.293012966806
 30
0.0
 10
738.9705737372096
 20
-6272.0587367312
 30
0.0
 10
746.9398550090791
 20
-6246.943587626498
 30
0.0
 10
758.5441332213886
 20
-6222.075464316196
 30
0.0
 10
767.5293784545211
 20
-6202.819963685943
 30
0.0
 10
780.1575190643944
 20
-6186.27411520977
 30
0.0
 10
793.4665665234606
 20
-6171.034984874736
 30
0.0
 10
803.2944038729729
 20
-6159.781910998387
 30
0.0
 10
830.0732145923721
 20
-6182.919847427555
 30
0.0
 10
839.1343639184361
 20
-6171.034984874736
 30
0.0
 10
849.7945395961688
 20
-6157.052793636114
 30
0.0
 10
827.8442168796028
 20
-6133.588715183661
 30
0.0
 10
839.1343639184361
 20
-6117.308164410013
 30
0.0
 10
852.3611940060855
 20
-6098.234889449501
 30
0.0
 10
866.2142261018471
 20
-6079.440771560461
 30
0.0
 10
879.4294792669753
 20
-6068.954025991774
 30
0.0
 10
890.2638202108319
 20
-6060.35661393595
 30
0.0
 10
900.8312306019252
 20
-6109.067802523096
 30
0.0
 10
911.6655715457819
 20
-6109.249141340311
 30
0.0
 10
930.7505668951799
 20
-6109.568574751276
 30
0.0
 10
978.3988971141953
 20
-6106.299228601718
 30
0.0
 10
997.6284842893274
 20
-6079.699390084727
 30
0.0
 10
1010.130783784238
 20
-6062.405251389653
 30
0.0
 10
988.1756754862417
 20
-6038.029141561343
 30
0.0
 10
997.6284842893274
 20
-6020.599887573535
 30
0.0
 10
1014.686020405636
 20
-5989.148904530242
 30
0.0
 10
1031.925119690783
 20
-5940.009656876471
 30
0.0
 10
1067.473350893468
 20
-5940.009656876471
 30
0.0
 10
1099.709443172294
 20
-5940.009656876471
 30
0.0
 10
1131.945535451121
 20
-5940.009656876471
 30
0.0
 10
1164.181627729948
 20
-5940.009656876471
 30
0.0
 10
1178.508779853872
 20
-5940.009656876471
 30
0.0
 10
1192.835931977796
 20
-5940.009656876471
 30
0.0
 10
1207.16308410172
 20
-5940.009656876471
 30
0.0
 10
1240.81092779601
 20
-5940.009656876471
 30
0.0
 10
1268.389187385108
 20
-5894.074648482922
 30
0.0
 10
1298.498678891703
 20
-5897.028200504701
 30
0.0
 10
1327.188648314315
 20
-5899.842506324985
 30
0.0
 10
1376.402568565545
 20
-5921.379857183962
 30
0.0
 10
1376.402568565545
 20
-5953.441361992656
 30
0.0
 10
1376.402568565545
 20
-5974.036643170792
 30
0.0
 10
1376.402568565545
 20
-5994.631924348931
 30
0.0
 10
1376.402568565545
 20
-6015.227205527066
 30
0.0
 10
1376.402568565545
 20
-6030.449804658732
 30
0.0
 10
1376.402568565545
 20
-6045.672403790406
 30
0.0
 10
1376.402568565545
 20
-6060.895002922072
 30
0.0
 10
1376.402568565545
 20
-6079.699390084723
 30
0.0
 10
1376.402568565545
 20
-6098.503777247366
 30
0.0
 10
1376.402568565545
 20
-6117.308164410013
 30
0.0
 10
1376.402568565545
 20
-6135.217104564923
 30
0.0
 10
1376.402568565545
 20
-6153.126044719829
 30
0.0
 10
1376.402568565545
 20
-6171.034984874736
 30
0.0
 10
1376.402568565545
 20
-6197.658538428175
 30
0.0
 10
1403.265978797885
 20
-6221.904667292471
 30
0.0
 10
1403.265978797885
 20
-6246.25253352533
 30
0.0
 10
1403.265978797885
 20
-6262.834143778033
 30
0.0
 10
1373.716227542313
 20
-6273.788910928812
 30
0.0
 10
1373.716227542313
 20
-6291.920330920322
 30
0.0
 10
1373.716227542313
 20
-6310.724718082973
 30
0.0
 10
1373.716227542313
 20
-6329.529105245616
 30
0.0
 10
1373.716227542313
 20
-6348.333492408267
 30
0.0
 10
1373.716227542313
 20
-6368.928773586409
 30
0.0
 10
1373.716227542313
 20
-6389.524054764548
 30
0.0
 10
1373.716227542313
 20
-6410.119335942691
 30
0.0
 10
1373.716227542313
 20
-6429.819170113082
 30
0.0
 10
1373.716227542313
 20
-6449.519004283473
 30
0.0
 10
1373.716227542313
 20
-6469.218838453864
 30
0.0
 10
1373.716227542313
 20
-6480.859649554554
 30
0.0
 10
1402.818255294038
 20
-6463.398432903519
 30
0.0
 10
1408.638660844383
 20
-6469.218838453864
 30
0.0
 10
1417.145407417964
 20
-6477.725585027449
 30
0.0
 10
1417.145407417964
 20
-6511.752571321773
 30
0.0
 10
1408.638660844383
 20
-6520.259317895354
 30
0.0
 10
1401.47508478242
 20
-6527.422893957315
 30
0.0
 10
1372.820780534572
 20
-6513.095741833393
 30
0.0
 10
1365.657204472611
 20
-6520.259317895354
 30
0.0
 10
1358.49362841065
 20
-6527.422893957311
 30
0.0
 10
1372.82078053457
 20
-6556.077198205152
 30
0.0
 10
1365.657204472611
 20
-6563.240774267113
 30
0.0
 10
1353.120946364175
 20
-6575.777032375547
 30
0.0
 10
1290.439655822001
 20
-6538.168258050242
 30
0.0
 10
1290.439655822001
 20
-6563.240774267113
 30
0.0
 10
1290.439655822001
 20
-6585.62694946074
 30
0.0
 10
1290.439655822001
 20
-6608.013124654375
 30
0.0
 10
1290.439655822001
 20
-6630.399299848003
 30
0.0
 10
1318.198513062103
 20
-6630.399299848003
 30
0.0
 10
1345.957370302209
 20
-6630.399299848003
 30
0.0
 10
1373.716227542313
 20
-6630.399299848003
 30
0.0
 10
1391.625167697215
 20
-6630.399299848003
 30
0.0
 10
1380.432080100398
 20
-6669.202003516959
 30
0.0
 10
1373.716227542313
 20
-6684.126120312711
 30
0.0
 10
1365.321411844703
 20
-6702.781266307404
 30
0.0
 10
1340.088280740878
 20
-6717.668953941764
 30
0.0
 10
1333.421112193802
 20
-6737.852940777433
 30
0.0
 10
1330.487558033092
 20
-6746.733894985126
 30
0.0
 10
1336.354666354515
 20
-6758.521737825315
 30
0.0
 10
1333.421112193802
 20
-6767.402692033007
 30
0.0
 10
1328.460452043128
 20
-6782.420446342127
 30
0.0
 10
1309.62908613408
 20
-6793.289007083298
 30
0.0
 10
1303.871360938199
 20
-6807.697807381544
 30
0.0
 10
1295.823393109484
 20
-6827.837976859188
 30
0.0
 10
1321.589930407838
 20
-6861.255686905373
 30
0.0
 10
1303.871360938199
 20
-6877.54267398567
 30
0.0
 10
1289.128619995743
 20
-6891.094266379711
 30
0.0
 10
1272.15245200209
 20
-6899.851765363434
 30
0.0
 10
1255.51722251996
 20
-6909.778766264495
 30
0.0
 10
1233.849357524541
 20
-6922.708970537577
 30
0.0
 10
1188.358696939053
 20
-6919.469288761353
 30
0.0
 10
1188.358696939053
 20
-6944.701199566563
 30
0.0
 10
1188.358696939053
 20
-6959.92379869823
 30
0.0
 10
1188.358696939053
 20
-6975.146397829893
 30
0.0
 10
1188.358696939053
 20
-6990.368996961555
 30
0.0
 10
1188.358696939053
 20
-7010.06883113195
 30
0.0
 10
1188.358696939053
 20
-7029.768665302352
 30
0.0
 10
1188.358696939053
 20
-7049.468499472747
 30
0.0
 10
1188.358696939053
 20
-7069.350649618897
 30
0.0
 10
1170.570375402333
 20
-7085.108638093425
 30
0.0
 10
1153.436263637012
 20
-7097.822637890986
 30
0.0
 10
1137.230950380912
 20
-7109.847442694379
 30
0.0
 10
1110.31981182784
 20
-7111.119347569747
 30
0.0
 10
1097.023102149071
 20
-7097.822637890986
 30
0.0
 10
1083.591397032889
 20
-7084.390932774812
 30
0.0
 10
1070.15969191671
 20
-7070.959227658641
 30
0.0
 10
1056.727986800532
 20
-7057.527522542463
 30
0.0
 10
1058.51888081602
 20
-7059.318416557948
 30
0.0
 10
1060.30977483151
 20
-7061.109310573433
 30
0.0
 10
1062.100668846999
 20
-7062.900204588917
 30
0.0
  0
INSERT
  5
3BE
330
1B49
100
AcDbEntity
  8
Key
 62
   250
100
AcDbBlockReference
  2
AI9-BLK61
 10
-5712.139807
 20
-12453.766894
 30
0.0
 41
0.68463
 42
0.578144
 43
0.202002
 50
360.0
  0
LINE
  5
3BF
330
1B49
100
AcDbEntity
  8
Key
  6
DGN Style 4
 62
   178
370
    13
100
AcDbLine
 10
-6045.333353
 20
-12508.951943
 30
0.0
 11
-5958.46363
 21
-12508.951943
 31
0.0
  0
TEXT
  5
3C0
330
1B49
100
AcDbEntity
  8
Key
  6
DGN Style 6
 62
   250
370
    13
100
AcDbText
 10
-5940.210806
 20
-12521.856073
 30
0.0
 40
22.415701
  1
= Quadrat Boundaries
 41
1.184186
  7
Style-Garamond
 11
-5940.210806
 21
-12499.440372
 31
0.0
100
AcDbText
 73
     3
  0
TEXT
  5
3C1
330
1B49
100
AcDbEntity
  8
Key
  6
Continuous
 62
     1
370
    13
100
AcDbText
 10
-6025.173948
 20
-12469.847266
 30
0.0
 40
30.040226
  1
24
 41
0.987363
  7
Style-Garamond
 11
-6025.173948
 21
-12439.807041
 31
0.0
100
AcDbText
 73
     3
  0
HATCH
  5
1BD1
330
1B49
100
AcDbEntity
  8
Pond
100
AcDbHatch
 10
0.0
 20
0.0
 30
0.0
210
0.0
220
0.0
230
1.0
  2
SOLID
 70
     1
 71
     1
 91
        1
 92
        1
 93
        1
 72
     2
 10
-6000.205594293806
 20
-12310.02148010029
 40
24.64421088680551
 50
180.0
 51
540.0
 73
     1
 97
        1
330
3C3
 75
     0
 76
     1
 98
        0
  0
CIRCLE
  5
3C3
102
{ACAD_REACTORS
330
1BD1
102
}
330
1B49
100
AcDbEntity
  8
Pond
 62
   250
100
AcDbCircle
 10
-6000.205594
 20
-12310.02148
 30
0.0
 40
24.64421088680551
  0
TEXT
  5
3C4
330
1B49
100
AcDbEntity
  8
Key
  6
DGN Style 6
 62
   250
370
    13
100
AcDbText
 10
-5938.155144
 20
-12325.576847
 30
0.0
 40
22.415701
  1
= Pond
 41
1.184186
  7
Style-Garamond
 11
-5938.155144
 21
-12303.161146
 31
0.0
100
AcDbText
 73
     3
  0
LINE
  5
3C5
330
1B49
100
AcDbEntity
  8
Aqueduct
100
AcDbLine
 10
-6040.110329
 20
-12248.213419
 30
0.0
 11
-5961.446932
 21
-12248.213419
 31
0.0
  0
TEXT
  5
3C6
330
1B49
100
AcDbEntity
  8
Key
  6
DGN Style 6
 62
   250
370
    13
100
AcDbText
 10
-5939.159168
 20
-12259.965765
 30
0.0
 40
22.415701
  1
= Aqueduct
 41
1.184186
  7
Style-Garamond
 11
-5939.159168
 21
-12237.550063
 31
0.0
100
AcDbText
 73
     3
  0
LINE
  5
3C7
330
1B49
100
AcDbEntity
  8
Fenceline
100
AcDbLine
 10
-6040.110329
 20
-12183.998401
 30
0.0
 11
-5961.446932
 21
-12183.998401
 31
0.0
  0
TEXT
  5
3C8
330
1B49
100
AcDbEntity
  8
Key
  6
DGN Style 6
 62
   250
370
    13
100
AcDbText
 10
-5937.553793
 20
-12197.356122
 30
0.0
 40
22.415701
  1
= Fence Line
 41
1.184186
  7
Style-Garamond
 11
-5937.553793
 21
-12174.940421
 31
0.0
100
AcDbText
 73
     3
  0
LINE
  5
3C9
330
1B49
100
AcDbEntity
  8
Stone Wall
100
AcDbLine
 10
-6041.715704
 20
-12129.415636
 30
0.0
 11
-5963.052307
 21
-12129.415636
 31
0.0
  0
TEXT
  5
3CA
330
1B49
100
AcDbEntity
  8
Key
  6
DGN Style 6
 62
   250
370
    13
100
AcDbText
 10
-5937.553793
 20
-12142.199085
 30
0.0
 40
22.415701
  1
= Stone Wall
 41
1.184186
  7
Style-Garamond
 11
-5937.553793
 21
-12119.783383
 31
0.0
100
AcDbText
 73
     3
  0
TEXT
  5
3CB
330
1B49
100
AcDbEntity
  8
Key
  6
DGN Style 6
 62
   250
370
    13
100
AcDbText
 10
-5936.746911
 20
-12082.804632
 30
0.0
 40
22.415701
  1
= Grove
 41
1.184186
  7
Style-Garamond
 11
-5936.746911
 21
-12060.388931
 31
0.0
100
AcDbText
 73
     3
  0
HATCH
  5
1BD2
330
1B49
100
AcDbEntity
  8
Key
  6
DGN Style 2
100
AcDbHatch
 10
0.0
 20
0.0
 30
0.0
210
0.0
220
0.0
230
1.0
  2
SOLID
 70
     1
 71
     1
 91
        1
 92
        3
 72
     0
 73
     1
 93
        4
 10
-6009.055229247646
 20
-12010.27134369195
 10
-6025.088870061727
 20
-11997.4444310407
 10
-6002.81054808851
 20
-11969.5965285742
 10
-5986.77690727446
 20
-11982.42344122545
 97
        1
330
3CC
 75
     0
 76
     1
 98
        0
  0
LWPOLYLINE
  5
3CC
102
{ACAD_REACTORS
330
1BD2
102
}
330
1B49
100
AcDbEntity
  8
Key
  6
DGN Style 2
 62
   250
100
AcDbPolyline
 90
        4
 70
   129
 43
0.0
 10
-6025.08887
 20
-11997.444431
 10
-6002.810548
 20
-11969.596529
 10
-5986.776907
 20
-11982.423441
 10
-6009.055229
 20
-12010.271344
  0
HATCH
  5
1BD3
330
1B49
100
AcDbEntity
  8
Key
  6
DGN Style 2
100
AcDbHatch
 10
0.0
 20
0.0
 30
0.0
210
0.0
220
0.0
230
1.0
  2
SOLID
 70
     1
 71
     1
 91
        1
 92
        3
 72
     0
 73
     1
 93
        4
 10
-5981.317561365111
 20
-12025.04075126577
 10
-5997.351202179161
 20
-12012.21383861454
 10
-5975.072880205944
 20
-11984.36593614802
 10
-5959.039239391894
 20
-11997.19284879927
 97
        1
330
3CD
 75
     0
 76
     1
 98
        0
  0
LWPOLYLINE
  5
3CD
102
{ACAD_REACTORS
330
1BD3
102
}
330
1B49
100
AcDbEntity
  8
Key
  6
DGN Style 2
 62
   250
100
AcDbPolyline
 90
        4
 70
   129
 43
0.0
 10
-5997.351202
 20
-12012.213839
 10
-5975.07288
 20
-11984.365936
 10
-5959.039239
 20
-11997.192849
 10
-5981.317561
 20
-12025.040751
  0
TEXT
  5
3CE
330
1B49
100
AcDbEntity
  8
Key
  6
DGN Style 6
 62
   250
370
    13
100
AcDbText
 10
-5937.553793
 20
-12022.900944
 30
0.0
 40
22.415701
  1
= Tombs
 41
1.184186
  7
Style-Garamond
 11
-5937.553793
 21
-12000.485243
 31
0.0
100
AcDbText
 73
     3
  0
HATCH
  5
3D0
330
1B49
100
AcDbEntity
  8
Key
  6
Continuous
 62
    96
370
    13
100
AcDbHatch
 10
0.0
 20
0.0
 30
0.0
210
0.0
220
0.0
230
1.0
  2
SOLID
 70
     1
 71
     0
 91
        1
 92
        1
 93
       19
 72
     1
 10
-6002.194868515036
 20
-12099.06948434509
 11
-6002.458251169732
 21
-12098.80610169039
 72
     4
 94
        3
 73
     0
 74
     0
 95
        8
 96
        4
 40
0.0
 40
0.0
 40
0.0
 40
0.0
 40
1.0
 40
1.0
 40
1.0
 40
1.0
 10
-6002.458251169732
 20
-12098.80610169039
 10
-6003.253261628715
 20
-12098.01109123141
 10
-6003.440997833948
 20
-12096.17227514347
 10
-6004.565312407269
 20
-12096.17227514347
 72
     1
 10
-6004.565312407269
 20
-12096.17227514347
 11
-6012.993557357446
 21
-12096.17227514347
 72
     4
 94
        3
 73
     0
 74
     0
 95
       20
 96
       16
 40
0.0
 40
0.0
 40
0.0
 40
0.0
 40
0.1929437994066199
 40
0.1929437994066199
 40
0.1929437994066199
 40
0.3552258894584148
 40
0.3552258894584148
 40
0.3552258894584148
 40
0.5341818623883633
 40
0.5341818623883633
 40
0.5341818623883633
 40
0.7701445711427378
 40
0.7701445711427378
 40
0.7701445711427378
 40
1.0
 40
1.0
 40
1.0
 40
1.0
 10
-6012.993557357446
 20
-12096.17227514347
 10
-6013.93299651696
 20
-12096.17227514347
 10
-6014.348741531963
 20
-12094.82752086786
 10
-6014.705544612954
 20
-12093.93352257857
 10
-6015.005646248241
 20
-12093.18159423811
 10
-6014.214574507405
 20
-12092.32969917652
 10
-6014.705544612954
 20
-12091.56307868633
 10
-6015.246960075931
 20
-12090.71769078403
 10
-6015.825328732311
 20
-12090.02115162697
 10
-6016.417531868461
 20
-12089.58770877614
 10
-6017.19838234163
 20
-12089.01619195277
 10
-6017.989182938318
 20
-12092.21678621616
 10
-6018.787975760693
 20
-12092.08984399574
 10
-6019.566093912177
 20
-12091.96618734394
 10
-6021.81687628968
 20
-12091.76040047479
 10
-6021.81687628968
 20
-12090.64123939493
 72
     1
 10
-6021.81687628968
 20
-12090.64123939493
 11
-6021.81687628968
 21
-12082.60806842676
 72
     4
 94
        3
 73
     0
 74
     0
 95
       62
 96
       58
 40
0.0
 40
0.0
 40
0.0
 40
0.0
 40
0.0510637704394589
 40
0.0510637704394589
 40
0.0510637704394589
 40
0.1012361433564684
 40
0.1012361433564684
 40
0.1012361433564684
 40
0.1295676753500026
 40
0.1295676753500026
 40
0.1295676753500026
 40
0.1753339962625414
 40
0.1753339962625414
 40
0.1753339962625414
 40
0.2386852277063598
 40
0.2386852277063598
 40
0.2386852277063598
 40
0.275734154159275
 40
0.275734154159275
 40
0.275734154159275
 40
0.3441670887726523
 40
0.3441670887726523
 40
0.3441670887726523
 40
0.3921127582998543
 40
0.3921127582998543
 40
0.3921127582998543
 40
0.4291616847530122
 40
0.4291616847530122
 40
0.4291616847530122
 40
0.503259537659085
 40
0.503259537659085
 40
0.503259537659085
 40
0.5680562303255287
 40
0.5680562303255287
 40
0.5680562303255287
 40
0.6182286032425381
 40
0.6182286032425381
 40
0.6182286032425381
 40
0.655277529695696
 40
0.655277529695696
 40
0.655277529695696
 40
0.6988645019935715
 40
0.6988645019935715
 40
0.6988645019935715
 40
0.7499282724328128
 40
0.7499282724328128
 40
0.7499282724328128
 40
0.7917921922461931
 40
0.7917921922461931
 40
0.7917921922461931
 40
0.8655366607913843
 40
0.8655366607913843
 40
0.8655366607913843
 40
0.9134823303185863
 40
0.9134823303185863
 40
0.9134823303185863
 40
1.0
 40
1.0
 40
1.0
 40
1.0
 10
-6021.81687628968
 20
-12082.60806842676
 10
-6021.81687628968
 20
-12081.57952628003
 10
-6020.102953738351
 20
-12081.34896459304
 10
-6019.446432397419
 20
-12080.63269851658
 10
-6018.80137165745
 20
-12079.92893597834
 10
-6018.379505881911
 20
-12078.83432583523
 10
-6017.734445141939
 20
-12078.13056329699
 10
-6017.370189717496
 20
-12077.73315991126
 10
-6016.406303395133
 20
-12078.47231933972
 10
-6016.022457886433
 20
-12078.13056329699
 10
-6015.402399756997
 20
-12077.57849584336
 10
-6015.58722441222
 20
-12075.95871322452
 10
-6016.022457886433
 20
-12075.36504542272
 10
-6016.624922231549
 20
-12074.54327112313
 10
-6018.908939559462
 20
-12074.63516072952
 10
-6019.446432397419
 20
-12073.65305816721
 10
-6019.760767764998
 20
-12073.07870712823
 10
-6019.760767764998
 20
-12071.9886566413
 10
-6019.446432397419
 20
-12071.41430560232
 10
-6018.865824706034
 20
-12070.35342392886
 10
-6016.765133974204
 20
-12069.90032770697
 10
-6016.154149213766
 20
-12068.91217038273
 10
-6015.726079402415
 20
-12068.21984489974
 10
-6015.726079402415
 20
-12066.70728666411
 10
-6016.154149213766
 20
-12066.01496118112
 10
-6016.48493043163
 20
-12065.4799823988
 10
-6018.205081313412
 20
-12066.720130235
 10
-6018.392901778665
 20
-12066.01496118112
 10
-6018.768542709169
 20
-12064.60462307336
 10
-6018.801566785953
 20
-12062.95207564202
 10
-6018.392901778665
 20
-12061.53745605134
 10
-6018.035534596726
 20
-12060.30040710508
 10
-6017.644859987793
 20
-12059.06919807633
 10
-6017.075988505187
 20
-12057.85009888564
 10
-6016.635508736967
 20
-12056.90614485495
 10
-6016.016444893465
 20
-12056.09502492302
 10
-6015.364001249707
 20
-12055.34796366606
 10
-6014.882215454718
 20
-12054.79630912082
 10
-6013.56944946636
 20
-12055.93059011273
 10
-6013.125248684808
 20
-12055.34796366606
 10
-6012.602659530041
 20
-12054.66252078762
 10
-6013.678720651562
 20
-12053.51225147719
 10
-6013.125248684808
 20
-12052.71413711912
 10
-6012.476835547468
 20
-12051.77911625815
 10
-6011.797724381509
 20
-12050.85778039286
 10
-6011.149878774604
 20
-12050.34369322689
 10
-6010.618751591759
 20
-12049.9222260358
 10
-6010.100710029275
 20
-12052.31017344313
 10
-6009.56958284643
 20
-12052.31906313707
 10
-6008.633987421934
 20
-12052.33472258221
 10
-6006.298144058022
 20
-12052.17445084818
 10
-6005.355460371357
 20
-12050.87045853626
 10
-6004.742565582077
 20
-12050.02265549847
 10
-6005.818861305063
 20
-12048.82767607067
 10
-6005.355460371357
 20
-12047.97324933465
 10
-6004.519256198844
 20
-12046.431441475
 10
-6003.674151334093
 20
-12044.02250951425
 10
-6001.931485860341
 20
-12044.02250951425
 72
     1
 10
-6001.93148586034
 20
-12044.02250951424
 11
-5995.083536838311
 21
-12044.02250951425
 72
     4
 94
        3
 73
     0
 74
     0
 95
       11
 96
        7
 40
0.0
 40
0.0
 40
0.0
 40
0.0
 40
0.5120708766840886
 40
0.5120708766840886
 40
0.5120708766840886
 40
1.0
 40
1.0
 40
1.0
 40
1.0
 10
-5995.083536838311
 20
-12044.02250951425
 10
-5993.434033234667
 20
-12044.02250951425
 10
-5992.082076212169
 20
-12041.77065758082
 10
-5990.606031708541
 20
-12041.91544827671
 10
-5989.199575818499
 20
-12042.05341276663
 10
-5986.786983215496
 20
-12043.10922894843
 10
-5986.786983215496
 20
-12044.68096615098
 72
     1
 10
-5986.786983215495
 20
-12044.68096615098
 11
-5986.786983215496
 21
-12055.34796366606
 72
     4
 94
        3
 73
     0
 74
     0
 95
       11
 96
        7
 40
0.0
 40
0.0
 40
0.0
 40
0.0
 40
0.5948736295568308
 40
0.5948736295568308
 40
0.5948736295568308
 40
1.0
 40
1.0
 40
1.0
 40
1.0
 10
-5986.786983215496
 20
-12055.34796366606
 10
-5986.786983215496
 20
-12056.65311854989
 10
-5985.470069942046
 20
-12057.84172597744
 10
-5985.470069942046
 20
-12059.03532083174
 10
-5985.470069942046
 20
-12059.84819389768
 10
-5986.918674542829
 20
-12060.38522468209
 10
-5986.918674542829
 20
-12061.27407339664
 72
     1
 10
-5986.918674542829
 20
-12061.27407339664
 11
-5986.918674542829
 21
-12069.9657010015
 72
     4
 94
        3
 73
     0
 74
     0
 95
       20
 96
       16
 40
0.0
 40
0.0
 40
0.0
 40
0.0
 40
0.1413043478259027
 40
0.1413043478259027
 40
0.1413043478259027
 40
0.3478260869566272
 40
0.3478260869566272
 40
0.3478260869566272
 40
0.5217391304361508
 40
0.5217391304361508
 40
0.5217391304361508
 40
0.6956521739132544
 40
0.6956521739132544
 40
0.6956521739132544
 40
1.0
 40
1.0
 40
1.0
 40
1.0
 10
-5986.918674542829
 20
-12069.9657010015
 10
-5986.918674542829
 20
-12070.53636342
 10
-5985.492018496572
 20
-12069.68036979224
 10
-5985.206687287322
 20
-12069.9657010015
 10
-5984.789664750722
 20
-12070.3827235381
 10
-5984.789664750722
 20
-12072.0508136845
 10
-5985.206687287322
 20
-12072.46783622109
 10
-5985.55786416025
 20
-12072.81901309402
 10
-5986.962571651959
 20
-12072.11665934817
 10
-5987.313748524888
 20
-12072.46783622109
 10
-5987.66492539781
 20
-12072.81901309402
 10
-5986.962571651964
 20
-12074.22372058571
 10
-5987.313748524888
 20
-12074.57489745863
 10
-5987.928308052506
 20
-12075.18945698625
 10
-5991.001105690599
 20
-12073.34577840339
 10
-5991.001105690599
 20
-12074.57489745863
 72
     1
 10
-5991.001105690599
 20
-12074.57489745863
 11
-5991.001105690599
 21
-12077.8671806423
 72
     1
 10
-5991.001105690599
 20
-12077.8671806423
 11
-5986.918674542829
 21
-12077.8671806423
 72
     4
 94
        3
 73
     0
 74
     0
 95
       26
 96
       22
 40
0.0
 40
0.0
 40
0.0
 40
0.0
 40
0.1329677708047777
 40
0.1329677708047777
 40
0.1329677708047777
 40
0.2991774843115641
 40
0.2991774843115641
 40
0.2991774843115641
 40
0.3723097582542659
 40
0.3723097582542659
 40
0.3723097582542659
 40
0.4959769337007114
 40
0.4959769337007114
 40
0.4959769337007114
 40
0.6688350357473667
 40
0.6688350357473667
 40
0.6688350357473667
 40
0.8126616704331455
 40
0.8126616704331455
 40
0.8126616704331455
 40
1.0
 40
1.0
 40
1.0
 40
1.0
 10
-5986.918674542829
 20
-12077.8671806423
 10
-5986.040732360521
 20
-12077.8671806423
 10
-5986.589446224463
 20
-12079.76938870397
 10
-5986.918674542829
 20
-12080.50100718923
 10
-5987.330209940788
 20
-12081.41553029581
 10
-5988.567202749757
 20
-12082.14536293014
 10
-5988.894044453033
 20
-12083.13483373617
 10
-5989.037854802473
 20
-12083.57020089082
 10
-5988.750234103592
 20
-12084.14807118233
 10
-5988.894044453033
 20
-12084.58343833698
 10
-5989.137228737569
 20
-12085.31964717332
 10
-5990.060390596342
 20
-12085.8524518984
 10
-5990.342649053844
 20
-12086.55880824717
 10
-5990.737181079616
 20
-12087.54613101392
 10
-5989.474039330817
 20
-12089.18435287586
 10
-5990.342649053844
 20
-12089.98278275819
 10
-5991.06537602955
 20
-12090.64711657678
 10
-5991.897591327979
 20
-12091.07643163969
 10
-5992.713092946076
 20
-12091.56307868633
 10
-5993.775307265611
 20
-12092.1969504654
 10
-5996.00537612976
 20
-12092.03813295503
 10
-5996.00537612976
 20
-12093.27506594184
 72
     1
 10
-5996.00537612976
 20
-12093.27506594184
 11
-5996.00537612976
 21
-12098.41102770836
 72
     4
 94
        3
 73
     0
 74
     0
 95
       11
 96
        7
 40
0.0
 40
0.0
 40
0.0
 40
0.0
 40
0.5139294320268848
 40
0.5139294320268848
 40
0.5139294320268848
 40
1.0
 40
1.0
 40
1.0
 40
1.0
 10
-5996.00537612976
 20
-12098.41102770836
 10
-5996.00537612976
 20
-12099.38570170567
 10
-5996.877405278028
 20
-12100.15819871948
 10
-5997.717363385267
 20
-12100.7814716006
 10
-5998.511789407241
 20
-12101.37095837533
 10
-5999.831042445399
 20
-12101.43331041472
 10
-6000.48288125953
 20
-12100.7814716006
 72
     1
 10
-6000.48288125953
 20
-12100.7814716006
 11
-6002.458251169732
 21
-12098.80610169039
 72
     1
 10
-6002.458251169732
 20
-12098.80610169039
 11
-6002.194868515036
 21
-12099.06948434509
 97
        0
 75
     0
 76
     1
 98
        0
  0
LINE
  5
3D4
330
1B49
100
AcDbEntity
  8
Sunken Footpath
100
AcDbLine
 10
-6044.794497
 20
-12554.806088
 30
0.0
 11
-5962.731208
 21
-12554.806088
 31
0.0
  0
LINE
  5
3D5
330
1B49
100
AcDbEntity
  8
Sunken Footpath
100
AcDbLine
 10
-6044.794497
 20
-12568.113649
 30
0.0
 11
-5962.731208
 21
-12568.113649
 31
0.0
  0
TEXT
  5
3D6
330
1B49
100
AcDbEntity
  8
Key
  6
DGN Style 6
 62
   250
370
    13
100
AcDbText
 10
-5940.210806
 20
-12573.977351
 30
0.0
 40
22.415701
  1
= Sunken Footpath
 41
1.184186
  7
Style-Garamond
 11
-5940.210806
 21
-12551.56165
 31
0.0
100
AcDbText
 73
     3
  0
TEXT
  5
3DD
330
1B49
100
AcDbEntity
  8
Structure Numbers
100
AcDbText
 10
836.42058
 20
-4535.101491
 30
0.0
 40
119.760434
  1
2
 50
359.9
  7
Style-Garamond
 11
836.629601
 21
-4415.34124
 31
0.0
100
AcDbText
 73
     3
  0
TEXT
  5
3DE
330
1B49
100
AcDbEntity
  8
Structure Numbers
100
AcDbText
 10
1266.809809
 20
-4343.210868
 30
0.0
 40
119.760434
  1
3
 50
359.9
  7
Style-Garamond
 11
1267.018831
 21
-4223.450617
 31
0.0
100
AcDbText
 73
     3
  0
TEXT
  5
3DF
330
1B49
100
AcDbEntity
  8
Structure Numbers
100
AcDbText
 10
886.738786
 20
-3972.750721
 30
0.0
 40
119.760434
  1
4
 50
359.9
  7
Style-Garamond
 11
886.947808
 21
-3852.990469
 31
0.0
100
AcDbText
 73
     3
  0
TEXT
  5
3E0
330
1B49
100
AcDbEntity
  8
Structure Numbers
100
AcDbText
 10
1391.603197
 20
-3380.537796
 30
0.0
 40
119.760434
  1
5
 50
359.9
  7
Style-Garamond
 11
1391.812218
 21
-3260.777544
 31
0.0
100
AcDbText
 73
     3
  0
TEXT
  5
3E1
330
1B49
100
AcDbEntity
  8
Structure Numbers
100
AcDbText
 10
1105.317977
 20
-3114.67331
 30
0.0
 40
119.760434
  1
6
 50
359.9
  7
Style-Garamond
 11
1105.526999
 21
-2994.913059
 31
0.0
100
AcDbText
 73
     3
  0
TEXT
  5
3E2
330
1B49
100
AcDbEntity
  8
Structure Numbers
100
AcDbText
 10
1545.84353
 20
-2492.806779
 30
0.0
 40
119.760434
  1
7
 50
359.9
  7
Style-Garamond
 11
1546.052552
 21
-2373.046527
 31
0.0
100
AcDbText
 73
     3
  0
TEXT
  5
3E3
330
1B49
100
AcDbEntity
  8
Structure Numbers
100
AcDbText
 10
1430.907223
 20
-2010.687757
 30
0.0
 40
119.760434
  1
8
 50
179.9
  7
Style-Garamond
 11
1430.698202
 21
-2130.448009
 31
0.0
100
AcDbText
 73
     3
  0
TEXT
  5
3E4
330
1B49
100
AcDbEntity
  8
Structure Numbers
100
AcDbText
 10
908.514373
 20
-1861.335036
 30
0.0
 40
119.760434
  1
9
 50
359.9
  7
Style-Garamond
 11
908.723395
 21
-1741.574784
 31
0.0
100
AcDbText
 73
     3
  0
TEXT
  5
3E5
330
1B49
100
AcDbEntity
  8
Structure Numbers
100
AcDbText
 10
1671.652849
 20
-1553.820883
 30
0.0
 40
119.760434
  1
10
 50
359.9
  7
Style-Garamond
 11
1671.861871
 21
-1434.060632
 31
0.0
100
AcDbText
 73
     3
  0
TEXT
  5
3E6
330
1B49
100
AcDbEntity
  8
Structure Numbers
100
AcDbText
 10
1678.206213
 20
-1304.94489
 30
0.0
 40
119.760434
  1
11
 50
359.9
  7
Style-Garamond
 11
1678.415234
 21
-1185.184639
 31
0.0
100
AcDbText
 73
     3
  0
TEXT
  5
3E7
330
1B49
100
AcDbEntity
  8
Structure Numbers
100
AcDbText
 10
1263.398273
 20
-897.925086
 30
0.0
 40
119.760434
  1
12
 50
359.9
  7
Style-Garamond
 11
1263.607294
 21
-778.164834
 31
0.0
100
AcDbText
 73
     3
  0
TEXT
  5
3E8
330
1B49
100
AcDbEntity
  8
Structure Numbers
100
AcDbText
 10
1805.358103
 20
-644.127644
 30
0.0
 40
119.760434
  1
13
 50
359.9
  7
Style-Garamond
 11
1805.567124
 21
-524.367392
 31
0.0
100
AcDbText
 73
     3
  0
TEXT
  5
3E9
330
1B49
100
AcDbEntity
  8
Structure Numbers
100
AcDbText
 10
1889.50927
 20
277.972095
 30
0.0
 40
119.760434
  1
14
 50
359.9
  7
Style-Garamond
 11
1889.718292
 21
397.732347
 31
0.0
100
AcDbText
 73
     3
  0
TEXT
  5
3EA
330
1B49
100
AcDbEntity
  8
Structure Numbers
100
AcDbText
 10
2053.754691
 20
1258.539833
 30
0.0
 40
119.760434
  1
15
 50
359.9
  7
Style-Garamond
 11
2053.963712
 21
1378.300084
 31
0.0
100
AcDbText
 73
     3
  0
TEXT
  5
3EB
330
1B49
100
AcDbEntity
  8
Structure Numbers
100
AcDbText
 10
1689.938355
 20
1316.11598
 30
0.0
 40
119.760434
  1
16
 50
359.9
  7
Style-Garamond
 11
1690.147376
 21
1435.876231
 31
0.0
100
AcDbText
 73
     3
  0
TEXT
  5
3EC
330
1B49
100
AcDbEntity
  8
Structure Numbers
100
AcDbText
 10
1614.089497
 20
1891.118656
 30
0.0
 40
119.760434
  1
17
 50
359.9
  7
Style-Garamond
 11
1614.298518
 21
2010.878908
 31
0.0
100
AcDbText
 73
     3
  0
TEXT
  5
3ED
330
1B49
100
AcDbEntity
  8
Structure Numbers
100
AcDbText
 10
719.100103
 20
1687.56507
 30
0.0
 40
119.760434
  1
18
 50
359.9
  7
Style-Garamond
 11
719.309125
 21
1807.325322
 31
0.0
100
AcDbText
 73
     3
  0
TEXT
  5
3EE
330
1B49
100
AcDbEntity
  8
Structure Numbers
100
AcDbText
 10
581.22834
 20
1147.991929
 30
0.0
 40
119.760434
  1
19
 50
359.9
  7
Style-Garamond
 11
581.437362
 21
1267.75218
 31
0.0
100
AcDbText
 73
     3
  0
TEXT
  5
3EF
330
1B49
100
AcDbEntity
  8
Structure Numbers
100
AcDbText
 10
263.655735
 20
1247.81401
 30
0.0
 40
119.760434
  1
20
 50
359.9
  7
Style-Garamond
 11
263.864756
 21
1367.574262
 31
0.0
100
AcDbText
 73
     3
  0
TEXT
  5
3F0
330
1B49
100
AcDbEntity
  8
Structure Numbers
100
AcDbText
 10
460.142604
 20
571.887511
 30
0.0
 40
119.760434
  1
21
 50
359.9
  7
Style-Garamond
 11
460.351625
 21
691.647762
 31
0.0
100
AcDbText
 73
     3
  0
TEXT
  5
3F1
330
1B49
100
AcDbEntity
  8
Structure Numbers
100
AcDbText
 10
148.812847
 20
601.60947
 30
0.0
 40
119.760434
  1
22
 50
359.9
  7
Style-Garamond
 11
149.021869
 21
721.369721
 31
0.0
100
AcDbText
 73
     3
  0
TEXT
  5
3F2
330
1B49
100
AcDbEntity
  8
Structure Numbers
100
AcDbText
 10
-416.23854
 20
880.4226
 30
0.0
 40
119.760434
  1
23
 50
359.9
  7
Style-Garamond
 11
-416.029518
 21
1000.182852
 31
0.0
100
AcDbText
 73
     3
  0
TEXT
  5
3F3
330
1B49
100
AcDbEntity
  8
Structure Numbers
100
AcDbText
 10
-3515.898984
 20
1147.924959
 30
0.0
 40
119.760434
  1
24
 50
359.9
  7
Style-Garamond
 11
-3515.689962
 21
1267.685211
 31
0.0
100
AcDbText
 73
     3
  0
TEXT
  5
3F4
330
1B49
100
AcDbEntity
  8
Structure Numbers
100
AcDbText
 10
433.048434
 20
145.10887
 30
0.0
 40
119.760434
  1
25
 50
359.9
  7
Style-Garamond
 11
433.257455
 21
264.869122
 31
0.0
100
AcDbText
 73
     3
  0
TEXT
  5
3F5
330
1B49
100
AcDbEntity
  8
Structure Numbers
100
AcDbText
 10
370.570486
 20
-373.653733
 30
0.0
 40
119.760434
  1
26
 50
359.9
  7
Style-Garamond
 11
370.779507
 21
-253.893481
 31
0.0
100
AcDbText
 73
     3
  0
TEXT
  5
3F6
330
1B49
100
AcDbEntity
  8
Structure Numbers
100
AcDbText
 10
-2043.84881
 20
-768.828511
 30
0.0
 40
119.760434
  1
28
 50
359.9
  7
Style-Garamond
 11
-2043.639789
 21
-649.068259
 31
0.0
100
AcDbText
 73
     3
  0
TEXT
  5
3F7
330
1B49
100
AcDbEntity
  8
Structure Numbers
100
AcDbText
 10
-2140.199127
 20
-1348.560586
 30
0.0
 40
119.760434
  1
29
 50
359.9
  7
Style-Garamond
 11
-2139.990106
 21
-1228.800334
 31
0.0
100
AcDbText
 73
     3
  0
TEXT
  5
3F8
330
1B49
100
AcDbEntity
  8
Structure Numbers
100
AcDbText
 10
-2780.849907
 20
-2292.845945
 30
0.0
 40
119.760434
  1
30
 50
359.9
  7
Style-Garamond
 11
-2780.640886
 21
-2173.085693
 31
0.0
100
AcDbText
 73
     3
  0
TEXT
  5
3F9
330
1B49
100
AcDbEntity
  8
Structure Numbers
100
AcDbText
 10
212.457088
 20
-1297.682542
 30
0.0
 40
119.760434
  1
32
 50
359.9
  7
Style-Garamond
 11
212.666109
 21
-1177.922291
 31
0.0
100
AcDbText
 73
     3
  0
TEXT
  5
3FA
330
1B49
100
AcDbEntity
  8
Structure Numbers
100
AcDbText
 10
-1546.063343
 20
-2570.784657
 30
0.0
 40
119.760434
  1
31
 50
359.9
  7
Style-Garamond
 11
-1545.854322
 21
-2451.024405
 31
0.0
100
AcDbText
 73
     3
  0
TEXT
  5
3FB
330
1B49
100
AcDbEntity
  8
Structure Numbers
100
AcDbText
 10
191.917531
 20
-1997.168235
 30
0.0
 40
119.760434
  1
33
 50
359.9
  7
Style-Garamond
 11
192.126553
 21
-1877.407983
 31
0.0
100
AcDbText
 73
     3
  0
TEXT
  5
3FC
330
1B49
100
AcDbEntity
  8
Structure Numbers
100
AcDbText
 10
-236.930151
 20
-2816.057969
 30
0.0
 40
119.760434
  1
34
 50
359.9
  7
Style-Garamond
 11
-236.72113
 21
-2696.297718
 31
0.0
100
AcDbText
 73
     3
  0
TEXT
  5
3FD
330
1B49
100
AcDbEntity
  8
Structure Numbers
100
AcDbText
 10
-783.808826
 20
-3084.129607
 30
0.0
 40
119.760434
  1
35
 50
359.9
  7
Style-Garamond
 11
-783.599805
 21
-2964.369355
 31
0.0
100
AcDbText
 73
     3
  0
TEXT
  5
3FE
330
1B49
100
AcDbEntity
  8
Structure Numbers
100
AcDbText
 10
-86.432899
 20
-3429.812008
 30
0.0
 40
119.760434
  1
40
 50
359.9
  7
Style-Garamond
 11
-86.223877
 21
-3310.051756
 31
0.0
100
AcDbText
 73
     3
  0
TEXT
  5
3FF
330
1B49
100
AcDbEntity
  8
Structure Numbers
100
AcDbText
 10
-707.381063
 20
-4294.72442
 30
0.0
 40
119.760434
  1
39
 50
359.9
  7
Style-Garamond
 11
-707.172041
 21
-4174.964169
 31
0.0
100
AcDbText
 73
     3
  0
TEXT
  5
400
330
1B49
100
AcDbEntity
  8
Structure Numbers
100
AcDbText
 10
-2047.965291
 20
-3980.621762
 30
0.0
 40
119.760434
  1
37
 50
359.9
  7
Style-Garamond
 11
-2047.75627
 21
-3860.86151
 31
0.0
100
AcDbText
 73
     3
  0
TEXT
  5
401
330
1B49
100
AcDbEntity
  8
Structure Numbers
100
AcDbText
 10
212.457088
 20
-1297.682542
 30
0.0
 40
119.760434
  1
32
 50
359.9
  7
Style-Garamond
 11
212.666109
 21
-1177.922291
 31
0.0
100
AcDbText
 73
     3
  0
TEXT
  5
402
330
1B49
100
AcDbEntity
  8
Structure Numbers
100
AcDbText
 10
-703.14811
 20
-807.105904
 30
0.0
 40
119.760434
  1
27
 50
359.9
  7
Style-Garamond
 11
-702.939088
 21
-687.345653
 31
0.0
100
AcDbText
 73
     3
  0
HATCH
  5
1BD4
330
1B49
100
AcDbEntity
  8
Datum
  6
Continuous
 62
   212
370
     0
100
AcDbHatch
 10
0.0
 20
0.0
 30
0.0
210
0.0
220
0.0
230
1.0
  2
SOLID
 70
     1
 71
     1
 91
        1
 92
        1
 93
        1
 72
     2
 10
0.0000013965018297
 20
-0.0000053453986766
 40
24.31434380608029
 50
0.0
 51
360.0
 73
     1
 97
        1
330
495
 75
     0
 76
     1
 98
        0
  0
CIRCLE
  5
495
102
{ACAD_REACTORS
330
1BD4
102
}
330
1B49
100
AcDbEntity
  8
Datum
  6
Continuous
 62
     7
370
     0
100
AcDbCircle
 10
0.000001
 20
-0.000005
 30
0.0
 40
24.31434380608029
  0
TEXT
  5
3C2
330
1B49
100
AcDbEntity
  8
Key
  6
DGN Style 6
 62
   250
370
    13
100
AcDbText
 10
-5943.153653
 20
-12464.390686
 30
0.0
 40
22.415701
  1
= Barry Higman's House Numbers
 41
1.184186
  7
Style-Garamond
 11
-5943.153653
 21
-12441.974985
 31
0.0
100
AcDbText
 73
     3
  0
INSERT
  5
510
330
1B49
100
AcDbEntity
  8
Key
100
AcDbBlockReference
  2
*U6
 10
-4905.649168
 20
-12527.92104
 30
0.0
  0
LWPOLYLINE
  5
55E
330
1B49
100
AcDbEntity
  8
1204 Quadrats
100
AcDbPolyline
 90
        4
 70
   129
 43
0.0
 10
-1919.999999
 20
-5400.000005
 10
-1919.999999
 20
-5520.000005
 10
-1799.999999
 20
-5520.000005
 10
-1799.999999
 20
-5400.000005
  0
LWPOLYLINE
  5
560
330
1B49
100
AcDbEntity
  8
1204 Quadrats
100
AcDbPolyline
 90
        4
 70
   129
 43
0.0
 10
-719.999999
 20
-5400.000005
 10
-719.999999
 20
-5520.000005
 10
-599.999999
 20
-5520.000005
 10
-599.999999
 20
-5400.000005
  0
LWPOLYLINE
  5
563
330
1B49
100
AcDbEntity
  8
1204 Quadrats
100
AcDbPolyline
 90
        4
 70
   129
 43
0.0
 10
-1919.999999
 20
-6000.000005
 10
-1919.999999
 20
-6120.000005
 10
-1799.999999
 20
-6120.000005
 10
-1799.999999
 20
-6000.000005
  0
MTEXT
  5
564
330
1B49
100
AcDbEntity
  8
1204 Quadrats
  6
Continuous
 62
   250
370
    13
100
AcDbMText
 10
-988.290813
 20
-5275.281869
 30
0.0
 40
53.307998
 41
0.0
 71
     1
 72
     1
  1
Quadrat W60/S450
  7
Style-Garamond
 73
     2
 44
0.63
  0
TEXT
  5
5A4
330
1B49
100
AcDbEntity
  8
Depression Features
100
AcDbText
 10
-1911.332454
 20
16.902863
 30
0.0
 40
5.4864
  1
W160 N02
  7
Style-Garamond
 11
-1911.332454
 21
22.389263
 31
0.0
100
AcDbText
 73
     3
  0
TEXT
  5
5A5
330
1B49
100
AcDbEntity
  8
Depression Features
100
AcDbText
 10
-1431.332454
 20
16.902863
 30
0.0
 40
5.4864
  1
W120 N02
  7
Style-Garamond
 11
-1431.332454
 21
22.389263
 31
0.0
100
AcDbText
 73
     3
  0
TEXT
  5
5A6
330
1B49
100
AcDbEntity
  8
Depression Features
100
AcDbText
 10
-951.332454
 20
16.902863
 30
0.0
 40
5.4864
  1
W80 N02
  7
Style-Garamond
 11
-951.332454
 21
22.389263
 31
0.0
100
AcDbText
 73
     3
  0
TEXT
  5
5A7
330
1B49
100
AcDbEntity
  8
Depression Features
100
AcDbText
 10
-471.332454
 20
16.902863
 30
0.0
 40
5.4864
  1
W40 N02
  7
Style-Garamond
 11
-471.332454
 21
22.389263
 31
0.0
100
AcDbText
 73
     3
  0
LWPOLYLINE
  5
5AE
330
1B49
100
AcDbEntity
  8
1204 Quadrats
100
AcDbPolyline
 90
        4
 70
   129
 43
0.0
 10
-1919.999999
 20
-0.000005
 10
-1919.999999
 20
23.999995
 10
-1679.999999
 20
23.999995
 10
-1679.999999
 20
-0.000005
  0
LWPOLYLINE
  5
5B0
330
1B49
100
AcDbEntity
  8
1204 Quadrats
100
AcDbPolyline
 90
        4
 70
   129
 43
0.0
 10
-1439.999999
 20
-0.000005
 10
-1439.999999
 20
23.999995
 10
-1199.999999
 20
23.999995
 10
-1199.999999
 20
-0.000005
  0
LWPOLYLINE
  5
5B3
330
1B49
100
AcDbEntity
  8
1204 Quadrats
100
AcDbPolyline
 90
        4
 70
   129
 43
0.0
 10
-959.999999
 20
-0.000005
 10
-959.999999
 20
23.999995
 10
-719.999999
 20
23.999995
 10
-719.999999
 20
-0.000005
  0
LWPOLYLINE
  5
5B5
330
1B49
100
AcDbEntity
  8
1204 Quadrats
100
AcDbPolyline
 90
        4
 70
   129
 43
0.0
 10
-479.999999
 20
23.999995
 10
-479.999999
 20
-0.000005
 10
-239.999999
 20
-0.000005
 10
-239.999999
 20
23.999995
  0
HATCH
  5
1BD8
330
1B49
100
AcDbEntity
  8
Key
  6
Continuous
 62
   212
370
     0
100
AcDbHatch
 10
0.0
 20
0.0
 30
0.0
210
0.0
220
0.0
230
1.0
  2
SOLID
 70
     1
 71
     1
 91
        1
 92
        1
 93
        1
 72
     2
 10
-6003.20784422366
 20
-11918.3052093905
 40
24.31434380608029
 50
0.0
 51
360.0
 73
     1
 97
        1
330
716
 75
     0
 76
     1
 98
        0
  0
CIRCLE
  5
716
102
{ACAD_REACTORS
330
1BD8
102
}
330
1B49
100
AcDbEntity
  8
Key
  6
Continuous
 62
     7
370
     0
100
AcDbCircle
 10
-6003.207844
 20
-11918.305209
 30
0.0
 40
24.31434380608029
  0
TEXT
  5
717
330
1B49
100
AcDbEntity
  8
Key
  6
DGN Style 6
 62
   250
370
    13
100
AcDbText
 10
-5935.138568
 20
-11932.345363
 30
0.0
 40
22.415701
  1
= Datum used for house excavations
 41
1.184186
  7
Style-Garamond
 11
-5935.138568
 21
-11909.929662
 31
0.0
100
AcDbText
 73
     3
  0
LWPOLYLINE
  5
1B39
330
1B49
100
AcDbEntity
  8
Key
100
AcDbPolyline
 90
        4
 70
   129
 43
0.0
 10
-6046.052229
 20
-12417.201837
 10
-5966.524647
 20
-12416.182252
 10
-5964.485478
 20
-12360.105111
 10
-6045.032645
 20
-12359.085527
  0
TEXT
  5
1B3A
330
1B49
100
AcDbEntity
  8
Key
  6
DGN Style 6
 62
   250
370
    13
100
AcDbText
 10
-5938.155144
 20
-12399.724948
 30
0.0
 40
22.415701
  1
= Structures
 41
1.184186
  7
Style-Garamond
 11
-5938.155144
 21
-12377.309247
 31
0.0
100
AcDbText
 73
     3
  0
LWPOLYLINE
  5
1B3B
330
1B49
100
AcDbEntity
  8
Key
370
    13
100
AcDbPolyline
 90
        4
 70
   129
 43
0.0
 10
-6158.165943
 20
-11850.619962
 10
-5266.365708
 20
-11850.619962
 10
-5266.365708
 20
-12628.724548
 10
-6158.165943
 20
-12628.724548
  0
TEXT
  5
1B3C
330
1B49
100
AcDbEntity
  8
Structure Numbers
100
AcDbText
 10
-152.259233
 20
-4246.079724
 30
0.0
 40
119.760434
  1
42
 50
359.9
  7
Style-Garamond
 11
-152.050212
 21
-4126.319472
 31
0.0
100
AcDbText
 73
     3
  0
TEXT
  5
1B3D
330
1B49
100
AcDbEntity
  8
Structure Numbers
100
AcDbText
 10
13.705026
 20
-3848.337794
 30
0.0
 40
119.760434
  1
41
 50
359.9
  7
Style-Garamond
 11
13.914047
 21
-3728.577543
 31
0.0
100
AcDbText
 73
     3
  0
TEXT
  5
1B3E
330
1B49
100
AcDbEntity
  8
Structure Numbers
100
AcDbText
 10
-1419.882792
 20
-3899.843943
 30
0.0
 40
119.760434
  1
38
 50
359.9
  7
Style-Garamond
 11
-1419.673771
 21
-3780.083692
 31
0.0
100
AcDbText
 73
     3
  0
TEXT
  5
1B3F
330
1B49
100
AcDbEntity
  8
Structure Numbers
100
AcDbText
 10
-2972.585628
 20
-3043.182134
 30
0.0
 40
119.760434
  1
36
 50
359.9
  7
Style-Garamond
 11
-2972.376606
 21
-2923.421882
 31
0.0
100
AcDbText
 73
     3
  0
INSERT
  5
641
330
1B49
100
AcDbEntity
  8
0
100
AcDbBlockReference
  2
House14_sitemap
 10
0.0
 20
0.0
 30
0.0
  0
INSERT
  5
658
330
1B49
100
AcDbEntity
  8
0
100
AcDbBlockReference
  2
House24_sitemap
 10
0.0
 20
0.0
 30
0.0
  0
INSERT
  5
66F
330
1B49
100
AcDbEntity
  8
0
100
AcDbBlockReference
  2
House26_sitemap
 10
0.0
 20
0.0
 30
0.0
  0
INSERT
  5
688
330
1B49
100
AcDbEntity
  8
0
100
AcDbBlockReference
  2
House37_sitemap
 10
0.0
 20
0.0
 30
0.0
  0
ENDSEC
  0
SECTION
  2
OBJECTS
  0
DICTIONARY
  5
1B5C
330
0
100
AcDbDictionary
281
     1
  3
ACAD_GROUP
350
1B5A
  3
ACAD_LAYOUT
350
1B5D
  3
ACAD_MLINESTYLE
350
1B5B
  3
ACAD_PLOTSETTINGS
350
1B5E
  3
ACAD_PLOTSTYLENAME
350
1B5F
  3
ACAD_TABLESTYLE
350
1BDC
  3
AcadDim
350
1BBF
  3
DWGPROPS
350
1D97
  0
DICTIONARY
  5
1D95
330
1B49
100
AcDbDictionary
280
     1
281
     1
  3
ACAD_SORTENTS
360
1D96
  0
DICTIONARY
  5
1B5A
102
{ACAD_REACTORS
330
1B5C
102
}
330
1B5C
100
AcDbDictionary
281
     1
  0
DICTIONARY
  5
1B5D
102
{ACAD_REACTORS
330
1B5C
102
}
330
1B5C
100
AcDbDictionary
281
     1
  3
Layout1
350
1B50
  3
Model
350
1B4C
  0
DICTIONARY
  5
1B5B
102
{ACAD_REACTORS
330
1B5C
102
}
330
1B5C
100
AcDbDictionary
281
     1
  3
Standard
350
1B47
  0
DICTIONARY
  5
1B5E
102
{ACAD_REACTORS
330
1B5C
102
}
330
1B5C
100
AcDbDictionary
281
     1
  0
ACDBDICTIONARYWDFLT
  5
1B5F
102
{ACAD_REACTORS
330
1B5C
102
}
330
1B5C
100
AcDbDictionary
281
     1
  3
Normal
350
1B42
100
AcDbDictionaryWithDefault
340
1B42
  0
DICTIONARY
  5
1BDC
102
{ACAD_REACTORS
330
1B5C
102
}
330
1B5C
100
AcDbDictionary
281
     1
  0
XRECORD
  5
1BBF
102
{ACAD_REACTORS
330
1B5C
102
}
330
1B5C
100
AcDbXrecord
280
     1
 90
   990106
  3
 
 60
     0
 61
     0
 62
     1
 63
     1
 64
     0
 65
     0
 66
     0
 67
     3
 68
     1
 69
     1
 70
     0
 71
     0
 72
     0
 40
0.0
170
     0
  0
XRECORD
  5
1D97
102
{ACAD_REACTORS
330
1B5C
102
}
330
1B5C
100
AcDbXrecord
280
     1
  1
DWGPROPS COOKIE
  2

  3

  4
lcooper
  6

  7

  8

  9

300
=
301
=
302
=
303
=
304
=
305
=
306
=
307
=
308
=
309
=
 40
0.0
 41
2451789.537469
 42
2451789.537561
  1

 90
        0
  0
SORTENTSTABLE
  5
1D96
102
{ACAD_REACTORS
330
1D95
102
}
330
1D95
100
AcDbSortentsTable
330
1B49
  0
LAYOUT
  5
1B50
102
{ACAD_REACTORS
330
1B5D
330
1B5D
102
}
330
1B5D
100
AcDbPlotSettings
  1

  2

  4

  6

 40
0.0
 41
0.0
 42
0.0
 43
0.0
 44
0.0
 45
0.0
 46
0.0
 47
0.0
 48
0.0
 49
0.0
140
0.0
141
0.0
142
1.0
143
1.0
 70
   688
 72
     0
 73
     0
 74
     5
  7

 75
    16
147
1.0
148
0.0
149
0.0
100
AcDbLayout
  1
Layout1
 70
     1
 71
     1
 10
0.0
 20
0.0
 11
12.0
 21
9.0
 12
0.0
 22
0.0
 32
0.0
 14
1.000000E+20
 24
1.000000E+20
 34
1.000000E+20
 15
-1.000000E+20
 25
-1.000000E+20
 35
-1.000000E+20
146
0.0
 13
0.0
 23
0.0
 33
0.0
 16
1.0
 26
0.0
 36
0.0
 17
0.0
 27
1.0
 37
0.0
 76
     0
330
1B4D
  0
LAYOUT
  5
1B4C
102
{ACAD_REACTORS
330
1B5D
330
1B5D
102
}
330
1B5D
100
AcDbPlotSettings
  1

  2

  4

  6

 40
0.0
 41
0.0
 42
0.0
 43
0.0
 44
0.0
 45
0.0
 46
0.0
 47
0.0
 48
0.0
 49
0.0
140
0.0
141
0.0
142
1.0
143
1.0
 70
  1712
 72
     0
 73
     0
 74
     0
  7

 75
     0
147
1.0
148
0.0
149
0.0
100
AcDbLayout
  1
Model
 70
     1
 71
     0
 10
0.0
 20
0.0
 11
12.0
 21
9.0
 12
0.0
 22
0.0
 32
0.0
 14
0.0
 24
0.0
 34
0.0
 15
0.0
 25
0.0
 35
0.0
146
0.0
 13
0.0
 23
0.0
 33
0.0
 16
1.0
 26
0.0
 36
0.0
 17
0.0
 27
1.0
 37
0.0
 76
     0
330
1B49
  0
MLINESTYLE
  5
1B47
102
{ACAD_REACTORS
330
1B5B
102
}
330
1B5B
100
AcDbMlineStyle
  2
STANDARD
 70
     0
  3

 62
   256
 51
90.0
 52
90.0
 71
     2
 49
0.5
 62
   256
  6
BYLAYER
 49
-0.5
 62
   256
  6
BYLAYER
  0
ACDBPLACEHOLDER
  5
1B42
102
{ACAD_REACTORS
330
1B5F
102
}
330
1B5F
  0
ENDSEC
  0
SECTION
  2
THUMBNAILIMAGE
 90
    22304
310
28000000B4000000760000000100080000000000F85200000004000000040000000100000E000000FFFFFF00007800000038480000587800E858280000C800000000F8004800000030303000F800000058585800F8F8F800004800000060C800FFFFFF00FFFFFF00FFFFFF00FFFFFF00FFFFFF00FFFFFF00FFFFFF00FFFFFF
310
00FFFFFF00FFFFFF00FFFFFF00FFFFFF00FFFFFF00FFFFFF00FFFFFF00FFFFFF00FFFFFF00FFFFFF00FFFFFF00FFFFFF00FFFFFF00FFFFFF00FFFFFF00FFFFFF00FFFFFF00FFFFFF00FFFFFF00FFFFFF00FFFFFF00FFFFFF00FFFFFF00FFFFFF00FFFFFF00FFFFFF00FFFFFF00FFFFFF00FFFFFF00FFFFFF00FFFFFF00FFFF
310
FF00FFFFFF00FFFFFF00FFFFFF00FFFFFF00FFFFFF00FFFFFF00FFFFFF00FFFFFF00FFFFFF00FFFFFF00FFFFFF00FFFFFF00FFFFFF00FFFFFF00FFFFFF00FFFFFF00FFFFFF00FFFFFF00FFFFFF00FFFFFF00FFFFFF00FFFFFF00FFFFFF00FFFFFF00FFFFFF00FFFFFF00FFFFFF00FFFFFF00FFFFFF00FFFFFF00FFFFFF00FF
310
FFFF00FFFFFF00FFFFFF00FFFFFF00FFFFFF00FFFFFF00FFFFFF00FFFFFF00FFFFFF00FFFFFF00FFFFFF00FFFFFF00FFFFFF00FFFFFF00FFFFFF00FFFFFF00FFFFFF00FFFFFF00FFFFFF00FFFFFF00FFFFFF00FFFFFF00FFFFFF00FFFFFF00FFFFFF00FFFFFF00FFFFFF00FFFFFF00FFFFFF00FFFFFF00FFFFFF00FFFFFF00
310
FFFFFF00FFFFFF00FFFFFF00FFFFFF00FFFFFF00FFFFFF00FFFFFF00FFFFFF00FFFFFF00FFFFFF00FFFFFF00FFFFFF00FFFFFF00FFFFFF00FFFFFF00FFFFFF00FFFFFF00FFFFFF00FFFFFF00FFFFFF00FFFFFF00FFFFFF00FFFFFF00FFFFFF00FFFFFF00FFFFFF00FFFFFF00FFFFFF00FFFFFF00FFFFFF00FFFFFF00FFFFFF
310
00FFFFFF00FFFFFF00FFFFFF00FFFFFF00FFFFFF00FFFFFF00FFFFFF00FFFFFF00FFFFFF00FFFFFF00FFFFFF00FFFFFF00FFFFFF00FFFFFF00FFFFFF00FFFFFF00FFFFFF00FFFFFF00FFFFFF00FFFFFF00FFFFFF00FFFFFF00FFFFFF00FFFFFF00FFFFFF00FFFFFF00FFFFFF00FFFFFF00FFFFFF00FFFFFF00FFFFFF00FFFF
310
FF00FFFFFF00FFFFFF00FFFFFF00FFFFFF00FFFFFF00FFFFFF00FFFFFF00FFFFFF00FFFFFF00FFFFFF00FFFFFF00FFFFFF00FFFFFF00FFFFFF00FFFFFF00FFFFFF00FFFFFF00FFFFFF00FFFFFF00FFFFFF00FFFFFF00FFFFFF00FFFFFF00FFFFFF00FFFFFF00FFFFFF00FFFFFF00FFFFFF00FFFFFF00FFFFFF00FFFFFF00FF
310
FFFF00FFFFFF00FFFFFF00FFFFFF00FFFFFF00FFFFFF00FFFFFF00FFFFFF00FFFFFF00FFFFFF00FFFFFF00FFFFFF00FFFFFF00FFFFFF00FFFFFF00FFFFFF00FFFFFF00FFFFFF00FFFFFF00FFFFFF00FFFFFF00FFFFFF00FFFFFF00FFFFFF00FFFFFF00FFFFFF00FFFFFF00FFFFFF00FFFFFF00FFFFFF00FFFFFF00FFFFFF00
310
FFFFFF00FFFFFF00FFFFFF00FFFFFF00FFFFFF00FFFFFF00FFFFFF00FFFFFF00FFFFFF00FFFFFF00FFFFFF00FFFFFF000B0B0B0B0B0B0B0B0B0B0B0B0B0B0B0B0B0B0B0B0B0B0B0B0B0B0B0B00000D0808080B00000808080B0B0B0B0B0B0B0B0B0B0B0B0B0B0B0B0B0B0B0B0B0B0B0B0B0B0B0B0B0B0B0B0B0B0D0D0B0B0B
310
0B0B0B0B0B0B0B0B0B0B0B0B0B0B0B0B0B0B0B0B0B0B0B0B0B0B0B0B0B0B0B0B0B0B0B0B0B0B0B0B0B0B0B0B0B0B0B0B0B0B0B0B0B0B0B0B0B0B0B0B0B0B0B0B0B0B0B0B0B0B0B0B0B0B0B0B0B0B0B0B0B0B0B0B0B0B0B0B0B0B0B0B0B0B0B0B0B0B0B0B0B0B0B0B0B0B0B0B0B0B0B0B0B0B0B0B0B0B0B0B0B0B0B0B0B0B0B
310
0B0B0000010808080B0000080808080B0B0B0B0B0B0B0B0B0B0B0B0B0B0B0B0B0B0B0B0B0B0B0B0B0B0B0B0B0D0D0D0D0B0B0B0B0B0B0B0B0B0B0B0B0B0B0B0B0B0B0B0B0B0B0B0B0B0B0B0B0B0B0B0B0B0B0B0B0B0B0B0B0B0B0B0B0B0B0B0B0B0B0B0B0B0B0B0B0B0B0B0B0B0B0B0B0B0B0B0B0B0B0B0B0B0B0B0B0B0B0B
310
0B0B0B0B0B0B0B0B0B0B0B0B0B0B0B0B0B0B0B0B0B0B0B0B0B0B0B0B0B0B0B0B0B0B0B0B0B0B0B0B0B0B0B0B0B0B0B0B0B0B0B0B0B0B0B000000080808080000080808080B0B0B0B0B0B0B0B0B0B0B0B0B0B0B0B0B0B0D0D0D0D0D0D0D0D0D0D0D0B0B0B0B0B0B0B0B0B0B0B0B0B0B0B0B0B0B0B0B0B0B0B0B0B0B0B0B0B0B
310
0B0B0B0B0B0B0B0B0B0B0B0B0B0B0B0B0B0B0B0B0B0B0B0B0B0B0B0B0B0B0B0B0B0B0B0B0B0B0B0B0B0B0B0B0B0B0B0B0B0B0B0B0B0B0B0B0B0B0B0B0B0B0B0B0B0B0B0B0B0B0B0B0B0B0B0B0B0B0B0B0B0B0B0B0B0B0B0B0B0B0B0B0B0B0B0B0B0B0B0B0B0B0B0B0B0B0B0B0000000000000000000B0808080B0B0B0B0B0B
310
0B0B0B0B0B0B0B0B0D0D0D0D0B0B0B0B0B0B0B0B0B0B0B0B0B0B0B0B0B0B0B0B0B0B0B0B0B0B0B0B0B0B0B0B0B0B0B0B0B0B0B0B0B0B0B0B0B0B0B0B0B0B0B0B0B0B0B0B0B0B0B0B0B0B0B0B0B0B0B0B0B0B0B0B0B0B0B0B0B0B0B0B0B0B0B0B0B0B0B0B0B0B0B0B0B0B0B0B0B0B0B0B0B0B0B0B0B0B0B0B0B0B0B0B0B0B0B
310
0B0B0B0B0B0B0B0B0B0B0B0B0B0B0B0B0B0B0B0B0B0B0B0B0B0B0B0B0B0B0B0B0B0B0B00000000000000000B0B080B0B0B0B0B0B0B0B0B0B0B0B0D0D0D0B0B0B0B0B0B0B0B0B0B0B0B0B0B0B0B0B0B0B0B0B0B0B0B0B0B0B0B0B0B0B0B0B0B0B0B0B0B0B0B0B0B0B0B0B0B0B0B0B0B0B0B0B0B0B0B0B0B0B0B0B0B0B0B0B0B
310
0B0B0B0B0B0B0B0B0B0B0B0B0B0B0B0B0B0B0B0B0B0B0B0B0B0B0B0B0B0B0B0B0B0B0B0B0B0B0B0B0B0B0B0B0B0B0B0B0B0B0B0B0B0B0B0B0B0B0B0B0B0B0B0B0B0B0B0B0B0B0B0B0B0B0B0B0B0B0B0B0B0B0B0B0B0B0B0B0B0B0B0B0B0B0B0B0B0B0B0B0B0B0B0B0B0B0B0D0D0D0D0B0B0B0B0B0B0B0B0B0B0B0B0B0B0B0B
310
0B0B0B0B0B0B0B0B0B0B0B0B0B0B0B0B0B0B0B0B0B0B0B0B0B0B0B0B0B0B0B0B0B0B0B0B0B0B0B0B0B0B0B0B0B0B0B0B0B0B0B0B0B0B0B0B0B0B0B0B0B0B0B0B0B0B0B0B0B0B0B0B0B0B0B0B0B0B0B0B0B0B0B0B0B0B0B0B0B0B0B0B0B0B0B0B0B0B0B0B0B0B0B0B0B0B0B0B0B0B0B0B0B0B0B0B0B0B0B0B0B0B0B0B0B0B0B
310
0B0B0B0B0B0B0B0B0B0B0B0B0B0B0B0B0B0B0B0B0B0B0B0B0B0B0B0B0B0B0B0D0D0B0B0B0B0B0B0B0B0B0B0B0B0B0B0B0B0B0B0B0B0B0B0B0B0B0B0B0B0B0B0B0B0B0B0B0B0B0B0B0B0B0B0B0B0B0B0B0B0B0B0B0B0B0B0B0B0B0B0B0B0B0B0B0B0B0B0B0B0B0B0B0B0B0B0B0B0B0B0B0B0B0B0B0B0B0B0B0B0B0B0B0B0B0B
310
0B0B0B0B0B0B0B0B0B0B0B0B0B0B0B0B0B0B0B0B0B0B0B0B0B0B0B0B0B0B0B0B0B0B0B0B0B0B0B0B0B0B0B0B0B0B0B0B0B0B0B0B0B0B0B0B0B0B0B0B0B0B0B0B0B0B0B0B0B0B0B0B0B0B0B0B0B0B0B0B0B0B0B0B0D0B0B0B0B0B0B0B0B0B0B0B0B0B0B0B0B0B0B0B0B0B0B0B0B0B0B0B0B0B0B0A0A0A0A0B0B0B0B0B0B0B0B
310
0B0B0B0B0B0B0B0B0B0B0B0B0B0B0B0B0B0B0B0B0B0B0B0B0B0B0B0B0B0B0B0B0B0B0B0B0B0B0B0B0B0B0B0B0B0B0B0B0B0B0B0B0B0B0B0B0B0B0B0B0B0B0B0B0B0B0B0B0B0B0B0B0B0B0B0B0B0B0B0B0B0B0B0B0B0B0B0B0B0B0B0B0B0B0B0B0B0B0B0B0B0B0B0B0B0B0B0B0B0B0B0B0B0B0B0B0B0B0B0B0B0B0B0B0B0B0B
310
0B0B0B0B0B0B0B0B0B0B0D0B0B0B0B0B0B0B0B0B0B0B0B0B0B0B0B0B0B0B0B0B0B0A0A0A0A0A0A0A0A0B0B0B0A0B0B0B0B0B0B0B0B0B0B0B0B0B0B0B0B0B0B0B0B0B0B0B0B0B0B0B0B0B0B0B0B0B0B0B0B0B0B0B0B0B0B0B0B0B0B0B0B0B0B0B0B0B0B0B0B0B0B0B0B0B0B0B0B0B0B0B0B0B0B0B0B0B0B0B0B0B0B0B0B0B0B
310
0B0B0B0B0B0B0B0B0B0B0B0B0B0B0B0B0B0B0B0B0B0B0B0B0B0B0B0B0B0B0B0B0B0B0B0B0B0B0B0B0B0B0B0B0B0B0B0B0B0B0B0B0B0B0B0B0B0B0B0B0B0B0B0D0B0B0B0B0B0B0B0B0B0B0B0B0B0B0B0A0A0A0A0A0A0A0B0B0B0B0B0B0B0B0B0B0B0A0B0B0B0B0B0B0B0B0B0B0B0B0B0B0B0B0B0B0B0B0B0B0B0B0B0B0B0B0B
310
0B0B0B0B0B0B0B0B0B0B0B0B0B0B0B0B0B0B0B0B0B0B0B0B0B0B0B0B0B0B0B0B0B0B0B0B0B0B0B0B0B0B0B0B0B0B0B0B0B0B0B0B0B0B0B0B0B0B0B0B0B0B0B0B0B0B0B0B0B0B0B0B0B0B0B0B0B0B0B0B0B0B0B0B0B0B0B0B0B0B0B0B0B0B0B0B0B0B0B0B0B0B0B0B0B0B0B0B0B0B0B0B0B0B0B0B0D0B0B0B0B0B0B0B0A0A0A
310
0A0A0A0A0A0B0B0B0B0B0B0B0B0B0B0B0B0B0B0B0B0B0B0A0B0B0B0B0B0B0B0B0B0B0B0B0B0B0B0B0B0B0B0B0B0B0B0B0B0B0B0B0B0B0B0B0B0B0B0B0B0B0B0B0B0B0B0B0B0B0B0B0B0B0B0B0B0B0B0B0B0B0B0B0B0B0B0B0B0B0B0B0B0B0B0B0B0B0B0B0B0B0B0B0B0B0B0B0B0B0B0B0B0B0B0B0B0B0B0B0B0B0B0B0B0B0B
310
0B0B0B0B0B0B0B0B0B0B0B0B0B0B0B0B0B0B0B0B0B0B0B0B0B0B0B0B0B0B0B0B0B0B0B0B0B0B0B0B0B0B0D0B0B0B0A0A0A0A0B0B0B0B0B0B0B0B0B0B0B0B0B0B0B0B0B0B0B0B0B0B0B0B0B0B0B0A0B0B0B0B0B0B0B0B0B0B0B0B0B0B0B0B0B0B0B0B0B0B0B0B0B0B0B0B0B0B0B0B0B0B0B0B0B0B0B0B0B0B0B0B0B0B0B0B0B
310
0B0B0B0B0B0B0B0B0B0B0B0B0B0B0B0B0B0B0B0B0B0B0B0B0B0B0B0B0B0B0B0B0B0B0B0B0B0B0B0B0B0B0B0B0B0B0B0B0B0B0B0B0B0B0B0B0B0B0B0B0B0B0B0B0B0B0B0B0B0B0B0B0B0B0B0B0B0B0B0B0B0B0B0B0B0B0B0B0B0B0B0B0B0B0B0D0B0B0B0B0B0B0B0B0B0B0B0B0B0B0B0B0B0B0B0B0B0B0B0B0B0B0B0B0B0B0B
310
0B0B0B0A0B0B0B0B0B0B0B0B0B0B0B0B0B0B0B0B0B0B0B0B0B0B0B0B0B0B0B0B0B0B0B0B0B0B0B0B0B0B0B0B0B0B0B0B0B0B0B0B0B0B0B0B0B0B0B0B0B0B0B0B0B0B0B0B0B0B0B0B0B0B0B0B0B0B0B0B0B0B0B0B0B0B0B0B0B0B0B0B0B0B0B0B0B0B0B0B0B0B0B0B0B0B0B0B0B0B0B0B0B0B0B0B0B0B0B0B0B0B0B0B0B0B0B
310
0B0B0B0B0B0B0B0B0B0B0B0B0B0B0B0B0B0B0B0B0B0D0B0B0B0B0B0B0B0B0B0B0B0B0B0B0B0B0B0B0B0B0B0B0B0B0B0B0B0B0B0B0B0B0B0B0A0B0B0B0B0B0B0B0B0B0B0B0B0B0B0B0B0B0B0B0B0B0B0B0B0B0B0B0B0B0B0B0B0B0B0B0B0B0B0B0B0B0B0B0B0B0B0B0B0B0B0B0B0B0B0B0B0B0B0B0B0B0B0B0B0B0B0B0B0B0B
310
0B0B0B0B0B0B0B0B0B0B0B0B0B0B0B0B0B0B0B0B0B0B0B0B0B0B0B0B0B0B0B0B0B0B0B0B0B0B0B0B0B0B0B0B0B0B0B0B0B0B0B0B0B0B0B0B0B0B0B0B0B0B0B0B0B0B0B0B0B0B0B0B0B0B0D0B0B0B0B0B0B0B0B0B0B0B0B0B0B0B0B0B0B0B0B0B0B0B0B0B0B0B0B0B0B0B0B0B0B0A0B0B0B0B0B0B0B0B0B0B0B0B0B0B0B0B0B
310
0B0B0B0B0B0B0B0B0B0B0B0B0B0B0B0B0B0B0B0B0B0B0B0B0B0B0B0B0B0B0B0B0B0B0B0B0B0B0B0B0B0B0B0B0B0B0B0B0B0B0B0B0B0B0B0B0B0B0B0B0B0B0B0B0B0B0B0B0B0B0B0B0B0B0B0B0B0B0B0B0B0B0B0B0B0B0B0B0B0B0B0B0B0B0B0B0B0B0B0B0B0B0B0B0B0B0B0B0B0B0B0B0B0B0B0B0B0B0B0B0B0B0B0B0B0B0B
310
0D0B0B0B0B0B0B0B0B0B0B0B0B0B0B0B0B0B0B0B0B0B0B0B0B0B0B0B0B0B0B0B0B0B0B0A0B0B0B0B0B0B0B0B0B0B0B0B0B0B0B0B0B0B0B0B0B0B0B0B0B0B0B0B0B0B0B0B0B0B0B0B0B0B0B0B0B0B0B0B0B0B0B0B0B0B0B0B0B0B0B0B0B0B0B0B0B0B0B0B0B0B0B0B0B0B0B0B0B0B0B0B0B0B0B0B0B0B0B0B0B0B0B0B0B0B0B
310
0B0B0B0B0B0B0B0B0B0B0B0B0B0B0B0B0B0B0B0B0B0B0B0B0B0B0B0B0B0B0B0B0B0B0B0B0B0B0B0B0B0B0B0B0B0B0B0B0B0B0B0B0B0D0B0B0B0B0B0B0B0B0B0B0B0B0B0B0B0B0B0B0B0B0B0B0B0B0B0B0B0B0B0B0B0B0B0B0A0B0B0B0B0B0B0B0B0B0B0B0B0B0B0B0B0B0B0B0B0B0B0B0B0B0B0B0B0B0B0B0B0B0B0B0B0B0B
310
0B0B0B0B0B0B0B0B0B0B0B0B0B0B0B0B0B0B0B0B0B0B0B0B0B0B0B0B0B0B0B0B0B0B0B0B0B0B0B0B0B0B0B0B0B0B0B0B0B0B0B0B0B0B0B0B0B0B0B0B0B0B0B0B0B0B0B0B0B0B0B0B0B0B0B0B0B0B0B0B0B0B0B0B0B0B0B0B0B0B0B0B0B0B0B0B0B0B0B0B0B0B0B0B0B0B0D0B0B0B0B0B0B0B0B0B0B0B0B0B0B0B0B0B0B0B0B
310
0B0B0B0B0B0B0B0B0B0B0B0B0B0B0A0B0B0B0B0B0B0B0B0B0B0B0B0B0B0B0B0B0B0B0B0B0B0B0B0B0B0B0B0B0B0B0B0B0B0B0B0B0B0B0B0B0B0B0B0B0B0B0B0B0B0B0B0B0B0B0B0B0B0B0B0B0B0B0B0B0B0B0B0B0B0B0B0B0B0B0B0B0B0B0B0B0B0B0B0B0B0B0B0B0B0B0B0B0B0B0B0B0B0B0B0B0B0B0B0B0B0B0B0B0B0B0B
310
0B0B0B0B0B0B0B0B0B0B0B0B0B0B0B0B0B0B0B0B0B0B0B0B0B0B0B0B0B0B0B0B0D0B0B0B0B0B0B0B0B0B0B0B0B0B0B0B0B0B0B0B0B0B0B0B0B0B0B0B0B0B0B0B0B0B0B0B0A0B0B0B0B0B0B0B0B0B0B0B0B0B0B0B0B0B0B0B0B0B0B0B0B0B0B0B0B0B0B0B0B0B0B0B0B0B0B0B0B0B0B0B0B0B0B0B0B0B0B0B0B0B0B0B0B0B0B
310
0B0B0B0B0B0B0B0B0B0B0B0B0B0B0B0B0B0B0B0B0B0B0B0B0B0B0B0B0B0B0B0B0B0B0B0B0B0B0B0B0B0B0B0B0B0B0B0B0B0B0B0B0B0B0B0B0B0B0B0B0B0B0B0B0B0B0B0B0B0B0B0B0B0B0B0B0B0B0B0B0B0B0B0B0B0D0B0B0B0B0B0B0B0B0B0B0B0B0B0B0B0B0B0B0B0B0B0B0B0B0B0B0B0B0B0B0B0B0B0B0B0A0B0B0B0B0B
310
0B0B0B0B0B0B0B0B0B0B0B0B0B0B0B0B0B0B0B0B0B0B0B0B0B0B0B0B0B0B0B0B0B0B0B0B0B0B0B0B0B0B0B0B0B0B0B0B0B0B0B0B0B0B0B0B0B0B0B0B0B0B0B0B0B0B0B0B0B0B0B0B0B0B0B0B0B0B0B0B0B0B0B0B0B0B0B0B0B0B0B0B0B0B0B0B0B0B0B0B0B0B0B0B0B0B0B0B0B0B0B0B0B0B0B0B0B0B0B0B0B0B0B0B0B0B0B
310
0B0B0B0B0B0B0B0B0B0B0B0D0B0B0B0B0B0B0B0B0B0B0B0B0B0B0B0B0B0B0B0B0B0B0B0B0B0B0B0B0B0B0B0B0B0B0B0A0B0B0B0B0B0B0B0B0B0B0B0B0B0B0B0B0B0B0B0B0B0B0B0B0B0B0B0B0B0B0B0B0B0B0B0B0B0B0B0B0B0B0B0B0B0B0B0B0B0B0B0B0B0B0B0B0B0B0B0B0B0B0B0B0B0B0B0B0B0B0B0B0B0B0B0B0B0B0B
310
0B0B0B0B0B0B0B0B0B0B0B0B0B0B0B0B0B0B0B0B0B0B0B0B0B0B0B0B0B0B0B0B0B0B0B0B0B0B0B0B0B0B0B0B0B0B0B0B0B0B0B0B0B0B0B0B0B0B0B0B0B0B0B0B0D0B0B0A0B0B0B0B0B0B0B0B0B0B0B0B0B0B0B0A0A0A0A0A0B0B0B0B0B0B0B0B0B0B0B0B0A0B0B0B0B0B0B0B0B0B0B0B0B0B0B0B0B0B0B0B0B0B0B0B0B0B0B
310
0B0B0B0B0B0B0B0B0B0B0B0B0B0B0B0B0B0B0B0B0B0B0B0B0B0B0B0B0B0B0B0B0B0B0B0B0B0B0B0B0B0B0B0B0B0B0B0B0B0B0B0B0B0B0B0B0B0B0B0B0B0B0B0B0B0B0B0B0B0B0B0B0B0B0B0B0B0B0B0B0B0B0B0B0B0B0B0B0B0B0B0B0B0B0B0B0B0B0B0B0B0B0B0B0B0B0B0B0B0B0B0B0B0B0B0B0B0D0B0B0A0B0B0B0B0B0B
310
0B0B0B0B0A0A0A0A0A0B0B0B0B0A0B0B0B0B0B0B0B0B0B0B0B0B0A0B0B0B0B0B0B0B0B0B0B0B0B0B0B0B0B0B0B0B0B0B0B0B0B0B0B0B0B0B0B0B0B0B0B0B0B0B0B0B0B0B0B0B0B0B0B0B0B0B0B0B0B0B0B0B0B0B0B0B0B0B0B0B0B0B0B0B0B0B0B0B0B0B0B0B0B0B0B0B0B0B0B0B0B0B0B0B0B0B0B0B0B0B0B0B0B0B0B0B0B
310
0B0B0B0B0B0B0B0B0B0B0B0B0B0B0B0B0B0B0B0B0B0B0B0B0B0B0B0B0B0B0B0B0B0B0B0B0B0B0B0B0B0B0B0A0B0B0A0B0B0B0B0B0B0B0B0B0B0A0B0B0B0B0B0B0B0B0A0B0B0B0B0B0B0B0B0B0B0B0B0A0B0B0B0B0B0B0B0B0B0B0B0B0B0B0B0B0B0B0B0B0B0B0B0B0B0B0B0B0B0B0B0B0B0B0B0B0B0B0B0B0B0B0B0B0B0B0B
310
0B0B0B0B0B0B0B0B0B0B0B0B0B0B0B0B0B0B0B0B0B0B0B0B0B0B0B0B0B0B0B0B0B0B0B0B0B0B0B0B0B0B0B0B0B0B0B0B0B0B0B0B0B0B0B0B0B0B0B0B0B0B0B0B0B0B0B0B0B0B0B0B0B0B0B0B0B0B0B0B0B0B0B0B0B0B0B0B0B0B0B0B0B0B0B0B0B0D0B0A0B0B0B0B0B0B0B0B0B0B0A0B0B0B0B0B0B0B0B0A0B0B0B0B0B0B0B
310
0B0B0B0B0B0B0A0B0B0B0B0B0B0B0B0B0B0B0B0B0B0B0B0B0B0B0B0B0B0B0B0B0B0B0B0B0B0B0B0B0B0B0B0B0B0B0B0B0B0B0B0B0B0B0B0B0B0B0B0B0B0B0B0B0B0B0B0B0B0B0B0B0B0B0B0B0B0B0B0B0B0B0B0B0B0B0B0B0B0B0B0B0B0B0B0B0B0B0B0B0B0B0B0B0B0B0B0B0B0B0B0B0B0B0B0B0B0B0B0B0B0B0B0B0B0B0B
310
0B0B0B0B0B0B0B0B0B0B0B0B0B0B0B0B0B0B0B0B0B0B0B0D0B0B0B0B0B0B0B0B0B0B0B0B0A0B0B0B0B0B0B0B0B0A0B0B0B0B0B0B0B0B0B0B0B0B0B0A0B0B0B0B0B0B0B0B0B0B0B0B0B0B0B0B0B0B0B0B0B0B0B0B0B0B0B0B0B0B0B0B0B0B0B0B0B0B0B0B0B0B0B0B0B0B0B0B0B0B0B0B0B0B0B0B0B0B0B0B0B0B0B0B0B0B0B
310
0B0B0B0B0B0B0B0B0B0B0B0B0B0B0B0B0B0B0B0B0B0B0B0B0B0B0B0B0B0B0B0B0B0B0B0B0B0B0B0B0B0B0B0B0B0B0B0B0B0B0B0B0B0B0B0B0B0B0B0B0B0B0B0B0B0B0B0B0B0B0B0B0B0B0B0B0D0B0A0B0B0B0B0B0B0B0B0B0B0B0A0B0B0B0B0B0B0B0A0B0B0B0B0B0B0B0B0B0B0B0B0B0A0B0B0B0B0B0B0B0B0B0B0B0B0B0B
310
0B0B0B0B0B0B0B0B0B0B0B0B0B0B0B0B0B0B0B0B0B0B0B0B0B0B0B0B0B0B0B0B0B0B0B0B0B0B0B0B0B0B0B0B0B0B0B0B0B0B0B0B0B0B0B0B0B0B0B0B0B0B0B0B0B0B0B0B0B0B0B0B0B0B0B0B0B0B0B0B0B0B0B0B0B0B0B0B0B0B0B0B0B0B0B0B0B0B0B0B0B0B0B0B0B0B0B0B0B0B0B0B0B0B0B0B0B0B0B0B0B0B0B0B0B0B0B
310
0B0B0D0B0A0B0B0B0B0B0B0B0B0B0B0B0A0B0B0B0B0B0B0B0B0B0B0B0B0B0B0B0B0B0B0B0B0B0A0B0B0B0B0B0B0B0B0B0B0B0B0B0B0B0B0B0B0B0B0B0B0B0B0B0B0B0B0B0B0B0B0B0B0B0B0B0B0B0B0B0B0B0B0B0B0B0B0B0B0B0B0B0B0B0B0B0B0B0B0B0B0B0B0B0B0B0B0B0B0B0B0B0B0B0B0B0B0B0B0B0B0B0B0B0B0B0B
310
0B0B0B0B0B0B0B0B0B0B0B0B0B0B0B0B0B0B0B0B0B0B0B0B0B0B0B0B0B0B0B0B0B0B0B0B0B0B0B0B0B0B0B0B0B0B0B0B0B0B0B0B0B0B0B0D0B0A0B0B0B0B0B0B0B0B0B0B0B0A0B0B0B0B0B0B0B0B0B0B0B0B0B0B0B0B0B0B0B0B0B0A0B0B0B0B0B0B0B0B0B0B0B0B0B0B0B0B0B0B0B0B0B0B0B0B0B0B0B0B0B0B0B0B0B0B0B
310
0B0B0B0B0B0B0B0B0B0B0B0B0B0B0B0B0B0B0B0B0B0B0B0B0B0B0B0B0B0B0B0B0B0B0B0B0B0B0B0B0B0B0B0B0B0B0B0B0B0B0B0B0B0B0B0B0B0B0B0B0B0B0B0B0B0B0B0B0B0B0B0B0B0B0B0B0B0B0B0B0B0B0B0B0B0B0B0B0B0B0B0B0B0B0B0B0B0B0B0B0B0B0B0B0B0B0B0B0D0B0A0B0B0B0B0B0B0B0B0B0B0B0A0B0B0B0B
310
0B0B0B0B0B0B0B0B0B0B0B0B0B0B0B0B0B0A0B0B0B0B0B0B0B0B0B0B0B0B0B0B0B0B0B0B0B0B0B0B0B0B0B0B0B0B0B0B0B0B0B0B0B0B0B0B0B0B0B0B0B0B0B0B0B0B0B0B0B0B0B0B0B0B0B0B0B0B0B0B0B0B0B0B0B0B0B0B0B0B0B0B0B0B0B0B0B0B0B0B0B0B0B0B0B0B0B0B0B0B0B0B0B0B0B0B0B0B0B0B0B0B0B0B0B0B0B
310
0B0B0B0B0B0B0B0B0B0B0B0B0B0B0B0B0B0B0B0B0B0B0B0B0B0B0B0B0B0B0B0B0B0B0D0B0A0B0B0B0B0B0B0B0B0B0B0B0A0B0B0B0B0B0B0B0B0B0B0B0B0B0B0B0B0B0B0B0B0B0A0B0B0B0B0B0B0B0B0B0B0B0B0B0B0B0B0B0B0B0B0B0B0B0B0B0B0B0B0B0B0B0B0B0B0B0B0B0B0B0B0B0B0B0B0B0B0B0B0B0B0B0B0B0B0B0B
310
0B0B0B0B0B0B0B0B0B0B0B0B0B0B0B0B0B0B0B0B0B0B0B0B0B0B0B0B0B0B0B0B0B0B0B0B0B0B0B0B0B0B0B0B0B0B0B0B0B0B0B0B0B0B0B0B0B0B0B0B0B0B0B0B0B0B0B0B0B0B0B0B0B0B0B0B0B0B0B0B0B0B0B0B0B0B0B0D0B0B0A0A0B0B0B0B0B0B0B0B0B0A0B0B0B0B0B0B0B0B0B0B0B0B0B0B0B0B0B0B0B0B0B0B0A0B0B
310
0B0B0B0B0B0B0B0B0B0B0B0B0B0B0B0B0B0B0B0B0B0B0B0B0B0B0B0B0B0B0B0B0B0B0B0B0B0B0B0B0B0B0B0B0B0B0B0B0B0B0B0B0B0B0B0B0B0B0B0B0B0B0B0B0B0B0B0B0B0B0B0B0B0B0B0B0B0B0B0B0B0B0B0B0B0B0B0B0B0B0B0B0B0B0B0B0B0B0B0B0B0B0B0B0B0B0B0B0B0B0B0B0B0B0B0B0B0B0B0B0B0B0B0B0B0B0B
310
0B0B0B0B0B0B0B0B0B0B0B0B0B0D0B0A0B0B0A0A0A0A0B0B0B0B0B0B0A0B0B0B0B0B0B0B0B0A010B0B0B0B0B0B0B0B0B0B0B0A0B0B0B0B0B0B0B0B0B0B0B0B0B0B0B0B0B0B0B0B0B0B0B0B0B0B0B0B0B0B0B0B0B0B0B0B0B0B0B0B0B0B0B0B0B0B0B0B0B0B0B0B0B0B0B0B0B0B0B0B0B0B0B0B0B0B0B0B0B0B0B0B0B0B0B0B
310
0B0B0B0B0B0B0B0B0B0B0B0B0B0B0B0B0B0B0B0B0B0B0B0B0B0B0B0B0B0B0B0B0B0B0B0B0B0B0B0B0B0B0B0B0B0B0B0B0B0B0B0B0B0B0B0B0B0B0B0B0B0B0B0B0B0B0D0B0A0B0B0B0B0B0B0A0A0A0A0B0B0A0B0B0B0B0B0B0B0B0A010B0B0B0B0B0B0B0B0B0B0B0A0B0B0B0B0B0B0B0B0B0B0B0B0B0B0B0B0B0B0B0B0B0B0B
310
0B0B0B0B0B0B0B0B0B0B0B0B0B0B0B0B0B0B0B0B0B0B0B0B0B0B0B0B0B0B0B0B0B0B0B0B0B0B0B0B0B0B0B0B0B0B0B0B0B0B0B0B0B0B0B0B0B0B0B0B0B0B0B0B0B0B0B0B0B0B0B0B0B0B0B0B0B0B0B0B0B0B0B0B0B0B0B0B0B0B0B0B0B0B0B0B0B0B0B0B0B0B0B0B0B0B0B0B0B0B0B0B0B0B0B0B0B0B0B0D0B0B0B0B0B0B0B
310
0B0B0B0B0B0A0A0A0B0B0B0B0B0B0B0B0B0A0B0B0B0B0B0B0B0B0B0B0B0A0B0B0B0B0B0B0B0B0B0B0B0B0B0B0B0B0B0B0B0B0B0B0B0B0B0B0B0B0B0B0B0B0B0B0B0B0B0B0B0B0B0B0B0B0B0B0B0B0B0B0B0B0B0B0B0B0B0B0B0B0B0B0B0B0B0B0B0B0B0B0B0B0B0B0B0B0B0B0B0B0B0B0B0B0B0B0B0B0B0B0B0B0B0B0B0B0B
310
0B0B0B0B0B0B0B0B0B0B0B0B0B0B0B0B0B0B0B0B0B0B0B0B0B0B0B0B0B0B0B0B0B0B0B0B0B0B0B0B0B0B0B0B0B0D0B0A0B0B0B0B0B0B0B0B0B0B0B0B0B0B0B0B0B0B0B0B0B0B0A010B0B0B0B0B0B0B0B0B0B0A0B0B0B0B0B0B0B0B0B0B0B0B0B0B0B0B0B0B0B0B0B0B0B0B0B0B0B0B0B0B0B0B0B0B0B0B0B0B0B0B0B0B0B0B
310
0B0B0B0B0B0B0B0B0B0B0B0B0B0B0B0B0B0B0B0B0B0B0B0B0B0B0B0B0B0B0B0B0B0B0B0B0B0B0B0B0B0B0B0B0B0B0B0B0B0B0B0B0B0B0B0B0B0B0B0B0B0B0B0B0B0B0B0B0B0B0B0B0B0B0B0B0B0B0B0B0B0B0B0B0B0B0B0B0B0B0B0B0B0B0B0B0B0B0D0B0A0B0B0B0B0B0B0B0B0B0B0B0B0B0B0B0B0B0B0B0B0B0B0A010B0B
310
0B0B0B0B0B0B0B0B0A0B0B0B0B0B0B0B0B0B0B0B0B0B0B0B0B0B0B0B0B0B0B0B0B0B0B0B0B0B0B0B0B0B0B0B0B0B0B0B0B0B0B0B0B0B0B0B0B0B0B0B0B0B0B0B0B0B0B0B0B0B0B0B0B0B0B0B0B0B0B0B0B0B0B0B0B0B0B0B0B0B0B0B0B0B0B0B0B0B0B0B0B0B0B0B0B0B0B0B0B0B0B0B0B0B0B0B0B0B0B0B0B0B0B0B0B0B0B
310
0B0B0B0B0B0B0B0B0B0B0B0B0B0B0B0B0B0B0B0B0B0B0B0B0D0B0A0B0B0B0B0B0B0B0B0B0B0B0B0B0B0B0B0B0B0B0B0B0B0B0A0B0B0B0B0B0B0B0B0B0B0A0B0B0B0B0B0B0B0B0B0B0B0B0B0B0B0B0B0B0B0B0B0B0B0B0B0B0B0B0B0B0B0B0B0B0B0B0B0B0B0B0B0B0B0B0B0B0B0B0B0B0B0B0B0B0B0B0B0B0B0B0B0B0B0B0B
310
0B0B0B0B0B0B0B0B0B0B0B0B0B0B0B0B0B0B0B0B0B0B0B0B0B0B0B0B0B0B0B0B0B0B0B0B0B0B0B0B0B0B0B0B0B0B0B0B0B0B0B0B0B0B0B0B0B0B0B0B0B0B0B0B0B0B0B0B0B0B0B0B0B0B0B0B0B0D0B0A0B0B0B0B0B0B0B0B0B0B0B0B0B0B0B0B0B0B0B0B0B0B0B0A0B0B0B0B0B0B0B0B0B0B0B0A0B0B0B0B0B0B0B0B0B0B0B
310
0B0B0B0B0B0B0B0B0B0B0B0B0B0B0B0B0B0B0B0B0B0B0B0B0B0B0B0B0B0B0B0B0B0B0B0B0B0B0B0B0B0B0B0B0B0B0B0B0B0B0B0B0B0B0B0B0B0B0B0B0B0B0B0B0B0B0B0B0B0B0B0B0B0B0B0B0B0B0B0B0B0B0B0B0B0B0B0B0B0B0B0B0B0B0B0B0B0B0B0B0B0B0B0B0B0B0B0B0B0B0B0B0B0B0B0B0B0B0B0B0B0B0B0B0B0B0B
310
0B0B0B0D0B0A0B0B0B0B0B0B0B0B0B0B0B0B0B0B0B0B0B0B0B0B0B0B0B0A010B0B0B0B0B0B0B0B0B01010B0B0B0B0B0B0B0B0B0B0B0B0B0B0B0B0B0B0B0B0B0B0B0B0B0B0B0B0B0B0B0B0B0B0B0B0B0B0B0B0B0B0B0B0B0B0B0B0B0B0B0B0B0B0B0B0B0B0B0B0B0B0B0B0B0B0B0B0B0B0B0B0B0B0B0B0B0B0B0B0B0B0B0B0B
310
0B0B0B0B0B0B0B0B0B0B0B0B0B0B0B0B0B0B0B0B0B0B0B0B0B0B0B0B0B0B0B0B0B0B0B0B0B0B0B0B0B0B0B0B0B0B0B0B0B0B0B0B0B0B0B0B0D0B0A0B0B0B0B0B0B0B0B0B0B0B0B0B0B0A0B0B0B0B0B0B0B0B0B0A0B0B0B0B0B0B0B0B0101010B0B0B0B0B0B0B0B0B0B0B0B0B0B0B0B0B0B0B0B0B0B0B0B0B0B0B0B0B0B0B0B
310
0B0B0B0B0B0B0B0B0B0B0B0B0B0B0B0B0B0B0B0B0B0B0B0B0B0B0B0B0B0B0B0B0B0B0B0B0B0B0B0B0B0B0B0B0B0B0B0B0B0B0B0B0B0B0B0B0B0B0B0B0B0B0B0B0B0B0B0B0B0B0B0B0B0B0B0B0B0B0B0B0B0B0B0B0B0B0B0B0B0B0B0B0B0B0B0B0B0B0B0B0B0B0B0B0B0B0B0B0B0D0B0A0B0B0A0A0B0B0B0B0B0B0B0B0B0A0B
310
0B0B0B0B0B0B0B0B0B0A0B0B0B0B0B0B0101010C01010B0B0B0B0B0B0B0B0B0B0B0B0B0B0B0B0B0B0B0B0B0B0B0B0B0B0B0B0B0B0B0B0B0B0B0B0B0B0B0B0B0B0B0B0B0B0B0B0B0B0B0B0B0B0B0B0B0B0B0B0B0B0B0B0B0B0B0B0B0B0B0B0B0B0B0B0B0B0B0B0B0B0B0B0B0B0B0B0B0B0B0B0B0B0B0B0B0B0B0B0B0B0B0B0B
310
0B0B0B0B0B0B0B0B0B0B0B0B0B0B0B0B0B0B0B0B0B0B0B0B0B0B0B0B0B0B0B0B0B0B0B0D0B0B0A0B0B0B0A0A0B0B0B0B0B0B0A0B0B0B0B0B0B0B0B0B0B0B0A0B0B0B0B0B0B01010C0C01010B0B0B0B0B0B0B0B0B0B0B0B0B0B0B0B0B0B0B0B0B0B0B0B0B0B0B0B0B0B0B0B0B0B0B0B0B0B0B0B0B0B0B0B0B0B0B0B0B0B0B0B
310
0B0B0B0B0B0B0B0B0B0B0B0B0B0B0B0B0B0B0B0B0B0B0B0B0B0B0B0B0B0B0B0B0B0B0B0B0B0B0B0B0B0B0B0B0B0B0B0B0B0B0B0B0B0B0B0B0B0B0B0B0B0B0B0B0B0B0B0B0B0B0B0B0B0B0B0B0B0B0B0B0B0B0B0B0B0B0B0B0D0B0B0A0B0B0B0B0B0A0A0A0B0B0A0B0B0B0B0B0B0B0B0B0B0B0B010A0B0B0B0B0B01010C0C0C
310
01010B0B0B0B0B0B0B0B0B0B0B0B0B0B0B0B0B0B0B0B0B0B0B0B0B0B0B0B0B0B0B0B0B0B0B0B0B0B0B0B0B0B0B0B0B0B0B0B0B0B0B0B0B0B0B0B0B0B0B0B0B0B0B0B0B0B0B0B0B0B0B0B0B0B0B0B0B0B0B0B0B0B0B0B0B0B0B0B0B0B0B0B0B0B0B0B0B0B0B0B0B0B0B0B0B0B0B0B0B0B0B0B0B0B0B0B0B0B0B0B0B0B0B0B0B
310
0B0B0B0B0B0B0B0B0B0B0B0B0B0B0B0D0B0A0B0B0B0B0B0B0B0B0A0A0B0B0B0B0B0B0B0B0B0B0B0B0B0B0A0B0B0B0B0B01010C0C0C01010B0B0B0B0B0B0B0B0B0B0B0B0B0B0B0B0B0B0B0B0B0B0B0B0B0B0B0B0B0B0B0B0B0B0B0B0B0B0B0B0B0B0B0B0B0B0B0B0B0B0B0B0B0B0B0B0B0B0B0B0B0B0B0B0B0B0B0B0B0B0B0B
310
0B0B0B0B0B0B0B0B0B0B0B0B0B0B0B0B0B0B0B0B0B0B0B0B0B0B0B0B0B0B0B0B0B0B0B0B0B0B0B0B0B0B0B0B0B0B0B0B0B0B0B0B0B0B0B0B0B0B0B0B0B0B0B0B0B0B0B0B0D0B0A0B0B0B0B0B0B0B0B0B0B0A0B0B0B0B0B0B0B0B0B0B0B0B0B0A0B0B0B0B0B01010C0C0C01010B0B0B0B0B0B0B0B0B0B0B0B0B0B0B0B0B0B0B
310
0B0B0B0B0B0B0B0B0B0B0B0B0B0B0B0B0B0B0B0B0B0B0B0B0B0B0B0B0B0B0B0B0B0B0B0B0B0B0B0B0B0B0B0B0B0B0B0B0B0B0B0B0B0B0B0B0B0B0B0B0B0B0B0B0B0B0B0B0B0B0B0B0B0B0B0B0B0B0B0B0B0B0B0B0B0B0B0B0B0B0B0B0B0B0B0B0B0B0B0B0B0B0B0B0B0B0B0B0B0B0B0B0B0B0B0B0B0B0B0B0B0D0B0A08080B
310
0B0B0B0B0B0B0B0B0A0B0B0B0B0B0B0B0B0B0B0B0B0A010B0B0B0B01010C0C0C01010B0B0B0B0B0B0B0B0B0B0B0B0B0B0B0B0B0B0B0B0B0B0B0B0B0B0B0B0B0B0B0B0B0B0B0B0B0B0B0B0B0B0B0B0B0B0B0B0B0B0B0B0B0B0B0B0B0B0B0B0B0B0B0B0B0B0B0B0B0B0B0B0B0B0B0B0B0B0B0B0B0B0B0B0B0B0B0B0B0B0B0B0B
310
0B0B0B0B0B0B0B0B0B0B0B0B0B0B0B0B0B0B0B0B0B0B0B0B0B0B0B0B0B0B0B0B0B0B0B0B0B0B0B0B0B0B0B0B0B0B0B0D0B0A08080B0B0B0B0B0B0B0B0B070A0A0B0B0B0B0B0B0B0B0B0B010A0B0B0B0B0B0101010C01010B0B0B0B0B0B0B0B0B0B0B0B0B0B0B0B0B0B0B0B0B0B0B0B0B0B0B0B0B0B0B0B0B0B0B0B0B0B0B0B
310
0B0B0B0B0B0B0B0B0B0B0B0B0B0B0B0B0B0B0B0B0B0B0B0B0B0B0B0B0B0B0B0B0B0B0B0B0B0B0B0B0B0B0B0B0B0B0B0B0B0B0B0B0B0B0B0B0B0B0B0B0B0B0B0B0B0B0B0B0B0B0B0B0B0B0B0B0B0B0B0B0B0B0B0B0B0B0B0B0B0B0B0B0B0B0B0B0B0B0B0B0B0D0A0B0B0B0B0B0808080808080808080A0B0B0B0B0B0B0B0B0B
310
010A0B0B0B0B0B0B01010101010B0B0B0B0B0B0B0B0B0B0B0B0B0B0B0B0B0B0B0B0B0B0B0B0B0B0B0B0B0B0B0B0B0B0B0B0B0B0B0B0B0B0B0B0B0B0B0B0B0B0B0B0B0B0B0B0B0B0B0B0B0B0B0B0B0B0B0B0B0B0B0B0B0B0B0B0B0B0B0B0B0B0B0B0B0B0B0B0B0B0B0B0B0B0B0B0B0B0B0B0B0B0B0B0B0B0B0B0B0B0B0B0B0B
310
0B0B0B0B0B0B0B0B0B0B0B0B0B0B0B0B0B0B0B0B0B0B0B0B0B0B0B0D0B0A0B0B0B0B0B08080808080808080B0B0B0B0B0B0B0B0B0B0B0A010B0B0B0B0B0B010101010B0B0B0B0B0B0B0B0B0B0B0B0B0B0B0B0B0B0B0B0B0B0B0B0B0B0B0B0B0B0B0B0B0B0B0B0B0B0B0B0B0B0B0B0B0B0B0B0B0B0B0B0B0B0B0B0B0B0B0B0B
310
0B0B0B0B0B0B0B0B0B0B0B0B0B0B0B0B0B0B0B0B0B0B0B0B0B0B0B0B0B0B0B0B0B0B0B0B0B0B0B0B0B0B0B0B0B0B0B0B0B0B0B0B0B0B0B0B0B0B0B0B0B0B0B0B0B0B0B0B0B0B0B0B0B0B0B0B0B0B0B0B0D0B0A0B0B0B0B0B0B0B0B0B0B0B0B0B0B0B0B0B0B0B0B0B0B0B0B0A010B0B0B0B0B0B0B0B0A0B0B0B0B0B0B0B0B0B
310
0B0B0B0B0B0B0B0B0B0B0B0B0B0B0B0B0B0B0B0B0B0B0B0B0B0B0B0B0B0B0B0B0B0B0B0B0B0B0B0B0B0B0B0B0B0B0B0B0B0B0B0B0B0B0B0B0B0B0B0B0B0B0B0B0B0B0B0B0B0B0B0B0B0B0B0B0B0B0B0B0B0B0B0B0B0B0B0B0B0B0B0B0B0B0B0B0B0B0B0B0B0B0B0B0B0B0B0B0B0B0B0B0B0B0B0B0B0B0B0B0B0B0B0B0B0B0B
310
0B0B0B0B0B0B0D0B0A0B0B0B0B0B0B0B0B0B0B070B0B0B0B0B0B0B0B07070B0B0B010A0B0B0B070B0B0B0B0B0A0B0B0B0B0B0B0B0B0B0B0B0B0B0B0B0B0B0B0B0B0B0B0B0B0B0B0B0B0B0B0B0B0B0B0B0B0B0B0B0B0B0B0B0B0B0B0B0B0B0B0B0B0B0B0B0B0B0B0B0B0B0B0B0B0B0B0B0B0B0B0B0B0B0B0B0B0B0B0B0B0B0B
310
0B0B0B0B0B0B0B0B0B0B0B0B0B0B0B0B0B0B0B0B0B0B0B0B0B0B0B0B0B0B0B0B0B0B0B0B0B0B0B0B0B0B0B0B0B0B0B0B0B0B0B0B0B0B0B0B0B0B0B0B0D0A0B0B0B0B0B0B0B0B0B0B070B0B0B0B0B0B0B0B07070B0B0B010A0B0706060B0B0B0B0B0A0B0B0B0B0B0B0B0B0B0B0B0B0B0B0B0B0B0B0B0B0B0B0B0B0B0B0B0B0B
310
0B0B0B0B0B0B0B0B0B0B0B0B0B0B0B0B0B0B0B0B0B0B0B0B0B0B0B0B0B0B0B0B0B0B0B0B0B0B0B0B0B0B0B0B0B0B0B0B0B0B0B0B0B0B0B0B0B0B0B0B0B0B0B0B0B0B0B0B0B0B0B0B0B0B0B0B0B0B0B0B0B0B0B0B0B0B0B0B0B0B0B0B0B0B0B0B0B0B0B0B0B0B0B0B0B0B0B0B0B0B0B0B0B0D0B0B0B0B0B0B0B0B0808080808
310
080B0B0B0B08080808080B0B0B0A01070B07070B0B0B0B0A0B0B0B0B0B0B0B0B0B0B0B0B0B0B0B0B0B0B0B0B0B0B0B0B0B0B0B0B0B0B0B0B0B0B0B0B0B0B0B0B0B0B0B0B0B0B0B0B0B0B0B0B0B0B0B0B0B0B0B0B0B0B0B0B0B0B0B0B0B0B0B0B0B0B0B0B0B0B0B0B0B0B0B0B0B0B0B0B0B0B0B0B0B0B0B0B0B0B0B0B0B0B0B
310
0B0B0B0B0B0B0B0B0B0B0B0B0B0B0B0B0B0B0B0B0B0B0B0B0B0B0B0B0B0B0B0B0B0B0B0B0B0B0B0D0B0A0B0B0B0B0B0B0808080808080B0B0B0B08080808080B0B0B0A0107070B0B0B0B0B0B0A0B0B0B0B0B0B0B0B0B0B0B0B0B0B0B0B0B0B0B0B0B0B0B0B0B0B0B0B0B0B0B0B0B0B0B0B0B0B0B0B0B0B0B0B0B0B0B0B0B0B
310
0B0B0B0B0B0B0B0B0B0B0B0B0B0B0B0B0B0B0B0B0B0B0B0B0B0B0B0B0B0B0B0B0B0B0B0B0B0B0B0B0B0B0B0B0B0B0B0B0B0B0B0B0B0B0B0B0B0B0B0B0B0B0B0B0B0B0B0B0B0B0B0B0B0B0B0B0B0B0B0B0B0B0B0B0B0B0B0B0B0B0B0B0D0B0A0B0B080B0B0B0B0B0B0B0B0B0B0B0B0B0B0B0B0B0B0B0B0B0A010B0B0B0B0B0B
310
0B0B0A0B0B0B0B0B0B0B0B0B0B0B0B0B0B0B0B0B0B0B0B0B0B0B0B0B0B0B0B0B0B0B0B0B0B0B0B0B0B0B0B0B0B0B0B0B0B0B0B0B0B0B0B0B0B0B0B0B0B0B0B0B0B0B0B0B0B0B0B0B0B0B0B0B0B0B0B0B0B0B0B0B0B0B0B0B0B0B0B0B0B0B0B0B0B0B0B0B0B0B0B0B0B0B0B0B0B0B0B0B0B0B0B0B0B0B0B0B0B0B0B0B0B0B0B
310
0B0B0B0B0B0B0B0B0B0B0B0B0B0B0B0B0B0B0B0D0A0B0B08080B0B0B0B0B0B0B0B0B0B0B0B0B0B0B0B0B0B0B0B0B0A0B0B0B0B0B0B0B0B0A0B0B0B0B0B0B0B0B0B0B0B0B0B0B0B0B0B0B0B0B0B0B0B0B0B0B0B0B0B0B0B0B0B0B0B0B0B0B0B0B0B0B0B0B0B0B0B0B0B0B0B0B0B0B0B0B0B0B0B0B0B0B0B0B0B0B0B0B0B0B0B
310
0B0B0B0B0B0B0B0B0B0B0B0B0B0B0B0B0B0B0B0B0B0B0B0B0B0B0B0B0B0B0B0B0B0B0B0B0B0B0B0B0B0B0B0B0B0B0B0B0B0B0B0B0B0B0B0B0B0B0B0B0B0B0B0B0B0B0B0B0B0B0B0B0D0A0B0B0B0B0B0B08080B0B0B0B0B0B0B0B0B0B0B0B0B0B0B0B0B0A010B0B0B0B0B0B0B0A0B0B0B0B0B0B0B0B0B0B0B0B0B0B0B0B0B0B
310
0B0B0B0B0B0B0B0B0B0B0B0B0B0B0B0B0B0B0B0B0B0B0B0B0B0B0B0B0B0B0B0B0B0B0B0B0B0B0B0B0B0B0B0B0B0B0B0B0B0B0B0B0B0B0B0B0B0B0B0B0B0B0B0B0B0B0B0B0B0B0B0B0B0B0B0B0B0B0B0B0B0B0B0B0B0B0B0B0B0B0B0B0B0B0B0B0B0B0B0B0B0B0B0B0B0B0B0B0B0B0B0B0B0B0B0B0B0B0B0B0B0B0B0B0B0D0A
310
0A0B0B0B0B0A0B080B0B0B0B0B0B0B0B0B0B0B0B0B0B0B0B0B0A010B0B07070B0B0B0B0A0B0B0B0B0B0B0B0B0B0B0B0B0B0B0B0B0B0B0B0B0B0B0B0B0B0B0B0B0B0B0B0B0B0B0B0B0B0B0B0B0B0B0B0B0B0B0B0B0B0B0B0B0B0B0B0B0B0B0B0B0B0B0B0B0B0B0B0B0B0B0B0B0B0B0B0B0B0B0B0B0B0B0B0B0B0B0B0B0B0B0B
310
0B0B0B0B0B0B0B0B0B0B0B0B0B0B0B0B0B0B0B0B0B0B0B0B0B0B0B0B0B0B0B0B0B0B0B0B0B0B0B0B0B0B0B0B0B0B0B0B0B0B0B0D0B0A0B0B0A0A0A0B0B0B0B0B0B0B080B0B0B0B0B0B0B080A080B0A010B0B070607070B0B0A0B0B0B0B0B0B0B0B0B0B0B0B0B0B0B0B0B0B0B0B0B0B0B0B0B0B0B0B0B0B0B0B0B0B0B0B0B0B
310
0B0B0B0B0B0B0B0B0B0B0B0B0B0B0B0B0B0B0B0B0B0B0B0B0B0B0B0B0B0B0B0B0B0B0B0B0B0B0B0B0B0B0B0B0B0B0B0B0B0B0B0B0B0B0B0B0B0B0B0B0B0B0B0B0B0B0B0B0B0B0B0B0B0B0B0B0B0B0B0B0B0B0B0B0B0B0B0B0B0B0B0B0B0B0B0B0B0B0B0B0B0B0B0B0D0B0A0A0A0B0B0B050B0B0B0B0B0A0B080B0B07060607
310
080A07070A01010B0B07070706060A0B0B0B0B0B0B0B0B0B0B0B0B0B0B0B0B0B0B0B0B0B0B0B0B0B0B0B0B0B0B0B0B0B0B0B0B0B0B0B0B0B0B0B0B0B0B0B0B0B0B0B0B0B0B0B0B0B0B0B0B0B0B0B0B0B0B0B0B0B0B0B0B0B0B0B0B0B0B0B0B0B0B0B0B0B0B0B0B0B0B0B0B0B0B0B0B0B0B0B0B0B0B0B0B0B0B0B0B0B0B0B0B
310
0B0B0B0B0B0B0B0B0B0B0B0B0B0B0B0B0B0B0B0B0B0B0B0B0B0B0B0B0B0D0B0B0A0B0B0B0505050B0B0B0B0A0B0B0B0B0B070B0B07070606070B0A010B0B0B070707070A0B0B0B0B0B0B0B0B0B0B0B0B0B0B0B0B0B0B0B0B0B0B0B0B0B0B0B0B0B0B0B0B0B0B0B0B0B0B0B0B0B0B0B0B0B0B0B0B0B0B0B0B0B0B0B0B0B0B0B
310
0B0B0B0B0B0B0B0B0B0B0B0B0B0B0B0B0B0B0B0B0B0B0B0B0B0B0B0B0B0B0B0B0B0B0B0B0B0B0B0B0B0B0B0B0B0B0B0B0B0B0B0B0B0B0B0B0B0B0B0B0B0B0B0B0B0B0B0B0B0B0B0B0B0B0B0B0B0B0B0B0B0B0D0B0B0A0808080808080805070B0A0B0B0B0B0B08070707070B0B070B0A0B010B0B0B0B0B0B0A0B0B0B0B0B0B
310
0B0B0B0B0B0B0B0B0B0B0B0B0B0B0B0B0B0B0B0B0B0B0B0B0B0B0B0B0B0B0B0B0B0B0B0B0B0B0B0B0B0B0B0B0B0B0B0B0B0B0B0B0B0B0B0B0B0B0B0B0B0B0B0B0B0B0B0B0B0B0B0B0B0B0B0B0B0B0B0B0B0B0B0B0B0B0B0B0B0B0B0B0B0B0B0B0B0B0B0B0B0B0B0B0B0B0B0B0B0B0B0B0B0B0B0B0B0B0B0B0B0B0B0B0B0B0B
310
0B0B0B0B0B0B0B0B0D0B0B0A0808080808080805060B0B0606060A08080B0B0B0B07070B070A0101070606070B0B0A0B0B0B0B0B0B0B0B0B0B0B0B0B0B0B0B0B0B0B0B0B0B0B0B0B0B0B0B0B0B0B0B0B0B0B0B0B0B0B0B0B0B0B0B0B0B0B0B0B0B0B0B0B0B0B0B0B0B0B0B0B0B0B0B0B0B0B0B0B0B0B0B0B0B0B0B0B0B0B0B
310
0B0B0B0B0B0B0B0B0B0B0B0B0B0B0B0B0B0B0B0B0B0B0B0B0B0B0B0B0B0B0B0B0B0B0B0B0B0B0B0B0B0B0B0B0B0B0B0B0B0B0B0B0B0B0B0B0B0B0B0B0B0D0B0B0A0808080808080805070B0B070B070A0B0B0B0B0B0B0B0606060B0A01070707070B0B0B0A0B0B0B0B0B0B0B0B0B0B0B0B0B0B0B0B0B0B0B0B0B0B0B0B0B0B
310
0B0B0B0B0B0B0B0B0B0B0B0B0B0B0B0B0B0B0B0B0B0B0B0B0B0B0B0B0B0B0B0B0B0B0B0B0B0B0B0B0B0B0B0B0B0B0B0B0B0B0B0B0B0B0B0B0B0B0B0B0B0B0B0B0B0B0B0B0B0B0B0B0B0B0B0B0B0B0B0B0B0B0B0B0B0B0B0B0B0B0B0B0B0B0B0B0B0B0B0B0B0B0B0B0B0B0B0B0B0B0B0B0B0B0D0B0B0A0B0808080808080A0B
310
0B0B0707070A0B0B0B0B0B0B0B0707070B0A010B0B0B0B0B0B0B0A0B0B0B0B0B0B0B0B0B0B0B0B0B0B0B0B0B0B0B0B0B0B0B0B0B0B0B0B0B0B0B0B0B0B0B0B0B0B0B0B0B0B0B0B0B0B0B0B0B0B0B0B0B0B0B0B0B0B0B0B0B0B0B0B0B0B0B0B0B0B0B0B0B0B0B0B0B0B0B0B0B0B0B0B0B0B0B0B0B0B0B0B0B0B0B0B0B0B0B0B
310
0B0B0B0B0B0B0B0B0B0B0B0B0B0B0B0B0B0B0B0B0B0B0B0B0B0B0B0B0B0B0B0B0B0B0B0B0B0B0B0D0B0B0B0A0B0B030808050B0A0B0B0B0B0B0B0B0B0B0B0B0B0B0B0B0B0B0B0A010B0B0B0B0B0B070A0B0B0B0B0B0B0B0B0B0B0B0B0B0B0B0B0B0B0B0B0B0B0B0B0B0B0B0B0B0B0B0B0B0B0B0B0B0B0B0B0B0B0B0B0B0B0B
310
0B0B0B0B0B0B0B0B0B0B0B0B0B0B0B0B0B0B0B0B0B0B0B0B0B0B0B0B0B0B0B0B0B0B0B0B0B0B0B0B0B0B0B0B0B0B0B0B0B0B0B0B0B0B0B0B0B0B0B0B0B0B0B0B0B0B0B0B0B0B0B0B0B0B0B0B0B0B0B0B0B0B0B0B0B0B0B0B0B0B0B0B0D0B0B0B08080B0B0B0B0B0B0B0A0B0B0B0B0B0B0B0B0B0B0B0B0706060B0B0A010B0B
310
0B0B0706070A0B0B0B0B0B0B0B0B0B0B0B0B0B0B0B0B0B0B0B0B0B0B0B0B0B0B0B0B0B0B0B0B0B0B0B0B0B0B0B0B0B0B0B0B0B0B0B0B0B0B0B0B0B0B0B0B0B0B0B0B0B0B0B0B0B0B0B0B0B0B0B0B0B0B0B0B0B0B0B0B0B0B0B0B0B0B0B0B0B0B0B0B0B0B0B0B0B0B0B0B0B0B0B0B0B0B0B0B0B0B0B0B0B0B0B0B0B0B0B0B0B
310
0B0B0B0B0B0B0B0B0B0B0B0B0B0B0B0B0B0B0D0B0B0B0A0B0B0B0B0B0B0B0A0A0A0B0B0B0B0B0B0B0B0B0B0B0707070B0B0A010B0B0B0B070B0B070B0B0B0B0B0B0B0B0B0B0B0B0B0B0B0B0B0B0B0B0B0B0B0B0B0B0B0B0B0B0B0B0B0B0B0B0B0B0B0B0B0B0B0B0B0B0B0B0B0B0B0B0B0B0B0B0B0B0B0B0B0B0B0B0B0B0B0B
310
0B0B0B0B0B0B0B0B0B0B0B0B0B0B0B0B0B0B0B0B0B0B0B0B0B0B0B0B0B0B0B0B0B0B0B0B0B0B0B0B0B0B0B0B0B0B0B0B0B0B0B0B0B0B0B0B0B0B0B0B0B0B0B0B0B0B0B0B0B0B0B0D0B0B0B0A0B0A0A0A0A0A0A0A0A0A0B0B0B0B0B0B0B0B070B0B0B0B0B0B0A01010B0B0706070B07070B0B0B0B0B0B0B0B0B0B0B0B0B0B0B
310
0B0B0B0B0B0B0B0B0B0B0B0B0B0B0B0B0B0B0B0B0B0B0B0B0B0B0B0B0B0B0B0B0B0B0B0B0B0B0B0B0B0B0B0B0B0B0B0B0B0B0B0B0B0B0B0B0B0B0B0B0B0B0B0B0B0B0B0B0B0B0B0B0B0B0B0B0B0B0B0B0B0B0B0B0B0B0B0B0B0B0B0B0B0B0B0B0B0B0B0B0B0B0B0B0B0B0B0B0B0B0B0B0B0B0B0B0B0B0B0B0B0B0B0B0D0B0B
310
0B0606060B0A0B0B0B0B0B0B0B0B0B0B0B0B0606060B0B0B0B0B0B0A010B0B0B070B07070B0A0B0B0B0B0B0B0B0B0B0B0B0B0B0B0B0B0B0B0B0B0B0B0B0B0B0B0B0B0B0B0B0B0B0B0B0B0B0B0B0B0B0B0B0B0B0B0B0B0B0B0B0B0B0B0B0B0B0B0B0B0B0B0B0B0B0B0B0B0B0B0B0B0B0B0B0B0B0B0B0B0B0B0B0B0B0B0B0B0B
310
0B0B0B0B0B0B0B0B0B0B0B0B0B0B0B0B0B0B0B0B0B0B0B0B0B0B0B0B0B0B0B0B0B0B0B0B0B0B0B0B0B0B0B0B0B0B0B0B0B0B0D0B0B0B0A0707070A0B0B0B0B0B0B0B0B0A0B0B0B0707070B07070B0B0B0A010B0B0B0707070B0B0B0A0B0B0B0B0B0B0B0B0B0B0B0B0B0B0B0B0B0B0B0B0B0B0B0B0B0B0B0B0B0B0B0B0B0B0B
310
0B0B0B0B0B0B0B0B0B0B0B0B0B0B0B0B0B0B0B0B0B0B0B0B0B0B0B0B0B0B0B0B0B0B0B0B0B0B0B0B0B0B0B0B0B0B0B0B0B0B0B0B0B0B0B0B0B0B0B0B0B0B0B0B0B0B0B0B0B0B0B0B0B0B0B0B0B0B0B0B0B0B0B0B0B0B0B0B0B0B0B0B0B0B0B0B0B0B0B0B0B0B0B0D0B0B0B0A0B0B0B0A0B0B0B0B0B0B0B0B0A0B0B0B0B0A0B
310
0B0606060B0B0A010B0B0B0B0B0B0B0B0B0A0B0B0B0B0B0B0B0B0B0B0B0B0B0B0B0B0B0B0B0B0B0B0B0B0B0B0B0B0B0B0B0B0B0B0B0B0B0B0B0B0B0B0B0B0B0B0B0B0B0B0B0B0B0B0B0B0B0B0B0B0B0B0B0B0B0B0B0B0B0B0B0B0B0B0B0B0B0B0B0B0B0B0B0B0B0B0B0B0B0B0B0B0B0B0B0B0B0B0B0B0B0B0B0B0B0B0B0B0B
310
0B0B0B0B0B0B0B0B0B0B0B0B0B0B0B0B0B0B0B0B0B0B0B0B0B0B0B0B0B0D0B0B0B0A0808080A0B0B0B0B0B0B0B0B070A0B0B0B0B0A0B0B07070B0B0A0A0B0B0B0B0B0B0B0B07070B0B0B0B0B0B0B0B0B0B0B0B0B0B0B0B0B0B0B0B0B0B0B0B0B0B0B0B0B0B0B0B0B0B0B0B0B0B0B0B0B0B0B0B0B0B0B0B0B0B0B0B0B0B0B0B
310
0B0B0B0B0B0B0B0B0B0B0B0B0B0B0B0B0B0B0B0B0B0B0B0B0B0B0B0B0B0B0B0B0B0B0B0B0B0B0B0B0B0B0B0B0B0B0B0B0B0B0B0B0B0B0B0B0B0B0B0B0B0B0B0B0B0B0B0B0B0B0B0B0B0B0B0B0B0B0B0B0B0B0D0B0B0B0A0B080B0A0A0A0B0B0B0B0606060A0B0B0B0B0B0A0A070B0B0B0A0A0B0B0B0B0B0B070606070B0B0B
310
0B0B0B0B0B0B0B0B0B0B0B0B0B0B0B0B0B0B0B0B0B0B0B0B0B0B0B0B0B0B0B0B0B0B0B0B0B0B0B0B0B0B0B0B0B0B0B0B0B0B0B0B0B0B0B0B0B0B0B0B0B0B0B0B0B0B0B0B0B0B0B0B0B0B0B0B0B0B0B0B0B0B0B0B0B0B0B0B0B0B0B0B0B0B0B0B0B0B0B0B0B0B0B0B0B0B0B0B0B0B0B0B0B0B0B0B0B0B0B0B0B0B0B0B0B0B0B
310
0B0B0B0B0B0B0B0B0B0D0B0B0A070707070A0B0A0A0B0B07070B0B0A0B0B0B0B0B0B0A0B0B0B0A0A0B0B0B0B0B0B070B07070B0B0B0B0B0B0B0B0B0B0B0B0B0B0B0B0B0B0B0B0B0B0B0B0B0B0B0B0B0B0B0B0B0B0B0B0B0B0B0B0B0B0B0B0B0B0B0B0B0B0B0B0B0B0B0B0B0B0B0B0B0B0B0B0B0B0B0B0B0B0B0B0B0B0B0B0B
310
0B0B0B0B0B0B0B0B0B0B0B0B0B0B0B0B0B0B0B0B0B0B0B0B0B0B0B0B0B0B0B0B0B0B0B0B0B0B0B0B0B0B0B0B0B0B0B0B0B0B0B0B0B0B0B0B0B0B0B0B0B0B0D0B0B0A070606070A0B0B0B0A0A0B0B0B0B0A0B0B0B0B0B0B0B0A0B0B0A0A0B0B0B0B0B0B07070B0A0B0B0B0B0B0B0B0B0B0B0B0B0B0B0B0B0B0B0B0B0B0B0B0B
310
0B0B0B0B0B0B0B0B0B0B0B0B0B0B0B0B0B0B0B0B0B0B0B0B0B0B0B0B0B0B0B0B0B0B0B0B0B0B0B0B0B0B0B0B0B0B0B0B0B0B0B0B0B0B0B0B0B0B0B0B0B0B0B0B0B0B0B0B0B0B0B0B0B0B0B0B0B0B0B0B0B0B0B0B0B0B0B0B0B0B0B0B0B0B0B0B0B0B0B0B0B0B0B0B0B0B0B0B0B0B0B0B0B0B0B0D0B0B0A0707070A0A0B0B0B
310
0B0B0B0B0B0B0A0A0B0B0B0B0B0B0B0A070A010A0B0B0B07070B070B0A0B0B0B0B0B0B0B0B0B0B0B0B0B0B0B0B0B0B0B0B0B0B0B0B0B0B0B0B0B0B0B0B0B0B0B0B0B0B0B0B0B0B0B0B0B0B0B0B0B0B0B0B0B0B0B0B0B0B0B0B0B0B0B0B0B0B0B0B0B0B0B0B0B0B0B0B0B0B0B0B0B0B0B0B0B0B0B0B0B0B0B0B0B0B0B0B0B0B
310
0B0B0B0B0B0B0B0B0B0B0B0B0B0B0B0B0B0B0B0B0B0B0B0B0B0B0B0B0B0B0B0B0B0B0B0B0B0B0B0B0B0D0B0A0B0B0B0B0A0A0B0B0B0B0B0B0B0A0A0B0A0B0B0B0B0B0B0B070606010A0B0B0B070606070B0B0A0B0B0B0B0B0B0B0B0B0B0B0B0B0B0B0B0B0B0B0B0B0B0B0B0B0B0B0B0B0B0B0B0B0B0B0B0B0B0B0B0B0B0B0B
310
0B0B0B0B0B0B0B0B0B0B0B0B0B0B0B0B0B0B0B0B0B0B0B0B0B0B0B0B0B0B0B0B0B0B0B0B0B0B0B0B0B0B0B0B0B0B0B0B0B0B0B0B0B0B0B0B0B0B0B0B0B0B0B0B0B0B0B0B0B0B0B0B0B0B0B0B0B0B0B0B0B0B0B0B0B0B0B0B0B0B0B0B0B0B0D0B0A0B0B0B0B0A0A0A0B0B0B0A0A0A0B0B0B0A0B0B0B0B0B0B0B0A0B0A010A0B
310
06060B07070B0B0B0A0B0B0B0B0B0B0B0B0B0B0B0B0B0B0B0B0B0B0B0B0B0B0B0B0B0B0B0B0B0B0B0B0B0B0B0B0B0B0B0B0B0B0B0B0B0B0B0B0B0B0B0B0B0B0B0B0B0B0B0B0B0B0B0B0B0B0B0B0B0B0B0B0B0B0B0B0B0B0B0B0B0B0B0B0B0B0B0B0B0B0B0B0B0B0B0B0B0B0B0B0B0B0B0B0B0B0B0B0B0B0B0B0B0B0B0B0B0B
310
0B0B0B0B0B0B0B0B0B0B0B0B0B0B0B0B0B0B0B0B0D0B0A0B0B0B0B0A0A0B0A0A0A0B0B0B0B0B0B0B0A0B0B0B0B0B0A07070A0A0A0B07070B0B0B0B0B0B0A0B0B0B0B0B0B0B0B0B0B0B0B0B0B0B0B0B0B0B0B0B0B0B0B0B0B0B0B0B0B0B0B0B0B0B0B0B0B0B0B0B0B0B0B0B0B0B0B0B0B0B0B0B0B0B0B0B0B0B0B0B0B0B0B0B
310
0B0B0B0B0B0B0B0B0B0B0B0B0B0B0B0B0B0B0B0B0B0B0B0B0B0B0B0B0B0B0B0B0B0B0B0B0B0B0B0B0B0B0B0B0B0B0B0B0B0B0B0B0B0B0B0B0B0B0B0B0B0B0B0B0B0B0B0B0B0B0B0B0B0D0B0A0B0B0A0A0A0B0A0A0A0B0B0B0B0B0B0B0B0A0B0B0B0B0A0B0B0B0B0A0A0B0B0B0B0B0A0A0606070B0B0B0B0B0B0B0B0B0B0B0B
310
0B0B0B0B0B0B0B0B0B0B0B0B0B0B0B0B0B0B0B0B0B0B0B0B0B0B0B0B0B0B0B0B0B0B0B0B0B0B0B0B0B0B0B0B0B0B0B0B0B0B0B0B0B0B0B0B0B0B0B0B0B0B0B0B0B0B0B0B0B0B0B0B0B0B0B0B0B0B0B0B0B0B0B0B0B0B0B0B0B0B0B0B0B0B0B0B0B0B0B0B0B0B0B0B0B0B0B0B0B0B0B0B0B0B0B0B0B0B0B0B0B0B0B0B0B0B0D
310
0B0A0B0B0B0B0B0B0B07070A0B0B0B0B0B0B0B0B0A0B0B0A0B0B0B0B0B0A0A0B0B0B0B0B0A070B07070B0B0B0B0B0B0B0B0B0B0B0B0B0B0B0B0B0B0B0B0B0B0B0B0B0B0B0B0B0B0B0B0B0B0B0B0B0B0B0B0B0B0B0B0B0B0B0B0B0B0B0B0B0B0B0B0B0B0B0B0B0B0B0B0B0B0B0B0B0B0B0B0B0B0B0B0B0B0B0B0B0B0B0B0B0B
310
0B0B0B0B0B0B0B0B0B0B0B0B0B0B0B0B0B0B0B0B0B0B0B0B0B0B0B0B0B0B0B0B0B0B0B0B0B0B0B0B0B0B0B0B0B0B0B0B0B0B0B0D0B0B0A0B0B0B0B0B0B0706060A0B0B0B0B0B0B0B0B0B0A0A0B0B0B0706060A010A0B0B0B0B0A070606070B0B0B0B0B0B0B0B0B0B0B0B0B0B0B0B0B0B0B0B0B0B0B0B0B0B0B0B0B0B0B0B0B
310
0B0B0B0B0B0B0B0B0B0B0B0B0B0B0B0B0B0B0B0B0B0B0B0B0B0B0B0B0B0B0B0B0B0B0B0B0B0B0B0B0B0B0B0B0B0B0B0B0B0B0B0B0B0B0B0B0B0B0B0B0B0B0B0B0B0B0B0B0B0B0B0B0B0B0B0B0B0B0B0B0B0B0B0B0B0B0B0B0B0B0B0B0B0B0B0B0B0B0B0B0B0B0B0B0D0B0B0A0B0B0B0B0B0B0707070B0A0B0B0B0B0B0B0B0B
310
0B0B0B0B0B070B070A010A0B0B0B0B0A0B0707070B0B0B0B0B0B0B0B0B0B0B0B0B0B0B0B0B0B0B0B0B0B0B0B0B0B0B0B0B0B0B0B0B0B0B0B0B0B0B0B0B0B0B0B0B0B0B0B0B0B0B0B0B0B0B0B0B0B0B0B0B0B0B0B0B0B0B0B0B0B0B0B0B0B0B0B0B0B0B0B0B0B0B0B0B0B0B0B0B0B0B0B0B0B0B0B0B0B0B0B0B0B0B0B0B0B0B
310
0B0B0B0B0B0B0B0B0B0B0B0B0B0B0B0B0B0B0B0B0B0B0B0B0B0B0B0B0B0B0D0B0A0B0B0B0B0B0B0A0B0B0B0B0A0B0B0B0B0B0B0B0B0B0B0B0B0B07070B0A010A0B0B0B0B070B0B0B0B0A0B0B0B0B0B0B0B0B0B0B0B0B0B0B0B0B0B0B0B0B0B0B0B0B0B0B0B0B0B0B0B0B0B0B0B0B0B0B0B0B0B0B0B0B0B0B0B0B0B0B0B0B0B
310
0B0B0B0B0B0B0B0B0B0B0B0B0B0B0B0B0B0B0B0B0B0B0B0B0B0B0B0B0B0B0B0B0B0B0B0B0B0B0B0B0B0B0B0B0B0B0B0B0B0B0B0B0B0B0B0B0B0B0B0B0B0B0B0B0B0B0B0B0B0B0B0B0B0B0B0B0B0B0B0B0B0B0B0D0B0A0B0B0B0B0B0B0A0B0B0B0B0B0A0A0B0B0B0B070707070B0B0B0B0B0B0A010B0B0B0B06060B0B0B0B0A
310
0B0B0B0B0B0B0B0B0B0B0B0B0B0B0B0B0B0B0B0B0B0B0B0B0B0B0B0B0B0B0B0B0B0B0B0B0B0B0B0B0B0B0B0B0B0B0B0B0B0B0B0B0B0B0B0B0B0B0B0B0B0B0B0B0B0B0B0B0B0B0B0B0B0B0B0B0B0B0B0B0B0B0B0B0B0B0B0B0B0B0B0B0B0B0B0B0B0B0B0B0B0B0B0B0B0B0B0B0B0B0B0B0B0B0B0B0B0B0B0B0B0B0B0B0B0B0B
310
0B0B0B0B0B0B0B0B0B0D0B0A0B0B0B0B0B0A0B0B0B06060A0B0A0B0B0B0B070606070B0B0B0B0B0B0B010B0B0B0B07070B0B0B070A0B0B0B0B0B0B0B0B0B0B0B0B0B0B0B0B0B0B0B0B0B0B0B0B0B0B0B0B0B0B0B0B0B0B0B0B0B0B0B0B0B0B0B0B0B0B0B0B0B0B0B0B0B0B0B0B0B0B0B0B0B0B0B0B0B0B0B0B0B0B0B0B0B0B
310
0B0B0B0B0B0B0B0B0B0B0B0B0B0B0B0B0B0B0B0B0B0B0B0B0B0B0B0B0B0B0B0B0B0B0B0B0B0B0B0B0B0B0B0B0B0B0B0B0B0B0B0B0B0B0B0B0B0B0B0B0B0B0D0B0A0B0B0B0B0B0A0B0B070B070B0A0A0B0B0B0B070B0B070B0B0B0B0B0B0B010B0B0B0B07070B0706060A0B0B0B0B0B0B0B0B0B0B0B0B0B0B0B0B0B0B0B0B0B
310
0B0B0B0B0B0B0B0B0B0B0B0B0B0B0B0B0B0B0B0B0B0B0B0B0B0B0B0B0B0B0B0B0B0B0B0B0B0B0B0B0B0B0B0B0B0B0B0B0B0B0B0B0B0B0B0B0B0B0B0B0B0B0B0B0B0B0B0B0B0B0B0B0B0B0B0B0B0B0B0B0B0B0B0B0B0B0B0B0B0B0B0B0B0B0B0B0B0B0B0B0B0B0B0B0B0B0B0B0B0B0B0B0B0B0B0D0B0A0B0B0B0B0B0A0B0B0B
310
07070B0B0B0B0B0B0B070707070B0B0B0B0B0B05050B0B0B0B0B0B0B070B0B070B0B0B0B0B0B0B0B0B0B0B0B0B0B0B0B0B0B0B0B0B0B0B0B0B0B0B0B0B0B0B0B0B0B0B0B0B0B0B0B0B0B0B0B0B0B0B0B0B0B0B0B0B0B0B0B0B0B0B0B0B0B0B0B0B0B0B0B0B0B0B0B0B0B0B0B0B0B0B0B0B0B0B0B0B0B0B0B0B0B0B0B0B0B0B
310
0B0B0B0B0B0B0B0B0B0B0B0B0B0B0B0B0B0B0B0B0B0B0B0B0B0B0B0B0B0B0B0B0B0B0B0B0B0B0B0B0B0D0B0A0B0B0B0B0A0B0B0B0B0B0B0B0B0B0B0B0B0B0B0B0B0B0B00080808080808050B0B0B0B0B0B0B0707070B0B0B0B0B0B0B0B0B0B0B0B0B0B0B0B0B0B0B0B0B0B0B0B0B0B0B0B0B0B0B0B0B0B0B0B0B0B0B0B0B0B
310
0B0B0B0B0B0B0B0B0B0B0B0B0B0B0B0B0B0B0B0B0B0B0B0B0B0B0B0B0B0B0B0B0B0B0B0B0B0B0B0B0B0B0B0B0B0B0B0B0B0B0B0B0B0B0B0B0B0B0B0B0B0B0B0B0B0B0B0B0B0B0B0B0B0B0B0B0B0B0B0B0B0B0B0B0B0B0B0B0B0B0B0B0B0D0B0A0B0B0B0B0B0A0A0A0B0B0B0B0B0B0B0B0B0B0B0B0B0B0B0B00080800000000
310
050B0B0B0B0B0B0B0B0B0A0B0B0B0B0B0B0B0B0B0B0B0B0B0B0B0B0B0B0B0B0B0B0B0B0B0B0B0B0B0B0B0B0B0B0B0B0B0B0B0B0B0B0B0B0B0B0B0B0B0B0B0B0B0B0B0B0B0B0B0B0B0B0B0B0B0B0B0B0B0B0B0B0B0B0B0B0B0B0B0B0B0B0B0B0B0B0B0B0B0B0B0B0B0B0B0B0B0B0B0B0B0B0B0B0B0B0B0B0B0B0B0B0B0B0B0B
310
0B0B0B0B0B0B0B0B0B0B0B0B0B0B0B0B0B0B0B0D0B0A0B0B0B0B0B0B0B0B0B0B0B0B0B0B0B0B0B0B0B0B0B0B0B0B0A000000000008050B0B0B0B0B0B0B0B0B0B0A0B0B0B0B0B0B0B0B0B0B0B0B0B0B0B0B0B0B0B0B0B0B0B0B0B0B0B0B0B0B0B0B0B0B0B0B0B0B0B0B0B0B0B0B0B0B0B0B0B0B0B0B0B0B0B0B0B0B0B0B0B0B
310
0B0B0B0B0B0B0B0B0B0B0B0B0B0B0B0B0B0B0B0B0B0B0B0B0B0B0B0B0B0B0B0B0B0B0B0B0B0B0B0B0B0B0B0B0B0B0B0B0B0B0B0B0B0B0B0B0B0B0B0B0B0B0B0B0B0B0B0B0B0B0B0B0D0B0A0B0B0B0B0B0B0B0B0B0A0A07070B0707070B0707070A07070A000B08080808010B0B0B0B0B0B0B0B0B05050B0B0B0B0B0B0B0B0B
310
0B0B0B0B0B0B0B0B0B0B0B0B0B0B0B0B0B0B0B0B0B0B0B0B0B0B0B0B0B0B0B0B0B0B0B0B0B0B0B0B0B0B0B0B0B0B0B0B0B0B0B0B0B0B0B0B0B0B0B0B0B0B0B0B0B0B0B0B0B0B0B0B0B0B0B0B0B0B0B0B0B0B0B0B0B0B0B0B0B0B0B0B0B0B0B0B0B0B0B0B0B0B0B0B0B0B0B0B0B0B0B0B0B0B0B0B0B0B0B0B0B0B0B0B0B0D0B
310
0A0B0B0B0B0B0B0B0B0B0A0B08080B08080B0B08080B0A08080B0B0B05050505010B0B0B0B0B0B0B050505050B0B0B0B0B0B0B0B0B0B0B0B0B0B0B0B0B0B0B0B0B0B0B0B0B0B0B0B0B0B0B0B0B0B0B0B0B0B0B0B0B0B0B0B0B0B0B0B0B0B0B0B0B0B0B0B0B0B0B0B0B0B0B0B0B0B0B0B0B0B0B0B0B0B0B0B0B0B0B0B0B0B0B
310
0B0B0B0B0B0B0B0B0B0B0B0B0B0B0B0B0B0B0B0B0B0B0B0B0B0B0B0B0B0B0B0B0B0B0B0B0B0B0B0B0B0B0B0B0B0B0B0B0B0B0B0D0B0B0B0B0B0B0B0B0B0B0B0A0B0B0B0B0B0B0B0B0B0B0B0A0B0B0B0B0B0B070B01010B0B0B0B0008080808080807050B0B0B0B0B0B0B0B0B0B0B0B0B0B0B0B0B0B0B0B0B0B0B0B0B0B0B0B
310
0B0B0B0B0B0B0B0B0B0B0B0B0B0B0B0B0B0B0B0B0B0B0B0B0B0B0B0B0B0B0B0B0B0B0B0B0B0B0B0B0B0B0B0B0B0B0B0B0B0B0B0B0B0B0B0B0B0B0B0B0B0B0B0B0B0B0B0B0B0B0B0B0B0B0B0B0B0B0B0B0B0B0B0B0B0B0B0B0B0B0B0B0B0B0B0B0B0B0B0B0B0B0B0B0D0B0B0B0B0B0B0B0B0B0B0B0B0B0B0B0B0B0B0B0B0B0B
310
0B0B0B0B0B0B0B0B070701010B0B0B0B0008080808080808050B0B0B0B0B0B0B0B0B0B0B0B0B0B0B0B0B0B0B0B0B0B0B0B0B0B0B0B0B0B0B0B0B0B0B0B0B0B0B0B0B0B0B0B0B0B0B0B0B0B0B0B0B0B0B0B0B0B0B0B0B0B0B0B0B0B0B0B0B0B0B0B0B0B0B0B0B0B0B0B0B0B0B0B0B0B0B0B0B0B0B0B0B0B0B0B0B0B0B0B0B0B
310
0B0B0B0B0B0B0B0B0B0B0B0B0B0B0B0B0B0B0B0B0B0B0B0B0B0B0B0B0B0B0D0B0B0B0B0B0B0B0B0B0B0B0B0B0B0B0B0B0B0B0B0B0B0A0B0B0B0B0B0707070606010B0B0B0B0B00000808080808060B0B0B0B0B0B0B0B0B0B0B0B0B0B0B0B0B0B0B0B0B0B0B0B0B0B0B0B0B0B0B0B0B0B0B0B0B0B0B0B0B0B0B0B0B0B0B0B0B
310
0B0B0B0B0B0B0B0B0B0B0B0B0B0B0B0B0B0B0B0B0B0B0B0B0B0B0B0B0B0B0B0B0B0B0B0B0B0B0B0B0B0B0B0B0B0B0B0B0B0B0B0B0B0B0B0B0B0B0B0B0B0B0B0B0B0B0B0B0B0B0B0B0B0B0B0B0B0B0B0B0B0B0B0D0B0B0B0B0B0B0B0B0B0B0B0B0B0B0B0A0A0A0A0A0A0A0A0B0B0B0B0B0606060707010B0B0B0B0B0A0B0808
310
080808060B0B0B0B0B0B0B0B0B0B0B0B0B0B0B0B0B0B0B0B0B0B0B0B0B0B0B0B0B0B0B0B0B0B0B0B0B0B0B0B0B0B0B0B0B0B0B0B0B0B0B0B0B0B0B0B0B0B0B0B0B0B0B0B0B0B0B0B0B0B0B0B0B0B0B0B0B0B0B0B0B0B0B0B0B0B0B0B0B0B0B0B0B0B0B0B0B0B0B0B0B0B0B0B0B0B0B0B0B0B0B0B0B0B0B0B0B0B0B0B0B0B0B
310
0B0B0B0B0B0B0B0B0B0D0B0B0B0B0B0B0B0B0B0B0B0B0B0B0B0B0A0B0B0B0B0B0A0B070B0B0B07070A0707010B0B0B0B0B0B0B08080808080B0B0B0B0B0B0B0B0B0B0B0B0B0B0B0B0B0B0B0B0B0B0B0B0B0B0B0B0B0B0B0B0B0B0B0B0B0B0B0B0B0B0B0B0B0B0B0B0B0B0B0B0B0B0B0B0B0B0B0B0B0B0B0B0B0B0B0B0B0B0B
310
0B0B0B0B0B0B0B0B0B0B0B0B0B0B0B0B0B0B0B0B0B0B0B0B0B0B0B0B0B0B0B0B0B0B0B0B0B0B0B0B0B0B0B0B0B0B0B0B0B0B0B0B0B0B0B0B0B0B0B0B0B0B0D0B0B0B0B0B0B0B0B0B0B0B0B0B0B0B0B0B0A0B0B0B0B0B070606070B0A0A070707010B0B0B0B0B0B0B0B0B0B0B0A0B0B0B0B0B0B0B0B0B0B0B0B0B0B0B0B0B0B
310
0B0B0B0B0B0B0B0B0B0B0B0B0B0B0B0B0B0B0B0B0B0B0B0B0B0B0B0B0B0B0B0B0B0B0B0B0B0B0B0B0B0B0B0B0B0B0B0B0B0B0B0B0B0B0B0B0B0B0B0B0B0B0B0B0B0B0B0B0B0B0B0B0B0B0B0B0B0B0B0B0B0B0B0B0B0B0B0B0B0B0B0B0B0B0B0B0B0B0B0B0B0B0B0B0B0B0B0B0B0B0B0B0B0B0D08080808080B0B0B0B0B0B0B
310
0B0B0B0B0B0B0B0A0B0B0B0B070707070B0B0B0B0707010B0B0B0B0B0B0B0B0B0B0B0A0B0B0B0B0B0B0B0B0B0B0B0B0B0B0B0B0B0B0B0B0B0B0B0B0B0B0B0B0B0B0B0B0B0B0B0B0B0B0B0B0B0B0B0B0B0B0B0B0B0B0B0B0B0B0B0B0B0B0B0B0B0B0B0B0B0B0B0B0B0B0B0B0B0B0B0B0B0B0B0B0B0B0B0B0B0B0B0B0B0B0B0B
310
0B0B0B0B0B0B0B0B0B0B0B0B0B0B0B0B0B0B0B0B0B0B0B0B0B0B0B0B0B0B0B0B0B0B0B0B0B0B0B020D08080808080B0B0B0B0B0A0A0B0B0B0B0B0B0B0A0B0B0B0B0B0B0B0B0B0B0B07070606010B0B0B0B0B0B0B070707070B0B0B0B0B0B0B0B0B0B0B0B0B0B0B0B0B0B0B0B0B0B0B0B0B0B0B0B0B0B0B0B0B0B0B0B0B0B0B
310
0B0B0B0B0B0B0B0B0B0B0B0B0B0B0B0B0B0B0B0B0B0B0B0B0B0B0B0B0B0B0B0B0B0B0B0B0B0B0B0B0B0B0B0B0B0B0B0B0B0B0B0B0B0B0B0B0B0B0B0B0B0B0B0B0B0B0B0B0B0B0B0B0B0B0B0B0B0B0B0B0B0B0B0B0B0B0B0B0B0B0B0B020D08080808080B0B0B0B0B0B0A0B0B0B0B0B0B0B0B0A0B0B0B0B0B0B0B0B07060606
310
0707010B0B0B0B0B0606070606070B0B0B0B0B0B0B0B0B0B0B0B0B0B0B0B0B0B0B0B0B0B0B0B0B0B0B0B0B0B0B0B0B0B0B0B0B0B0B0B0B0B0B0B0B0B0B0B0B0B0B0B0B0B0B0B0B0B0B0B0B0B0B0B0B0B0B0B0B0B0B0B0B0B0B0B0B0B0B0B0B0B0B0B0B0B0B0B0B0B0B0B0B0B0B0B0B0B0B0B0B0B0B0B0B0B0B0B0B0B0B0B0B
310
0B0B0B0B0B0B0B0B0B0B0B0B0B0B0B0B0B0B020D08080800000B0B0B0B0B0B0A0B0B0B0B0B0B0B0B0B0B0B0B0B0B0B0B0B0B070707070B010B0B0B0B0B070B070707070B0B0B0B0B0B0B0B0B0B0B0B0B0B0B0B0B0B0B0B0B0B0B0B0B0B0B0B0B0B0B0B0B0B0B0B0B0B0B0B0B0B0B0B0B0B0B0B0B0B0B0B0B0B0B0B0B0B0B0B
310
0B0B0B0B0B0B0B0B0B0B0B0B0B0B0B0B0B0B0B0B0B0B0B0B0B0B0B0B0B0B0B0B0B0B0B0B0B0B0B0B0B0B0B0B0B0B0B0B0B0B0B0B0B0B0B0B0B0B0B0B0B0B0B0B0B0B0B0B0B0B0B0B0D080808000B0B0B0A0A0A0A0A0A0B0B0B0B0B0B0B0B0B0B0B0B0B0B0B0B0B0B0B0B0B0B01010B0B0B0B07070B0B0B0A0B0B0B0B0B0B0B
310
0B0B0B0B0B0B0B0B0B0B0B0B0B0B0B0B0B0B0B0B0B0B0B0B0B0B0B0B0B0B0B0B0B0B0B0B0B0B0B0B0B0B0B0B0B0B0B0B0B0B0B0B0B0B0B0B0B0B0B0B0B0B0B0B0B0B0B0B0B0B0B0B0B0B0B0B0B0B0B0B0B0B0B0B0B0B0B0B0B0B0B0B0B0B0B0B0B0B0B0B0B0B0B0B0B0B0B0B0B0B0B0B0B0B0B0B0B0B0B0B0B0B0B0B0B0D0B
310
0B0B0B0B0B0B0B0B0B0B0A0A0A0A0A0A0A0B0B0B0B0B0B0B0B0B0B0A0A0A0A0A0A0606010B0B0B0B0B0B0B0B0B0A0B0B0B0B0B0B0B0B0B0B0B0B0B0B0B0B0B0B0B0B0B0B0B0B0B0B0B0B0B0B0B0B0B0B0B0B0B0B0B0B0B0B0B0B0B0B0B0B0B0B0B0B0B0B0B0B0B0B0B0B0B0B0B0B0B0B0B0B0B0B0B0B0B0B0B0B0B0B0B0B0B
310
0B0B0B0B0B0B0B0B0B0B0B0B0B0B0B0B0B0B0B0B0B0B0B0B0B0B0B0B0B0B0B0B0B0B0B0B0B0B0B0B0B0B0B0B0B0B0B0B0B0B0B0D0B0B0B0B0B0B0B0B0B0B0B0B0B0B0B0B0B0B0B0B0B0A0A0A0A0A0A0A0B0B0B0B0B0B0707010B0B0B0B070B0B0B0B0B0A0B0B0B0B0B0B0B0B0B0B0B0B0B0B0B0B0B0B0B0B0B0B0B0B0B0B0B
310
0B0B0B0B0B0B0B0B0B0B0B0B0B0B0B0B0B0B0B0B0B0B0B0B0B0B0B0B0B0B0B0B0B0B0B0B0B0B0B0B0B0B0B0B0B0B0B0B0B0B0B0B0B0B0B0B0B0B0B0B0B0B0B0B0B0B0B0B0B0B0B0B0B0B0B0B0B0B0B0B0B0B0B0B0B0B0B0B0B0B0B0B0B0B0B0B0B0B0B0B0B0B0B0B020B0B0B0B0B0B0B0B0B0B0B0B0B0B0B0B0B0B0B0B0B0B
310
0B0B0B0B0B0B0B0B0B0B0B0B0B0B0B0B0B0B070606070B0B0B0A0B0B0B0B0B0B0B0B0B0B0B0B0B0B0B0B0B0B0B0B0B0B0B0B0B0B0B0B0B0B0B0B0B0B0B0B0B0B0B0B0B0B0B0B0B0B0B0B0B0B0B0B0B0B0B0B0B0B0B0B0B0B0B0B0B0B0B0B0B0B0B0B0B0B0B0B0B0B0B0B0B0B0B0B0B0B0B0B0B0B0B0B0B0B0B0B0B0B0B0B0B
310
0B0B0B0B0B0B0B0B0B0B0B0B0B0B0B0B0B0B0B0B0B0B0B0B0B0B0B0B0B0B0D020B0B0B0B0B0B0B0B0B0B0B0B0B0B0B0B0B0B0B0B0B0B0B0B0B0B0B0B0B0B0B0B0B0B0B0B0B0B0B0B07070B0B0B0B0A0B0B0B0B0B0B0B0B0B0B0B0B0B0B0B0B0B0B0B0B0B0B0B0B0B0B0B0B0B0B0B0B0B0B0B0B0B0B0B0B0B0B0B0B0B0B0B0B
310
0B0B0B0B0B0B0B0B0B0B0B0B0B0B0B0B0B0B0B0B0B0B0B0B0B0B0B0B0B0B0B0B0B0B0B0B0B0B0B0B0B0B0B0B0B0B0B0B0B0B0B0B0B0B0B0B0B0B0B0B0B0B0B0B0B0B0B0B0B0B0B0B0B0B0B0B0B0B0B0B0B0B0B0B020B0B0B0B0B0B0B0B0B0B0B0B0B0B0B0B0B0B0B0B0B0B0B0B0B0B0B0B0B0B0B0B0B0B0B0B0B0B0B0B0B0B
310
0B0B0B0B0A0B0B0B0B0B0B0B0B0B0B0B0B0B0B0B0B0B0B0B0B0B0B0B0B0B0B0B0B0B0B0B0B0B0B0B0B0B0B0B0B0B0B0B0B0B0B0B0B0B0B0B0B0B0B0B0B0B0B0B0B0B0B0B0B0B0B0B0B0B0B0B0B0B0B0B0B0B0B0B0B0B0B0B0B0B0B0B0B0B0B0B0B0B0B0B0B0B0B0B0B0B0B0B0B0B0B0B0B0B0B0B0B0B0B0B0B0B0B0B0B0B0B
310
0B0B0B0B0B0B0B0B0B0B020B0B0B0B0B0B0B0B0B0B0B0B0B0B0B0B0B0B0B0B0B0B0B0B0B0B0B0B0B0B0B0B0B0B0B0B0B0B0B0B0B0B0B0B0B0B0A0B0B0B0B0B0B0B0B0B0B0B0B0B0B0B0B0B0B0B0B0B0B0B0B0B0B0B0B0B0B0B0B0B0B0B0B0B0B0B0B0B0B0B0B0B0B0B0B0B0B0B0B0B0B0B0B0B0B0B0B0B0B0B0B0B0B0B0B0B
310
0B0B0B0B0B0B0B0B0B0B0B0B0B0B0B0B0B0B0B0B0B0B0B0B0B0B0B0B0B0B0B0B0B0B0B0B0B0B0B0B0B0B0B0B0B0B0B0B0B0B0B0B0B0B0B0B0B0B0B0B0B0B0B020B0B0B0B0B0B0B0B0B0B0B0B0B0B0B0B0B0B0B0B0B0B0B0B0B0B0B0B0B0B0B0B0B0B0B0B0B0B0B0B080B0B0B0B0B0A0B0B0B0B0B0B0B0B0B0B0B0B0B0B0B0B
310
0B0B0B0B0B0B0B0B0B0B0B0B0B0B0B0B0B0B0B0B0B0B0B0B0B0B0B0B0B0B0B0B0B0B0B0B0B0B0B0B0B0B0B0B0B0B0B0B0B0B0B0B0B0B0B0B0B0B0B0B0B0B0B0B0B0B0B0B0B0B0B0B0B0B0B0B0B0B0B0B0B0B0B0B0B0B0B0B0B0B0B0B0B0B0B0B0B0B0B0B0B0B0B0B0B0B0B0B0B0B0B0B0B0B0B0B0D020B0B0B0B0B0B0B0B0B
310
0B0B0B0B0B0B0B0B0B0B0B0B0B0B0B0B0B0B0B0B0B0B0B0B0B0B0B0B0B0808080B0B0B0B0A0B0B0B0B0B0B0B0B0B0B0B0B0B0B0B0B0B0B0B0B0B0B0B0B0B0B0B0B0B0B0B0B0B0B0B0B0B0B0B0B0B0B0B0B0B0B0B0B0B0B0B0B0B0B0B0B0B0B0B0B0B0B0B0B0B0B0B0B0B0B0B0B0B0B0B0B0B0B0B0B0B0B0B0B0B0B0B0B0B0B
310
0B0B0B0B0B0B0B0B0B0B0B0B0B0B0B0B0B0B0B0B0B0B0B0B0B0B0B0B0B0B0B0B0B0B0B0B0B0B0B0B0B0B0B020B0B0B0B0B0B0B0B0B0B0B0B0B0B0B0B0B0B0B0B0B0B0B0B0B0B0B0B0B0B0B0B0B0B0B0B0B0B0808080B0B0B0B0B0A0B0B0B0B0B0B0B0B0B0B0B0B0B0B0B0B0B0B0B0B0B0B0B0B0B0B0B0B0B0B0B0B0B0B0B0B
310
0B0B0B0B0B0B0B0B0B0B0B0B0B0B0B0B0B0B0B0B0B0B0B0B0B0B0B0B0B0B0B0B0B0B0B0B0B0B0B0B0B0B0B0B0B0B0B0B0B0B0B0B0B0B0B0B0B0B0B0B0B0B0B0B0B0B0B0B0B0B0B0B0B0B0B0B0B0B0B0B0B0B0B0B0B0B0B0B0B0B0B0B0B0B0B0B0202020B0B0B0B0B0B0B0B0B0B0B0B0B0B0B0B0B0B0B0B0B0B0B0B0B0B0B0B
310
0B0B0B0B0B0B0B0B0B080B0B0B0B0B0B0A0B0B0B0B0B0B0B0B0B0B0B0B0B0B0B0B0B0B0B0B0B0B0B0B0B0B0B0B0B0B0B0B0B0B0B0B0B0B0B0B0B0B0B0B0B0B0B0B0B0B0B0B0B0B0B0B0B0B0B0B0B0B0B0B0B0B0B0B0B0B0B0B0B0B0B0B0B0B0B0B0B0B0B0B0B0B0B0B0B0B0B0B0B0B0B0B0B0B0B0B0B0B0B0B0B0B0B0B0B0B
310
0B0B0B0B0B0B0B0B0B0B0B0B0B0B0B0B0B0B0B0B0B0B0B0B0B02020202020D0B0B0B0B0B0B0B0B0B0B0B0B0B0B0B0B0B0B0B0B0B0B0B0B0B0B0B0B0B0B0B0B0B0B0B0B0B0B0A0B0B0B0B0B0B0B0B0B0B0B0B0B0B0B0B0B0B0B0B0B0B0B0B0B0B0B0B0B0B0B0B0B0B0B0B0B0B0B0B0B0B0B0B0B0B0B0B0B0B0B0B0B0B0B0B0B
310
0B0B0B0B0B0B0B0B0B0B0B0B0B0B0B0B0B0B0B0B0B0B0B0B0B0B0000000000000000000000000000000000000000000000000000000000000000000000000000000000000000000000000000000000000000000000000000000000000000000000000000000000000000000000000000000000000000000000000000000000
310
00000000000000000000000000000000000000000000000000000000000000000000000000000000000000000000000000000000000000000000000000000000000000000000000000000000000904
  0
ENDSEC
  0
EOF
