  0
SECTION
  2
HEADER
  9
$ACADVER
  1
AC1015
  9
$ACADMAINTVER
 70
     6
  9
$DWGCODEPAGE
  3
ANSI_1252
  9
$INSBASE
 10
0.0
 20
0.0
 30
0.0
  9
$EXTMIN
 10
-12845.348651
 20
-12773.342902
 30
0.0
  9
$EXTMAX
 10
11533.96631
 20
7524.200406
 30
0.0
  9
$LIMMIN
 10
-64101.455796
 20
-66070.335874
  9
$LIMMAX
 10
62790.073456
 20
60821.193378
  9
$ORTHOMODE
 70
     0
  9
$REGENMODE
 70
     1
  9
$FILLMODE
 70
     1
  9
$QTEXTMODE
 70
     0
  9
$MIRRTEXT
 70
     1
  9
$LTSCALE
 40
1.0
  9
$ATTMODE
 70
     1
  9
$TEXTSIZE
 40
3.041915
  9
$TRACEWID
 40
0.05
  9
$TEXTSTYLE
  7
Standard
  9
$CLAYER
  8
Grove
  9
$CELTYPE
  6
ByLayer
  9
$CECOLOR
 62
   256
  9
$CELTSCALE
 40
1.0
  9
$DISPSILH
 70
     0
  9
$DIMSCALE
 40
1.0
  9
$DIMASZ
 40
3.041915
  9
$DIMEXO
 40
1.520958
  9
$DIMDLI
 40
0.0
  9
$DIMRND
 40
0.0
  9
$DIMDLE
 40
0.0
  9
$DIMEXE
 40
1.520958
  9
$DIMTP
 40
0.0
  9
$DIMTM
 40
0.0
  9
$DIMTXT
 40
3.041915
  9
$DIMCEN
 40
0.09
  9
$DIMTSZ
 40
0.0
  9
$DIMTOL
 70
     0
  9
$DIMLIM
 70
     0
  9
$DIMTIH
 70
     0
  9
$DIMTOH
 70
     0
  9
$DIMSE1
 70
     0
  9
$DIMSE2
 70
     0
  9
$DIMTAD
 70
     1
  9
$DIMZIN
 70
    11
  9
$DIMBLK
  1
TerminatorOpen_0.5
  9
$DIMASO
 70
     1
  9
$DIMSHO
 70
     1
  9
$DIMPOST
  1

  9
$DIMAPOST
  1

  9
$DIMALT
 70
     0
  9
$DIMALTD
 70
     4
  9
$DIMALTF
 40
1.0
  9
$DIMLFAC
 40
3.28084
  9
$DIMTOFL
 70
     0
  9
$DIMTVP
 40
0.0
  9
$DIMTIX
 70
     0
  9
$DIMSOXD
 70
     0
  9
$DIMSAH
 70
     0
  9
$DIMBLK1
  1

  9
$DIMBLK2
  1

  9
$DIMSTYLE
  2
Standard
  9
$DIMCLRD
 70
     0
  9
$DIMCLRE
 70
     0
  9
$DIMCLRT
 70
     0
  9
$DIMTFAC
 40
1.0
  9
$DIMGAP
 40
1.520958
  9
$DIMJUST
 70
     0
  9
$DIMSD1
 70
     0
  9
$DIMSD2
 70
     0
  9
$DIMTOLJ
 70
     0
  9
$DIMTZIN
 70
    11
  9
$DIMALTZ
 70
    15
  9
$DIMALTTZ
 70
    15
  9
$DIMUPT
 70
     0
  9
$DIMDEC
 70
     4
  9
$DIMTDEC
 70
     4
  9
$DIMALTU
 70
     2
  9
$DIMALTTD
 70
     4
  9
$DIMTXSTY
  7
Style-Garamond
  9
$DIMAUNIT
 70
     0
  9
$DIMADEC
 70
     4
  9
$DIMALTRND
 40
0.0
  9
$DIMAZIN
 70
     3
  9
$DIMDSEP
 70
    46
  9
$DIMATFIT
 70
     3
  9
$DIMFRAC
 70
     2
  9
$DIMLDRBLK
  1
TerminatorOpen_0.5
  9
$DIMLUNIT
 70
     2
  9
$DIMLWD
 70
    -2
  9
$DIMLWE
 70
    -2
  9
$DIMTMOVE
 70
     0
  9
$LUNITS
 70
     3
  9
$LUPREC
 70
     4
  9
$SKETCHINC
 40
0.1
  9
$FILLETRAD
 40
0.5
  9
$AUNITS
 70
     0
  9
$AUPREC
 70
     4
  9
$MENU
  1
.
  9
$ELEVATION
 40
0.0
  9
$PELEVATION
 40
0.0
  9
$THICKNESS
 40
0.0
  9
$LIMCHECK
 70
     0
  9
$CHAMFERA
 40
0.5
  9
$CHAMFERB
 40
0.5
  9
$CHAMFERC
 40
1.0
  9
$CHAMFERD
 40
0.0
  9
$SKPOLY
 70
     0
  9
$TDCREATE
 40
2451789.537468704
  9
$TDUCREATE
 40
2451789.745802037
  9
$TDUPDATE
 40
2451789.537561297
  9
$TDUUPDATE
 40
2451789.74589463
  9
$TDINDWG
 40
0.0000927662
  9
$TDUSRTIMER
 40
0.0000925926
  9
$USRTIMER
 70
     1
  9
$ANGBASE
 50
0.0
  9
$ANGDIR
 70
     0
  9
$PDMODE
 70
     0
  9
$PDSIZE
 40
0.0
  9
$PLINEWID
 40
0.0
  9
$SPLFRAME
 70
     0
  9
$SPLINETYPE
 70
     6
  9
$SPLINESEGS
 70
     8
  9
$HANDSEED
  5
26E6
  9
$SURFTAB1
 70
     6
  9
$SURFTAB2
 70
     6
  9
$SURFTYPE
 70
     6
  9
$SURFU
 70
     6
  9
$SURFV
 70
     6
  9
$UCSBASE
  2

  9
$UCSNAME
  2

  9
$UCSORG
 10
0.0
 20
0.0
 30
0.0
  9
$UCSXDIR
 10
1.0
 20
0.0
 30
0.0
  9
$UCSYDIR
 10
0.0
 20
1.0
 30
0.0
  9
$UCSORTHOREF
  2

  9
$UCSORTHOVIEW
 70
     0
  9
$UCSORGTOP
 10
0.0
 20
0.0
 30
0.0
  9
$UCSORGBOTTOM
 10
0.0
 20
0.0
 30
0.0
  9
$UCSORGLEFT
 10
0.0
 20
0.0
 30
0.0
  9
$UCSORGRIGHT
 10
0.0
 20
0.0
 30
0.0
  9
$UCSORGFRONT
 10
0.0
 20
0.0
 30
0.0
  9
$UCSORGBACK
 10
0.0
 20
0.0
 30
0.0
  9
$PUCSBASE
  2

  9
$PUCSNAME
  2

  9
$PUCSORG
 10
0.0
 20
0.0
 30
0.0
  9
$PUCSXDIR
 10
1.0
 20
0.0
 30
0.0
  9
$PUCSYDIR
 10
0.0
 20
1.0
 30
0.0
  9
$PUCSORTHOREF
  2

  9
$PUCSORTHOVIEW
 70
     0
  9
$PUCSORGTOP
 10
0.0
 20
0.0
 30
0.0
  9
$PUCSORGBOTTOM
 10
0.0
 20
0.0
 30
0.0
  9
$PUCSORGLEFT
 10
0.0
 20
0.0
 30
0.0
  9
$PUCSORGRIGHT
 10
0.0
 20
0.0
 30
0.0
  9
$PUCSORGFRONT
 10
0.0
 20
0.0
 30
0.0
  9
$PUCSORGBACK
 10
0.0
 20
0.0
 30
0.0
  9
$USERI1
 70
     0
  9
$USERI2
 70
     0
  9
$USERI3
 70
     0
  9
$USERI4
 70
     0
  9
$USERI5
 70
     0
  9
$USERR1
 40
0.0
  9
$USERR2
 40
0.0
  9
$USERR3
 40
0.0
  9
$USERR4
 40
0.0
  9
$USERR5
 40
0.0
  9
$WORLDVIEW
 70
     1
  9
$SHADEDGE
 70
     3
  9
$SHADEDIF
 70
    70
  9
$TILEMODE
 70
     1
  9
$MAXACTVP
 70
    64
  9
$PINSBASE
 10
0.0
 20
0.0
 30
0.0
  9
$PLIMCHECK
 70
     0
  9
$PEXTMIN
 10
1.000000E+20
 20
1.000000E+20
 30
1.000000E+20
  9
$PEXTMAX
 10
-1.000000E+20
 20
-1.000000E+20
 30
-1.000000E+20
  9
$PLIMMIN
 10
0.0
 20
0.0
  9
$PLIMMAX
 10
12.0
 20
9.0
  9
$UNITMODE
 70
     0
  9
$VISRETAIN
 70
     1
  9
$PLINEGEN
 70
     0
  9
$PSLTSCALE
 70
     0
  9
$TREEDEPTH
 70
  3020
  9
$CMLSTYLE
  2
Standard
  9
$CMLJUST
 70
     0
  9
$CMLSCALE
 40
1.0
  9
$PROXYGRAPHICS
 70
     1
  9
$MEASUREMENT
 70
     0
  9
$CELWEIGHT
370
    13
  9
$ENDCAPS
280
     0
  9
$JOINSTYLE
280
     0
  9
$LWDISPLAY
290
     1
  9
$INSUNITS
 70
     0
  9
$HYPERLINKBASE
  1

  9
$STYLESHEET
  1

  9
$XEDIT
290
     1
  9
$CEPSNTYPE
380
     0
  9
$PSTYLEMODE
290
     1
  9
$FINGERPRINTGUID
  2
{FDEAD576-A652-11D2-9A35-0060089B3A3F}
  9
$VERSIONGUID
  2
{A257D680-BC79-11D2-9A46-0060089B3A3F}
  9
$EXTNAMES
290
     1
  9
$PSVPSCALE
 40
0.0
  9
$OLESTARTUP
290
     0
  0
ENDSEC
  0
SECTION
  2
CLASSES
  0
CLASS
  1
ACDBDICTIONARYWDFLT
  2
AcDbDictionaryWithDefault
  3
ObjectDBX Classes
 90
        0
280
     0
281
     0
  0
CLASS
  1
ACDBPLACEHOLDER
  2
AcDbPlaceHolder
  3
ObjectDBX Classes
 90
        0
280
     0
281
     0
  0
CLASS
  1
LAYOUT
  2
AcDbLayout
  3
ObjectDBX Classes
 90
        0
280
     0
281
     0
  0
ENDSEC
  0
SECTION
  2
TABLES
  0
TABLE
  2
VPORT
  5
2547
330
0
100
AcDbSymbolTable
 70
     1
  0
VPORT
  5
4B
330
2547
100
AcDbSymbolTableRecord
100
AcDbViewportTableRecord
  2
*ACTIVE
 70
     0
 10
0.0
 20
0.0
 11
1.0
 21
1.0
 12
-837.199012
 22
-1550.652598
 13
0.0
 23
0.0
 14
3.937008
 24
3.937008
 15
3.937008
 25
3.937008
 16
0.0
 26
0.0
 36
1.0
 17
0.0
 27
0.0
 37
0.0
 40
12840.843853
 41
1.520997
 42
50.0
 43
0.0
 44
0.0
 50
0.0
 51
0.0
 71
     0
 72
   100
 73
     1
 74
     2
 75
     0
 76
     0
 77
     0
 78
     1
281
     0
 65
     1
110
0.0
120
0.0
130
0.0
111
1.0
121
0.0
131
0.0
112
0.0
122
1.0
132
0.0
 79
     0
146
0.0
  0
ENDTAB
  0
TABLE
  2
LTYPE
  5
2543
330
0
100
AcDbSymbolTable
 70
     6
  0
LTYPE
  5
2544
330
2543
100
AcDbSymbolTableRecord
100
AcDbLinetypeTableRecord
  2
ByBlock
 70
     0
  3

 72
    65
 73
     0
 40
0.0
  0
LTYPE
  5
2535
330
2543
100
AcDbSymbolTableRecord
100
AcDbLinetypeTableRecord
  2
ByLayer
 70
     0
  3

 72
    65
 73
     0
 40
0.0
  0
LTYPE
  5
2533
330
2543
100
AcDbSymbolTableRecord
100
AcDbLinetypeTableRecord
  2
Continuous
 70
     0
  3
Solid line
 72
    65
 73
     0
 40
0.0
  0
LTYPE
  5
2552
330
2543
100
AcDbSymbolTableRecord
100
AcDbLinetypeTableRecord
  2
DGN Style 2
 70
     0
  3
Dgn Style 2
 72
    65
 73
     2
 40
196.540044
 49
117.924026
 74
     0
 49
-78.616017
 74
     0
  0
LTYPE
  5
2553
330
2543
100
AcDbSymbolTableRecord
100
AcDbLinetypeTableRecord
  2
DGN Style 4
 70
     0
  3
Dgn Style 4
 72
    65
 73
     4
 40
314.66061
 49
157.232035
 74
     0
 49
-78.616017
 74
     0
 49
0.19654
 74
     0
 49
-78.616017
 74
     0
  0
LTYPE
  5
2554
330
2543
100
AcDbSymbolTableRecord
100
AcDbLinetypeTableRecord
  2
DGN Style 3
 70
     0
  3
Dgn Style 3
 72
    65
 73
     2
 40
275.156061
 49
196.540044
 74
     0
 49
-78.616017
 74
     0
  0
LTYPE
  5
2555
330
2543
100
AcDbSymbolTableRecord
100
AcDbLinetypeTableRecord
  2
DGN Style 1
 70
     0
  3
Dgn Style 1
 72
    65
 73
     2
 40
118.120566
 49
0.19654
 74
     0
 49
-117.924026
 74
     0
  0
LTYPE
  5
2570
330
2543
100
AcDbSymbolTableRecord
100
AcDbLinetypeTableRecord
  2
DGN Style 6
 70
     0
  3
Dgn Style 6
 72
    65
 73
     6
 40
373.819163
 49
0.19654
 74
     0
 49
-78.616017
 74
     0
 49
137.57803
 74
     0
 49
-78.616017
 74
     0
 49
0.19654
 74
     0
 49
-78.616017
 74
     0
  0
ENDTAB
  0
TABLE
  2
LAYER
  5
2541
330
0
100
AcDbSymbolTable
 70
    38
  0
LAYER
  5
2531
330
2541
100
AcDbSymbolTableRecord
100
AcDbLayerTableRecord
  2
0
 70
     0
 62
     7
  6
Continuous
370
    -3
390
2532
  0
LAYER
  5
70
330
2541
100
AcDbSymbolTableRecord
100
AcDbLayerTableRecord
  2
Grid
 70
     0
 62
   250
  6
Continuous
370
    13
390
2532
  0
LAYER
  5
9D
330
2541
100
AcDbSymbolTableRecord
100
AcDbLayerTableRecord
  2
Fenceline
 70
     0
 62
    32
  6
DGN Style 2
370
     0
390
2532
  0
LAYER
  5
9F
330
2541
100
AcDbSymbolTableRecord
100
AcDbLayerTableRecord
  2
Aqueduct
 70
     0
 62
    48
  6
DGN Style 4
370
     0
390
2532
  0
LAYER
  5
A3
330
2541
100
AcDbSymbolTableRecord
100
AcDbLayerTableRecord
  2
Stone Wall
 70
     0
 62
   251
  6
DGN Style 3
370
     0
390
2532
  0
LAYER
  5
A6
330
2541
100
AcDbSymbolTableRecord
100
AcDbLayerTableRecord
  2
Structures
 70
     0
 62
   178
  6
Continuous
370
     0
390
2532
  0
LAYER
  5
D0
330
2541
100
AcDbSymbolTableRecord
100
AcDbLayerTableRecord
  2
Contour Lines
 70
     0
 62
   250
  6
Continuous
370
     0
390
2532
  0
LAYER
  5
171
330
2541
100
AcDbSymbolTableRecord
100
AcDbLayerTableRecord
  2
Pond
 70
     0
 62
   132
  6
Continuous
370
    13
390
2532
  0
LAYER
  5
178
330
2541
100
AcDbSymbolTableRecord
100
AcDbLayerTableRecord
  2
Sunken Footpath
 70
     0
 62
    96
  6
DGN Style 2
370
     0
390
2532
  0
LAYER
  5
1C7
330
2541
100
AcDbSymbolTableRecord
100
AcDbLayerTableRecord
  2
Structure Numbers
 70
     0
 62
     1
  6
Continuous
370
     0
390
2532
  0
LAYER
  5
1C9
330
2541
100
AcDbSymbolTableRecord
100
AcDbLayerTableRecord
  2
Tombs
 70
     0
 62
   253
  6
Continuous
370
     0
390
2532
  0
LAYER
  5
1DF
330
2541
100
AcDbSymbolTableRecord
100
AcDbLayerTableRecord
  2
Probable graves
 70
     0
 62
   253
  6
DGN Style 1
370
     0
390
2532
  0
LAYER
  5
1ED
330
2541
100
AcDbSymbolTableRecord
100
AcDbLayerTableRecord
  2
1204 Quadrats
 70
     0
 62
   178
  6
DGN Style 4
370
     0
390
2532
  0
LAYER
  5
1F2
330
2541
100
AcDbSymbolTableRecord
100
AcDbLayerTableRecord
  2
Grove
 70
     0
 62
    94
  6
Continuous
370
     0
390
2532
  0
LAYER
  5
1F7
330
2541
100
AcDbSymbolTableRecord
100
AcDbLayerTableRecord
  2
Key
 70
     0
 62
     7
  6
Continuous
370
     0
390
2532
  0
LAYER
  5
1FB
330
2541
100
AcDbSymbolTableRecord
100
AcDbLayerTableRecord
  2
Base Map 2
 70
     0
 62
     1
  6
Continuous
370
     0
390
2532
  0
LAYER
  5
243
330
2541
100
AcDbSymbolTableRecord
100
AcDbLayerTableRecord
  2
Scale
 70
     0
 62
   250
  6
Continuous
370
     0
390
2532
  0
LAYER
  5
26A
330
2541
100
AcDbSymbolTableRecord
100
AcDbLayerTableRecord
  2
Depression Features
 70
     0
 62
   250
  6
Continuous
370
    13
390
2532
  0
LAYER
  5
4C9
330
2541
100
AcDbSymbolTableRecord
100
AcDbLayerTableRecord
  2
Works Road
 70
     0
 62
    96
  6
DGN Style 3
370
     0
390
2532
  0
LAYER
  5
4CA
330
2541
100
AcDbSymbolTableRecord
100
AcDbLayerTableRecord
  2
Works Structures
 70
     0
 62
   250
  6
Continuous
370
     0
390
2532
  0
LAYER
  5
4CB
330
2541
100
AcDbSymbolTableRecord
100
AcDbLayerTableRecord
  2
Anchovy  Gully
 70
     0
 62
     5
  6
DGN Style 4
370
     0
390
2532
  0
LAYER
  5
4E9
330
2541
100
AcDbSymbolTableRecord
100
AcDbLayerTableRecord
  2
Works Stucture Labels
 70
     0
 62
   250
  6
Continuous
370
     0
390
2532
  0
LAYER
  5
15AF
330
2541
100
AcDbSymbolTableRecord
100
AcDbLayerTableRecord
  2
Quadrat Outlines
 70
     0
 62
   178
  6
DGN Style 4
370
     0
390
2532
  0
LAYER
  5
15B6
330
2541
100
AcDbSymbolTableRecord
100
AcDbLayerTableRecord
  2
Grid Coordinates
 70
     0
 62
     7
  6
Continuous
370
     0
390
2532
  0
LAYER
  5
15BD
330
2541
100
AcDbSymbolTableRecord
100
AcDbLayerTableRecord
  2
Quadrat IDs
 70
     0
 62
   250
  6
Continuous
370
     0
390
2532
  0
LAYER
  5
15CC
330
2541
100
AcDbSymbolTableRecord
100
AcDbLayerTableRecord
  2
Feature Numbers
 70
     0
 62
   250
  6
Continuous
370
     0
390
2532
  0
LAYER
  5
1619
330
2541
100
AcDbSymbolTableRecord
100
AcDbLayerTableRecord
  2
Features
 70
     0
 62
   250
  6
Continuous
370
    13
390
2532
  0
LAYER
  5
1623
330
2541
100
AcDbSymbolTableRecord
100
AcDbLayerTableRecord
  2
Stone Foundation
 70
     0
 62
   250
  6
Continuous
370
    13
390
2532
  0
LAYER
  5
1B36
330
2541
100
AcDbSymbolTableRecord
100
AcDbLayerTableRecord
  2
Building Outline
 70
     0
 62
    92
  6
DGN Style 2
370
    53
390
2532
  0
LAYER
  5
1B48
330
2541
100
AcDbSymbolTableRecord
100
AcDbLayerTableRecord
  2
Scale_Legend_Arrow
 70
     0
 62
     7
  6
Continuous
370
     0
390
2532
  0
LAYER
  5
1B51
330
2541
100
AcDbSymbolTableRecord
100
AcDbLayerTableRecord
  2
Stone
 70
     0
 62
   250
  6
Continuous
370
    13
390
2532
  0
LAYER
  5
1BBB
330
2541
100
AcDbSymbolTableRecord
100
AcDbLayerTableRecord
  2
Bedrock
 70
     0
 62
   250
  6
Continuous
370
     0
390
2532
  0
LAYER
  5
1C7D
330
2541
100
AcDbSymbolTableRecord
100
AcDbLayerTableRecord
  2
Platform--conjectural
 70
     0
 62
    46
  6
DGN Style 2
370
    13
390
2532
  0
LAYER
  5
1CD1
330
2541
100
AcDbSymbolTableRecord
100
AcDbLayerTableRecord
  2
Partition Outline
 70
     0
 62
    46
  6
DGN Style 3
370
    13
390
2532
  0
LAYER
  5
1F39
330
2541
100
AcDbSymbolTableRecord
100
AcDbLayerTableRecord
  2
Plaster Floor
 70
     0
 62
     7
  6
Continuous
370
     0
390
2532
  0
LAYER
  5
1F3D
330
2541
100
AcDbSymbolTableRecord
100
AcDbLayerTableRecord
  2
Other Features
 70
     0
 62
    46
  6
DGN Style 2
370
    13
390
2532
  0
LAYER
  5
200E
330
2541
100
AcDbSymbolTableRecord
100
AcDbLayerTableRecord
  2
Partition_Conjectural
 70
     0
 62
   251
  6
Continuous
370
     0
390
2532
  0
LAYER
  5
201D
330
2541
100
AcDbSymbolTableRecord
100
AcDbLayerTableRecord
  2
Foundation
 70
     0
 62
   250
  6
Continuous
370
    13
390
2532
  0
ENDTAB
  0
TABLE
  2
STYLE
  5
2542
330
0
100
AcDbSymbolTable
 70
     3
  0
STYLE
  5
2534
330
2542
100
AcDbSymbolTableRecord
100
AcDbTextStyleTableRecord
  2
Standard
 70
     0
 40
0.0
 41
1.0
 50
0.0
 71
     0
 42
3.041915
  3
txt
  4

  0
STYLE
  5
1FD
330
2542
100
AcDbSymbolTableRecord
100
AcDbTextStyleTableRecord
  2
STD
 70
     0
 40
0.0
 41
1.0
 50
0.0
 71
     0
 42
0.2
  3
txt.shx
  4

  0
STYLE
  5
255A
330
2542
100
AcDbSymbolTableRecord
100
AcDbTextStyleTableRecord
  2
Style-Garamond
 70
     0
 40
0.0
 41
1.0
 50
0.0
 71
     0
 42
0.2
  3

  4

1001
ACAD
1000
Garamond
1071
       23
  0
ENDTAB
  0
TABLE
  2
VIEW
  5
2545
330
0
100
AcDbSymbolTable
 70
     0
  0
ENDTAB
  0
TABLE
  2
UCS
  5
2546
330
0
100
AcDbSymbolTable
 70
     0
  0
ENDTAB
  0
TABLE
  2
APPID
  5
2548
330
0
100
AcDbSymbolTable
 70
     1
  0
APPID
  5
2550
330
2548
100
AcDbSymbolTableRecord
100
AcDbRegAppTableRecord
  2
ACAD
 70
     0
  0
ENDTAB
  0
TABLE
  2
DIMSTYLE
  5
2549
330
0
100
AcDbSymbolTable
 70
     1
100
AcDbDimStyleTable
  0
DIMSTYLE
105
2536
330
2549
100
AcDbSymbolTableRecord
100
AcDbDimStyleTableRecord
  2
Standard
 70
     0
 42
0.0625
340
2534
  0
ENDTAB
  0
TABLE
  2
BLOCK_RECORD
  5
2538
330
0
100
AcDbSymbolTable
 70
     3
  0
BLOCK_RECORD
  5
2539
330
2538
100
AcDbSymbolTableRecord
100
AcDbBlockTableRecord
  2
*Model_Space
340
253C
  0
BLOCK_RECORD
  5
253D
330
2538
100
AcDbSymbolTableRecord
100
AcDbBlockTableRecord
  2
*Paper_Space
340
2540
  0
BLOCK_RECORD
  5
1FE
330
2538
100
AcDbSymbolTableRecord
100
AcDbBlockTableRecord
  2
AI9-BLK61
340
0
102
{BLKREFS
331
201
102
}
  0
BLOCK_RECORD
  5
255B
330
2538
100
AcDbSymbolTableRecord
100
AcDbBlockTableRecord
  2
TerminatorOpen_0.5
340
0
  0
BLOCK_RECORD
  5
2574
330
2538
100
AcDbSymbolTableRecord
100
AcDbBlockTableRecord
  2
*U2
340
0
102
{BLKREFS
331
244
102
}
  0
ENDTAB
  0
ENDSEC
  0
SECTION
  2
BLOCKS
  0
BLOCK
  5
253A
330
2539
100
AcDbEntity
  8
0
100
AcDbBlockBegin
  2
*Model_Space
 70
     0
 71
     0
 10
0.0
 20
0.0
 30
0.0
  3
*Model_Space
  1

  0
ENDBLK
  5
253B
330
2539
100
AcDbEntity
  8
0
100
AcDbBlockEnd
  0
BLOCK
  5
253E
330
253D
100
AcDbEntity
 67
     1
  8
0
100
AcDbBlockBegin
  2
*Paper_Space
 70
     0
 71
     0
 10
0.0
 20
0.0
 30
0.0
  3
*Paper_Space
  1

  0
ENDBLK
  5
253F
330
253D
100
AcDbEntity
 67
     1
  8
0
100
AcDbBlockEnd
  0
BLOCK
  5
2558
330
1FE
100
AcDbEntity
  8
0
100
AcDbBlockBegin
  2
AI9-BLK61
 70
     0
 71
     0
 10
0.0
 20
0.0
 30
0.0
  3
AI9-BLK61
  1

  0
MTEXT
  5
1FF
330
1FE
100
AcDbEntity
  8
0
 62
     0
100
AcDbMText
 10
-8.572092
 20
31.10448
 30
0.0
 40
51.026772
 41
0.0
 71
     1
 72
     1
  1
\fTimes New Roman PS|b0|i0|c0|p39; 
  7
STD
 73
     1
 44
1.0
  0
ENDBLK
  5
2559
330
1FE
100
AcDbEntity
  8
0
100
AcDbBlockEnd
  0
BLOCK
  5
255F
330
255B
100
AcDbEntity
  8
0
100
AcDbBlockBegin
  2
TerminatorOpen_0.5
 70
     0
 71
     0
 10
0.0
 20
0.0
 30
0.0
  3
TerminatorOpen_0.5
  1

  0
LINE
  5
255C
330
255B
100
AcDbEntity
  8
0
  6
ByBlock
 62
     0
370
    -2
100
AcDbLine
 10
0.0
 20
0.0
 30
0.0
 11
-1.0
 21
0.0
 31
0.0
  0
LINE
  5
255D
330
255B
100
AcDbEntity
  8
0
  6
ByBlock
 62
     0
370
    -2
100
AcDbLine
 10
0.0
 20
0.0
 30
0.0
 11
-1.0
 21
0.25
 31
0.0
  0
LINE
  5
255E
330
255B
100
AcDbEntity
  8
0
  6
ByBlock
 62
     0
370
    -2
100
AcDbLine
 10
0.0
 20
0.0
 30
0.0
 11
-1.0
 21
-0.25
 31
0.0
  0
ENDBLK
  5
2560
330
255B
100
AcDbEntity
  8
0
100
AcDbBlockEnd
  0
BLOCK
  5
2575
330
2574
100
AcDbEntity
  8
0
100
AcDbBlockBegin
  2
*U2
 70
     1
 71
     0
 10
0.0
 20
0.0
 30
0.0
  3
*U2
  1

  0
TEXT
  5
245
330
2574
100
AcDbEntity
  8
Key
100
AcDbText
 10
-129.700017
 20
18.167834
 30
0.0
 40
19.482475
  1
0
 41
1.184186
  7
Style-Garamond
 11
-129.700017
 21
37.650309
 31
0.0
100
AcDbText
 73
     3
  0
TEXT
  5
246
330
2574
100
AcDbEntity
  8
Key
100
AcDbText
 10
-14.877272
 20
18.472378
 30
0.0
 40
19.482475
  1
10
 41
1.184186
  7
Style-Garamond
 11
-14.877272
 21
37.954853
 31
0.0
100
AcDbText
 73
     3
  0
TEXT
  5
247
330
2574
100
AcDbEntity
  8
Key
100
AcDbText
 10
106.036361
 20
17.2542
 30
0.0
 40
19.482475
  1
20
 41
1.184186
  7
Style-Garamond
 11
106.036361
 21
36.736676
 31
0.0
100
AcDbText
 73
     3
  0
LWPOLYLINE
  5
248
330
2574
100
AcDbEntity
  8
Key
 62
   250
370
    13
100
AcDbPolyline
 90
        5
 70
   128
 43
0.0
 10
-0.310454
 20
-1.498261
 10
-119.813422
 20
-1.498261
 10
-119.813422
 20
10.452036
 10
-0.310454
 20
10.452036
 10
-0.310454
 20
-1.498261
  0
LWPOLYLINE
  5
24C
330
2574
100
AcDbEntity
  8
Key
 62
   250
370
    13
100
AcDbPolyline
 90
        5
 70
   128
 43
0.0
 10
-0.310454
 20
-13.448558
 10
-119.813422
 20
-13.448558
 10
-119.813422
 20
-1.498261
 10
-0.310454
 20
-1.498261
 10
-0.310454
 20
-13.448558
  0
LWPOLYLINE
  5
250
330
2574
100
AcDbEntity
  8
Key
 62
   250
370
    13
100
AcDbPolyline
 90
        5
 70
   128
 43
0.0
 10
119.459834
 20
-1.498261
 10
-0.043135
 20
-1.498261
 10
-0.043135
 20
10.452036
 10
119.459834
 20
10.452036
 10
119.459834
 20
-1.498261
  0
LWPOLYLINE
  5
254
330
2574
100
AcDbEntity
  8
Key
 62
   250
370
    13
100
AcDbPolyline
 90
        5
 70
   128
 43
0.0
 10
119.459834
 20
-13.448558
 10
-0.043135
 20
-13.448558
 10
-0.043135
 20
-1.498261
 10
119.459834
 20
-1.498261
 10
119.459834
 20
-13.448558
  0
TEXT
  5
258
330
2574
100
AcDbEntity
  8
Key
  6
Continuous
 62
   250
370
    13
100
AcDbText
 10
-139.029036
 20
-36.53816
 30
0.0
 40
22.312438
  1
Feet
  7
Style-Garamond
 11
-139.029036
 21
-14.225723
 31
0.0
100
AcDbText
 73
     3
  0
SOLID
  5
259
330
2574
100
AcDbEntity
  8
Key
100
AcDbTrace
 10
0.310454
 20
10.452036
 30
0.0
 11
119.813422
 21
10.452036
 31
0.0
 12
0.310454
 22
-1.498261
 32
0.0
 13
119.813422
 23
-1.498261
 33
0.0
210
0.0
220
0.0
230
-1.0
  0
SOLID
  5
25D
330
2574
100
AcDbEntity
  8
Key
100
AcDbTrace
 10
0.043135
 20
-1.498261
 30
0.0
 11
0.043135
 21
-13.448558
 31
0.0
 12
-119.459834
 22
-1.498261
 32
0.0
 13
-119.459834
 23
-13.448558
 33
0.0
210
0.0
220
0.0
230
-1.0
  0
ENDBLK
  5
2576
330
2574
100
AcDbEntity
  8
0
100
AcDbBlockEnd
  0
ENDSEC
  0
SECTION
  2
ENTITIES
  0
SPLINE
  5
9E
330
2539
100
AcDbEntity
  8
Fenceline
100
AcDbSpline
210
0.0
220
0.0
230
1.0
 70
     8
 71
     3
 72
    38
 73
    34
 74
     0
 42
0.0000000001
 43
0.00000001
 40
0.0
 40
0.0
 40
0.0
 40
0.0
 40
0.1081468414334308
 40
0.1081468414334308
 40
0.1081468414334308
 40
0.2100691026088389
 40
0.2100691026088389
 40
0.2100691026088389
 40
0.3142029035868411
 40
0.3142029035868411
 40
0.3142029035868411
 40
0.5320018139712084
 40
0.5320018139712084
 40
0.5320018139712084
 40
0.6538926992488338
 40
0.6538926992488338
 40
0.6538926992488338
 40
0.8228700894984017
 40
0.8228700894984017
 40
0.8228700894984017
 40
0.8470276987564002
 40
0.8470276987564002
 40
0.8470276987564002
 40
0.8561201909897011
 40
0.8561201909897011
 40
0.8561201909897011
 40
0.8638918149071018
 40
0.8638918149071018
 40
0.8638918149071018
 40
0.8936095316202497
 40
0.8936095316202497
 40
0.8936095316202497
 40
1.0
 40
1.0
 40
1.0
 40
1.0
 10
4491.358886983529
 20
2209.1694174768
 30
0.0
 10
4228.863775929889
 20
2297.14209994156
 30
0.0
 10
3966.368664876252
 20
2385.114782406329
 30
0.0
 10
3703.873553822612
 20
2473.087464871089
 30
0.0
 10
3456.486807141291
 20
2555.996726016674
 30
0.0
 10
3208.024387354188
 20
2635.701024645977
 30
0.0
 10
2959.094993925703
 20
2713.861692880138
 30
0.0
 10
2704.76425583263
 20
2793.718314744092
 30
0.0
 10
2450.380391018003
 20
2873.394510863425
 30
0.0
 10
2195.957701548552
 20
2952.953595797357
 30
0.0
 10
1663.825156466357
 20
3119.353764110122
 30
0.0
 10
1131.648495460567
 20
3285.610212091132
 30
0.0
 10
599.4382448098004
 20
3451.75773337931
 30
0.0
 10
301.5874498211351
 20
3544.741983946767
 30
0.0
 10
2.825095688433976
 20
3634.799100756002
 30
0.0
 10
-295.1978919016447
 20
3727.217916763066
 30
0.0
 10
-708.3472964912498
 20
3855.338163845193
 30
0.0
 10
-1118.16320150933
 20
3993.677653301246
 30
0.0
 10
-1530.09552672111
 20
4126.009283062051
 30
0.0
 10
-1588.986838384212
 20
4144.927883944182
 30
0.0
 10
-1648.362048124322
 20
4161.872603427649
 30
0.0
 10
-1707.955431590741
 20
4178.778208187914
 30
0.0
 10
-1730.385315712868
 20
4185.141175580106
 30
0.0
 10
-1754.477738410289
 20
4185.51477641405
 30
0.0
 10
-1777.547607634847
 20
4184.505628120906
 30
0.0
 10
-1797.266111960893
 20
4183.64307901886
 30
0.0
 10
-1818.028729793854
 20
4179.846452329615
 30
0.0
 10
-1834.218834043964
 20
4165.783836788037
 30
0.0
 10
-1896.127765404352
 20
4112.010155849249
 30
0.0
 10
-1938.863393330984
 20
4054.967959115457
 30
0.0
 10
-1985.147663085863
 20
3994.593684879395
 30
0.0
 10
-2150.846972537108
 20
3778.451665084842
 30
0.0
 10
-2316.546281988351
 20
3562.309645290289
 30
0.0
 10
-2482.245591439595
 20
3346.167625495736
 30
0.0
  0
SPLINE
  5
A0
330
2539
100
AcDbEntity
  8
Aqueduct
100
AcDbSpline
210
0.0
220
0.0
230
1.0
 70
     8
 71
     3
 72
    38
 73
    34
 74
     0
 42
0.0000000001
 43
0.00000001
 40
0.0
 40
0.0
 40
0.0
 40
0.0
 40
0.2142788325551292
 40
0.2142788325551292
 40
0.2142788325551292
 40
0.4514839517815973
 40
0.4514839517815973
 40
0.4514839517815973
 40
0.6202441184988196
 40
0.6202441184988196
 40
0.6202441184988196
 40
0.7099360446146096
 40
0.7099360446146096
 40
0.7099360446146096
 40
0.7659524561043768
 40
0.7659524561043768
 40
0.7659524561043768
 40
0.7826795366536368
 40
0.7826795366536368
 40
0.7826795366536368
 40
0.7902166177873069
 40
0.7902166177873069
 40
0.7902166177873069
 40
0.7966654746241036
 40
0.7966654746241036
 40
0.7966654746241036
 40
0.8043128445441099
 40
0.8043128445441099
 40
0.8043128445441099
 40
0.8295812902526121
 40
0.8295812902526121
 40
0.8295812902526121
 40
1.0
 40
1.0
 40
1.0
 40
1.0
 10
4508.513398065263
 20
2278.384660309688
 30
0.0
 10
3943.247969422009
 20
2458.709080225138
 30
0.0
 10
3377.982540778765
 20
2639.03350014062
 30
0.0
 10
2812.717112135504
 20
2819.35792005605
 30
0.0
 10
2186.972367323024
 20
3018.97574985022
 30
0.0
 10
1557.826948455255
 20
3207.775467271972
 30
0.0
 10
930.7227176418601
 20
3403.079576142259
 30
0.0
 10
484.5678669950494
 20
3542.029165767433
 30
0.0
 10
38.44776051970075
 20
3681.092504394757
 30
0.0
 10
-407.6714334567487
 20
3820.156253156598
 30
0.0
 10
-644.7729400700864
 20
3894.065255037543
 30
0.0
 10
-881.6518862716648
 20
3968.674202977509
 30
0.0
 10
-1118.734119724187
 20
4042.659044808889
 30
0.0
 10
-1266.802028633231
 20
4088.865716061345
 30
0.0
 10
-1416.089435666588
 20
4130.922801072486
 30
0.0
 10
-1565.116792231207
 20
4174.066543047834
 30
0.0
 10
-1609.617904155433
 20
4186.949711177052
 30
0.0
 10
-1654.203146115895
 20
4198.226444006638
 30
0.0
 10
-1699.335103015889
 20
4210.019499136792
 30
0.0
 10
-1719.671181381436
 20
4215.333350114436
 30
0.0
 10
-1740.375895832281
 20
4219.442829643193
 30
0.0
 10
-1760.869359741045
 20
4221.574712367661
 30
0.0
 10
-1778.403921528802
 20
4223.398788059445
 30
0.0
 10
-1795.798077114522
 20
4217.024887847965
 30
0.0
 10
-1813.166040378767
 20
4209.964138837708
 30
0.0
 10
-1833.76182087135
 20
4201.591157244187
 30
0.0
 10
-1853.694999914254
 20
4193.662120853375
 30
0.0
 10
-1868.040548284274
 20
4177.958882756879
 30
0.0
 10
-1915.441120499077
 20
4126.072231079291
 30
0.0
 10
-1961.575852172165
 20
4073.869740592467
 30
0.0
 10
-2007.523394564894
 20
4021.103499492824
 30
0.0
 10
-2317.408734603742
 20
3665.230612408391
 30
0.0
 10
-2627.294074642592
 20
3309.35772532396
 30
0.0
 10
-2937.179414681439
 20
2953.484838239527
 30
0.0
  0
SPLINE
  5
A1
330
2539
100
AcDbEntity
  8
Fenceline
100
AcDbSpline
210
0.0
220
0.0
230
1.0
 70
     8
 71
     3
 72
   119
 73
   115
 74
     0
 42
0.0000000001
 43
0.00000001
 40
0.0
 40
0.0
 40
0.0
 40
0.0
 40
0.0584107068651818
 40
0.0584107068651818
 40
0.0584107068651818
 40
0.1071482365205083
 40
0.1071482365205083
 40
0.1071482365205083
 40
0.1172196166549246
 40
0.1172196166549246
 40
0.1172196166549246
 40
0.1301191123982077
 40
0.1301191123982077
 40
0.1301191123982077
 40
0.1473684996191926
 40
0.1473684996191926
 40
0.1473684996191926
 40
0.1654934967466498
 40
0.1654934967466498
 40
0.1654934967466498
 40
0.1940674355774767
 40
0.1940674355774767
 40
0.1940674355774767
 40
0.2080966774002149
 40
0.2080966774002149
 40
0.2080966774002149
 40
0.2311755707490475
 40
0.2311755707490475
 40
0.2311755707490475
 40
0.2449337410295607
 40
0.2449337410295607
 40
0.2449337410295607
 40
0.2637092778372205
 40
0.2637092778372205
 40
0.2637092778372205
 40
0.2776428917905734
 40
0.2776428917905734
 40
0.2776428917905734
 40
0.2975098926156868
 40
0.2975098926156868
 40
0.2975098926156868
 40
0.3071870151278709
 40
0.3071870151278709
 40
0.3071870151278709
 40
0.3272493422872771
 40
0.3272493422872771
 40
0.3272493422872771
 40
0.3425765902358758
 40
0.3425765902358758
 40
0.3425765902358758
 40
0.3619495357131798
 40
0.3619495357131798
 40
0.3619495357131798
 40
0.3714494544387672
 40
0.3714494544387672
 40
0.3714494544387672
 40
0.3832531833938676
 40
0.3832531833938676
 40
0.3832531833938676
 40
0.3973774056535421
 40
0.3973774056535421
 40
0.3973774056535421
 40
0.4105949388409149
 40
0.4105949388409149
 40
0.4105949388409149
 40
0.4304212386219751
 40
0.4304212386219751
 40
0.4304212386219751
 40
0.4635660718248321
 40
0.4635660718248321
 40
0.4635660718248321
 40
0.5031525848468329
 40
0.5031525848468329
 40
0.5031525848468329
 40
0.5396514544671807
 40
0.5396514544671807
 40
0.5396514544671807
 40
0.5705169416307897
 40
0.5705169416307897
 40
0.5705169416307897
 40
0.609933513814565
 40
0.609933513814565
 40
0.609933513814565
 40
0.6498221407550302
 40
0.6498221407550302
 40
0.6498221407550302
 40
0.7181258704709038
 40
0.7181258704709038
 40
0.7181258704709038
 40
0.7643872366267116
 40
0.7643872366267116
 40
0.7643872366267116
 40
0.842091880342509
 40
0.842091880342509
 40
0.842091880342509
 40
0.8756077680676341
 40
0.8756077680676341
 40
0.8756077680676341
 40
0.8797014140698061
 40
0.8797014140698061
 40
0.8797014140698061
 40
0.8899435826200391
 40
0.8899435826200391
 40
0.8899435826200391
 40
0.9209818933217999
 40
0.9209818933217999
 40
0.9209818933217999
 40
0.9607916493811779
 40
0.9607916493811779
 40
0.9607916493811779
 40
0.9938632881630048
 40
0.9938632881630048
 40
0.9938632881630048
 40
1.0
 40
1.0
 40
1.0
 40
1.0
 10
-2482.245591439595
 20
3346.167625495736
 30
0.0
 10
-2624.402686679322
 20
3083.848311072376
 30
0.0
 10
-2766.559781919048
 20
2821.528996649017
 30
0.0
 10
-2908.716877158775
 20
2559.209682225658
 30
0.0
 10
-3027.331871169251
 20
2340.332081662082
 30
0.0
 10
-3131.020141473442
 20
2113.58317484786
 30
0.0
 10
-3218.46036779475
 20
1879.613289135021
 30
0.0
 10
-3236.529477258222
 20
1831.264518163564
 30
0.0
 10
-3251.241447985274
 20
1782.090946348181
 30
0.0
 10
-3265.094503175831
 20
1732.493427438317
 30
0.0
 10
-3282.837595391307
 20
1668.968570316808
 30
0.0
 10
-3299.4688300454
 20
1605.24959959187
 30
0.0
 10
-3315.394298790476
 20
1541.328035096911
 30
0.0
 10
-3336.690059688923
 20
1455.851219592798
 30
0.0
 10
-3340.93416449317
 20
1366.108215385522
 30
0.0
 10
-3369.24584604602
 20
1282.541742031513
 30
0.0
 10
-3398.994679453541
 20
1194.733284253343
 30
0.0
 10
-3432.629087745503
 20
1108.57012154329
 30
0.0
 10
-3465.236749788262
 20
1021.908651828733
 30
0.0
 10
-3516.642514659508
 20
885.2874144734966
 30
0.0
 10
-3570.383625356932
 20
749.5665892348892
 30
0.0
 10
-3621.152856718777
 20
612.7409135659436
 30
0.0
 10
-3646.079550519964
 20
545.5621986227919
 30
0.0
 10
-3656.743399409329
 20
473.8411346127826
 30
0.0
 10
-3679.764527290263
 20
405.900484564327
 30
0.0
 10
-3717.635579899308
 20
294.1342867661462
 30
0.0
 10
-3764.298354396359
 20
186.1736091732502
 30
0.0
 10
-3809.995808158683
 20
77.09015469062234
 30
0.0
 10
-3837.237727463264
 20
12.06152793306973
 30
0.0
 10
-3864.5116055223
 20
-52.43716641842087
 30
0.0
 10
-3904.635944201533
 20
-111.3050167409571
 30
0.0
 10
-3959.392934585785
 20
-191.6409529870784
 30
0.0
 10
-4058.984145864724
 20
-228.1393249279703
 30
0.0
 10
-4120.641875845016
 20
-301.3638214901673
 30
0.0
 10
-4166.399023328276
 20
-355.7048439322007
 30
0.0
 10
-4209.744877973786
 20
-412.5523261734348
 30
0.0
 10
-4255.572548950291
 20
-466.8451621011869
 30
0.0
 10
-4320.91513560091
 20
-544.2576567910402
 30
0.0
 10
-4408.950651976435
 20
-605.6375199798001
 30
0.0
 10
-4457.301977957514
 20
-694.8591424491295
 30
0.0
 10
-4480.853681068837
 20
-738.318574447548
 30
0.0
 10
-4504.405384180152
 20
-781.7780064459682
 30
0.0
 10
-4527.957087291472
 20
-825.2374384443879
 30
0.0
 10
-4576.783788863721
 20
-915.3362608801365
 30
0.0
 10
-4625.610490435967
 20
-1005.435083315885
 30
0.0
 10
-4674.437192008214
 20
-1095.533905751634
 30
0.0
 10
-4711.739891518783
 20
-1164.367744437293
 30
0.0
 10
-4735.769657361057
 20
-1240.4541976427
 30
0.0
 10
-4749.748551555176
 20
-1318.007494687492
 30
0.0
 10
-4767.417239108471
 20
-1416.031340864736
 30
0.0
 10
-4774.737167639898
 20
-1514.459399259147
 30
0.0
 10
-4782.140286519244
 20
-1613.106491882445
 30
0.0
 10
-4785.770556771749
 20
-1661.480104637134
 30
0.0
 10
-4776.506888675531
 20
-1710.822615008372
 30
0.0
 10
-4786.939667204808
 20
-1758.604311976121
 30
0.0
 10
-4799.902482315687
 20
-1817.973472525142
 30
0.0
 10
-4820.832154535372
 20
-1874.211942371326
 30
0.0
 10
-4839.581554946559
 20
-1931.655228978725
 30
0.0
 10
-4862.016897171935
 20
-2000.391282683051
 30
0.0
 10
-4875.081561214654
 20
-2073.074614762262
 30
0.0
 10
-4909.456396184378
 20
-2136.505730370444
 30
0.0
 10
-4941.62457604374
 20
-2195.864954563405
 30
0.0
 10
-4973.792755903101
 20
-2255.224178756365
 30
0.0
 10
-5005.960935762463
 20
-2314.583402949326
 30
0.0
 10
-5054.213205551508
 20
-2403.622239238771
 30
0.0
 10
-5102.465475340551
 20
-2492.661075528216
 30
0.0
 10
-5150.717745129596
 20
-2581.699911817661
 30
0.0
 10
-5231.384004163214
 20
-2730.551558871307
 30
0.0
 10
-5353.604461612624
 20
-2853.46397074766
 30
0.0
 10
-5471.211422787235
 20
-2975.728497297242
 30
0.0
 10
-5611.675231173978
 20
-3121.755066287988
 30
0.0
 10
-5752.699272712865
 20
-3266.120396595705
 30
0.0
 10
-5898.120020702954
 20
-3406.706924529962
 30
0.0
 10
-6032.198334648764
 20
-3536.328074809051
 30
0.0
 10
-6169.300964046027
 20
-3662.464383186272
 30
0.0
 10
-6304.082442163065
 20
-3791.442638268327
 30
0.0
 10
-6418.061204409293
 20
-3900.513870282606
 30
0.0
 10
-6557.397302424684
 20
-3993.186836636822
 30
0.0
 10
-6632.516201575576
 20
-4131.802064334524
 30
0.0
 10
-6728.446309370467
 20
-4308.819750767114
 30
0.0
 10
-6824.376417165351
 20
-4485.837437199708
 30
0.0
 10
-6920.306524960239
 20
-4662.855123632299
 30
0.0
 10
-7017.385496321528
 20
-4841.992782357488
 30
0.0
 10
-7114.464467682818
 20
-5021.130441082678
 30
0.0
 10
-7211.543439044107
 20
-5200.268099807866
 30
0.0
 10
-7377.777684982261
 20
-5507.016442932383
 30
0.0
 10
-7584.552503950059
 20
-5790.376231029121
 30
0.0
 10
-7757.275171664646
 20
-6093.426658408382
 30
0.0
 10
-7874.258337998175
 20
-6298.679385352924
 30
0.0
 10
-7978.057893854432
 20
-6511.445785489967
 30
0.0
 10
-8095.041060187961
 20
-6716.698512434509
 30
0.0
 10
-8291.536235667154
 20
-7061.458975521681
 30
0.0
 10
-8499.245239392309
 20
-7399.461230425456
 30
0.0
 10
-8700.164731476154
 20
-7742.225294640182
 30
0.0
 10
-8786.826156282383
 20
-7890.067705892276
 30
0.0
 10
-8866.565448764977
 20
-8042.24671216235
 30
0.0
 10
-8944.872671120589
 20
-8193.77939296522
 30
0.0
 10
-8954.437151416212
 20
-8212.287664566275
 30
0.0
 10
-8959.748860114762
 20
-8241.007264543314
 30
0.0
 10
-8944.955503245774
 20
-8256.510455813956
 30
0.0
 10
-8907.943007686676
 20
-8295.298933854358
 30
0.0
 10
-8867.146017981349
 20
-8326.302468302423
 30
0.0
 10
-8825.96013283124
 20
-8358.851957908835
 30
0.0
 10
-8701.14864456619
 20
-8457.491339464863
 30
0.0
 10
-8556.939855986533
 20
-8532.58627603005
 30
0.0
 10
-8449.185200823496
 20
-8649.138351163037
 30
0.0
 10
-8310.979015006189
 20
-8798.628113149192
 30
0.0
 10
-8179.679766541427
 20
-8953.687298421111
 30
0.0
 10
-8044.366181340233
 20
-9105.512235690181
 30
0.0
 10
-7931.955494739363
 20
-9231.639596931658
 30
0.0
 10
-7854.129483717027
 20
-9401.957146402387
 30
0.0
 10
-7705.606548835885
 20
-9482.445268467258
 30
0.0
 10
-7678.046909032029
 20
-9497.380494830592
 30
0.0
 10
-7650.487269228128
 20
-9512.315721193809
 30
0.0
 10
-7622.927629424251
 20
-9527.250947557086
 30
0.0
  0
SPLINE
  5
A2
330
2539
100
AcDbEntity
  8
Fenceline
100
AcDbSpline
210
0.0
220
0.0
230
1.0
 70
     8
 71
     3
 72
    41
 73
    37
 74
     0
 42
0.0000000001
 43
0.00000001
 40
0.0
 40
0.0
 40
0.0
 40
0.0
 40
0.0730446295233014
 40
0.0730446295233014
 40
0.0730446295233014
 40
0.1253406799526402
 40
0.1253406799526402
 40
0.1253406799526402
 40
0.1737221639482937
 40
0.1737221639482937
 40
0.1737221639482937
 40
0.2597186390887529
 40
0.2597186390887529
 40
0.2597186390887529
 40
0.3635773945252279
 40
0.3635773945252279
 40
0.3635773945252279
 40
0.4683907773260331
 40
0.4683907773260331
 40
0.4683907773260331
 40
0.5689711785095195
 40
0.5689711785095195
 40
0.5689711785095195
 40
0.6470727169596565
 40
0.6470727169596565
 40
0.6470727169596565
 40
0.7475794737567137
 40
0.7475794737567137
 40
0.7475794737567137
 40
0.8570040818163683
 40
0.8570040818163683
 40
0.8570040818163683
 40
0.9460892035476978
 40
0.9460892035476978
 40
0.9460892035476978
 40
1.0
 40
1.0
 40
1.0
 40
1.0
 10
-7431.739989041644
 20
-9667.884771231838
 30
0.0
 10
-7313.548262281407
 20
-9715.480274712507
 30
0.0
 10
-7195.356535521174
 20
-9763.075778193186
 30
0.0
 10
-7077.164808760939
 20
-9810.671281673858
 30
0.0
 10
-6992.545849867977
 20
-9844.747118138208
 30
0.0
 10
-6906.533712234121
 20
-9875.003727592955
 30
0.0
 10
-6821.434972346668
 20
-9908.118848505437
 30
0.0
 10
-6742.706210076596
 20
-9938.755171502835
 30
0.0
 10
-6664.980920210891
 20
-9972.496506893554
 30
0.0
 10
-6598.83788162307
 20
-10028.74952297804
 30
0.0
 10
-6481.270835226912
 20
-10128.73738403083
 30
0.0
 10
-6397.414850089032
 20
-10251.11714058109
 30
0.0
 10
-6307.510993442054
 20
-10371.74991328353
 30
0.0
 10
-6198.933256447096
 20
-10517.43925249497
 30
0.0
 10
-6114.687720461404
 20
-10678.59282222108
 30
0.0
 10
-5998.580646401661
 20
-10818.90866397689
 30
0.0
 10
-5881.40636342319
 20
-10960.51423178061
 30
0.0
 10
-5746.207904877057
 20
-11082.68724113876
 30
0.0
 10
-5604.961823654948
 20
-11200.88808101504
 30
0.0
 10
-5469.420090955467
 20
-11314.3152749219
 30
0.0
 10
-5333.172204694881
 20
-11423.69353553734
 30
0.0
 10
-5183.237010793874
 20
-11515.82173857578
 30
0.0
 10
-5066.811055302549
 20
-11587.36007315472
 30
0.0
 10
-4940.613172490205
 20
-11640.22682838062
 30
0.0
 10
-4823.901707197162
 20
-11710.55411308158
 30
0.0
 10
-4673.708880136205
 20
-11801.05639306098
 30
0.0
 10
-4519.422842229806
 20
-11886.84017610469
 30
0.0
 10
-4381.763982401103
 20
-11995.41148160283
 30
0.0
 10
-4231.890807077077
 20
-12113.61619668132
 30
0.0
 10
-4082.06117196222
 20
-12231.86568938777
 30
0.0
 10
-3932.219440370732
 20
-12350.10443399234
 30
0.0
 10
-3810.229797127196
 20
-12446.36534955089
 30
0.0
 10
-3702.900343505624
 20
-12564.88269669282
 30
0.0
 10
-3566.277216320732
 20
-12638.92202904865
 30
0.0
 10
-3483.598296909755
 20
-12683.72770813991
 30
0.0
 10
-3400.919377497482
 20
-12728.5333872283
 30
0.0
 10
-3318.240458085856
 20
-12773.33906631813
 30
0.0
  0
SPLINE
  5
A4
330
2539
100
AcDbEntity
  8
Stone Wall
100
AcDbSpline
210
0.0
220
0.0
230
1.0
 70
     8
 71
     3
 72
    50
 73
    46
 74
     0
 42
0.0000000001
 43
0.00000001
 40
0.0
 40
0.0
 40
0.0
 40
0.0
 40
0.0641037286983284
 40
0.0641037286983284
 40
0.0641037286983284
 40
0.1030670656576508
 40
0.1030670656576508
 40
0.1030670656576508
 40
0.147426100238251
 40
0.147426100238251
 40
0.147426100238251
 40
0.2343958683413247
 40
0.2343958683413247
 40
0.2343958683413247
 40
0.2964982557339034
 40
0.2964982557339034
 40
0.2964982557339034
 40
0.4355741691787068
 40
0.4355741691787068
 40
0.4355741691787068
 40
0.4544741637445678
 40
0.4544741637445678
 40
0.4544741637445678
 40
0.4852281111195412
 40
0.4852281111195412
 40
0.4852281111195412
 40
0.5348308805597478
 40
0.5348308805597478
 40
0.5348308805597478
 40
0.6083945632376622
 40
0.6083945632376622
 40
0.6083945632376622
 40
0.7545846106095153
 40
0.7545846106095153
 40
0.7545846106095153
 40
0.9658771093068111
 40
0.9658771093068111
 40
0.9658771093068111
 40
0.9878733853846956
 40
0.9878733853846956
 40
0.9878733853846956
 40
0.9997860202596196
 40
0.9997860202596196
 40
0.9997860202596196
 40
1.0
 40
1.0
 40
1.0
 40
1.0
 10
4351.885310438269
 20
2255.319675515766
 30
0.0
 10
4149.275556904462
 20
1990.853955701159
 30
0.0
 10
3946.665803370668
 20
1726.388235886542
 30
0.0
 10
3744.05604983687
 20
1461.922516071925
 30
0.0
 10
3620.906394450469
 20
1301.175751966839
 30
0.0
 10
3500.309186323615
 20
1138.485177335921
 30
0.0
 10
3380.3232317443
 20
975.3563076574386
 30
0.0
 10
3243.721453669521
 20
789.6371230117126
 30
0.0
 10
3118.313086136064
 20
595.8167764507191
 30
0.0
 10
2980.13977617467
 20
411.2717826581064
 30
0.0
 10
2709.23891372371
 20
49.45517716899883
 30
0.0
 10
2438.143442135342
 20
-312.2149576602581
 30
0.0
 10
2166.979861627397
 20
-673.8349127799295
 30
0.0
 10
1973.350441993842
 20
-932.0563963086989
 30
0.0
 10
1779.642988443058
 20
-1190.2179000225
 30
0.0
 10
1586.010768781494
 20
-1448.437911119656
 30
0.0
 10
1152.378843304268
 20
-2026.71171702097
 30
0.0
 10
719.8424862911379
 20
-2605.82818507973
 30
0.0
 10
300.5833328085491
 20
-3194.745557802891
 30
0.0
 10
243.6072862291157
 20
-3274.777641493834
 30
0.0
 10
190.7862726136755
 20
-3357.651776436082
 30
0.0
 10
135.0992391956979
 20
-3438.569047895128
 30
0.0
 10
44.48566313158972
 20
-3570.237102058116
 30
0.0
 10
-43.84198743353136
 20
-3703.560107492361
 30
0.0
 10
-139.183120422158
 20
-3831.871704761126
 30
0.0
 10
-292.9579897142667
 20
-4038.824343985789
 30
0.0
 10
-448.9390834220731
 20
-4244.034816586182
 30
0.0
 10
-604.5488410100406
 20
-4449.566610145475
 30
0.0
 10
-835.3268188926559
 20
-4754.381760836697
 30
0.0
 10
-1066.723879537614
 20
-5058.724538232441
 30
0.0
 10
-1297.268431416684
 20
-5363.711308821872
 30
0.0
 10
-1755.420031956965
 20
-5969.798834856553
 30
0.0
 10
-2205.841092718449
 20
-6581.726658031268
 30
0.0
 10
-2661.848602170588
 20
-7189.408731875631
 30
0.0
 10
-3320.928805160002
 20
-8067.708356948818
 30
0.0
 10
-4012.043776870028
 20
-8921.774165018707
 30
0.0
 10
-4667.708977534592
 20
-9802.692936236075
 30
0.0
 10
-4735.96598077606
 20
-9894.399611169425
 30
0.0
 10
-4799.812848366697
 20
-9989.259804526002
 30
0.0
 10
-4866.111478795241
 20
-10082.43066449443
 30
0.0
 10
-4902.017164567063
 20
-10132.8896800049
 30
0.0
 10
-4926.299299912922
 20
-10182.30521818961
 30
0.0
 10
-4976.542700623078
 20
-10231.77040048106
 30
0.0
 10
-4977.445193644368
 20
-10232.65891481695
 30
0.0
 10
-4978.543678463098
 20
-10233.65509951357
 30
0.0
 10
-4979.555388861251
 20
-10233.2036651701
 30
0.0
  0
SPLINE
  5
A5
330
2539
100
AcDbEntity
  8
Stone Wall
100
AcDbSpline
210
0.0
220
0.0
230
1.0
 70
     8
 71
     3
 72
    14
 73
    10
 74
     0
 42
0.0000000001
 43
0.00000001
 40
0.0
 40
0.0
 40
0.0
 40
0.0
 40
0.2915689691515603
 40
0.2915689691515603
 40
0.2915689691515603
 40
0.782248596514033
 40
0.782248596514033
 40
0.782248596514033
 40
1.0
 40
1.0
 40
1.0
 40
1.0
 10
-4979.555388861251
 20
-10233.2036651701
 30
0.0
 10
-5290.88997884237
 20
-10008.99166047338
 30
0.0
 10
-5602.22456882349
 20
-9784.779655776652
 30
0.0
 10
-5913.559158804598
 20
-9560.567651079913
 30
0.0
 10
-6437.502228060263
 20
-9183.242645490578
 30
0.0
 10
-6957.390368552449
 20
-8800.313526661448
 30
0.0
 10
-7477.865294212733
 20
-8418.218837581688
 30
0.0
 10
-7708.839109349466
 20
-8248.654726556979
 30
0.0
 10
-7939.812924486198
 20
-8079.090615532271
 30
0.0
 10
-8170.786739622931
 20
-7909.526504507565
 30
0.0
  0
LWPOLYLINE
  5
A7
330
2539
100
AcDbEntity
  8
Structures
100
AcDbPolyline
 90
        4
 70
   129
 43
0.0
 10
2320.04449
 20
120.04836
 10
2561.802548
 20
-29.518508
 10
2672.511346
 20
140.535621
 10
2440.079226
 20
307.311431
  0
LWPOLYLINE
  5
A8
330
2539
100
AcDbEntity
  8
Structures
100
AcDbPolyline
 90
        4
 70
   129
 43
0.0
 10
2060.133241
 20
338.820584
 10
2273.450215
 20
212.087581
 10
2387.508147
 20
395.168661
 10
2171.563505
 20
530.746624
  0
LWPOLYLINE
  5
A9
330
2539
100
AcDbEntity
  8
Structures
100
AcDbPolyline
 90
        4
 70
   129
 43
0.0
 10
2296.871281
 20
789.361743
 10
2561.129027
 20
790.862954
 10
2562.366877
 20
1005.400074
 10
2295.240974
 20
1005.453186
  0
LWPOLYLINE
  5
AA
330
2539
100
AcDbEntity
  8
Structures
100
AcDbPolyline
 90
        4
 70
   129
 43
0.0
 10
1690.391794
 20
-603.636081
 10
1967.992963
 20
-817.152967
 10
2102.127996
 20
-644.952147
 10
1820.344835
 20
-425.458457
  0
LWPOLYLINE
  5
AB
330
2539
100
AcDbEntity
  8
Structures
100
AcDbPolyline
 90
        4
 70
   129
 43
0.0
 10
1149.522873
 20
-1423.67083
 10
1400.237282
 20
-1611.485694
 10
1575.377076
 20
-1391.007179
 10
1329.085147
 20
-1201.87848
  0
LWPOLYLINE
  5
AC
330
2539
100
AcDbEntity
  8
Structures
100
AcDbPolyline
 90
        4
 70
   129
 43
0.0
 10
609.405657
 20
-1468.622262
 10
759.382686
 20
-1568.450801
 10
981.392652
 20
-1254.636935
 10
820.183483
 20
-1141.300468
  0
LWPOLYLINE
  5
AD
330
2539
100
AcDbEntity
  8
Structures
100
AcDbPolyline
 90
        4
 70
   129
 43
0.0
 10
951.176662
 20
661.504482
 10
1105.928051
 20
529.40475
 10
1331.990912
 20
789.075511
 10
1158.476257
 20
927.633023
  0
LWPOLYLINE
  5
AE
330
2539
100
AcDbEntity
  8
Structures
100
AcDbPolyline
 90
        4
 70
   129
 43
0.0
 10
730.493067
 20
1007.437574
 10
980.005034
 20
783.169524
 10
1140.674945
 20
963.253351
 10
894.271624
 20
1193.257715
  0
LWPOLYLINE
  5
AF
330
2539
100
AcDbEntity
  8
Structures
100
AcDbPolyline
 90
        4
 70
   129
 43
0.0
 10
302.145459
 20
456.657716
 10
559.558136
 20
294.896754
 10
688.678319
 20
492.078131
 10
425.529328
 20
656.947738
  0
LWPOLYLINE
  5
B0
330
2539
100
AcDbEntity
  8
Structures
  6
Continuous
370
     0
100
AcDbPolyline
 90
        4
 70
   129
 43
0.0
 10
593.495045
 20
261.663606
 10
823.780473
 20
118.314029
 10
954.214491
 20
311.072927
 10
719.98756
 20
467.689943
  0
LWPOLYLINE
  5
B1
330
2539
100
AcDbEntity
  8
Structures
100
AcDbPolyline
 90
        4
 70
   129
 43
0.0
 10
365.619668
 20
-97.207917
 10
580.009989
 20
-235.654037
 10
707.094872
 20
-55.922091
 10
496.053686
 20
95.550981
  0
LWPOLYLINE
  5
B2
330
2539
100
AcDbEntity
  8
Structures
100
AcDbPolyline
 90
        4
 70
   129
 43
0.0
 10
-1146.962154
 20
-416.621633
 10
-816.291225
 20
-614.372507
 10
-638.987036
 20
-328.278259
 10
-966.549319
 20
-124.79107
  0
LWPOLYLINE
  5
B3
330
2539
100
AcDbEntity
  8
Structures
100
AcDbPolyline
 90
        4
 70
   129
 43
0.0
 10
-525.622529
 20
-1228.282063
 10
-281.958268
 20
-1408.565802
 10
-146.509401
 20
-1240.787462
 10
-389.933174
 20
-1053.213086
  0
LWPOLYLINE
  5
B4
330
2539
100
AcDbEntity
  8
Structures
100
AcDbPolyline
 90
        4
 70
   129
 43
0.0
 10
619.070938
 20
-2149.167786
 10
888.548613
 20
-2343.44043
 10
1027.587102
 20
-2155.344501
 10
765.640553
 20
-1954.021708
  0
LWPOLYLINE
  5
B5
330
2539
100
AcDbEntity
  8
Structures
100
AcDbPolyline
 90
        4
 70
   129
 43
0.0
 10
790.750206
 20
-1900.840557
 10
1010.507255
 20
-2097.852262
 10
1100.047904
 20
-1994.246724
 10
880.531343
 20
-1789.944382
  0
LWPOLYLINE
  5
B6
330
2539
100
AcDbEntity
  8
Structures
100
AcDbPolyline
 90
        4
 70
   129
 43
0.0
 10
23.684159
 20
-2453.584899
 10
291.718903
 20
-2691.601365
 10
444.136225
 20
-2540.439599
 10
182.799748
 20
-2276.369229
  0
LWPOLYLINE
  5
B7
330
2539
100
AcDbEntity
  8
Structures
100
AcDbPolyline
 90
        4
 70
   129
 43
0.0
 10
29.331953
 20
-2901.903382
 10
304.064965
 20
-3113.865946
 10
465.215854
 20
-2919.200845
 10
190.72333
 20
-2699.947644
  0
LWPOLYLINE
  5
B8
330
2539
100
AcDbEntity
  8
Structures
100
AcDbPolyline
 90
        4
 70
   129
 43
0.0
 10
-135.806182
 20
-2111.130037
 10
-21.079897
 20
-2173.302949
 10
102.544461
 20
-1965.722289
 10
-16.363816
 20
-1897.572575
  0
LWPOLYLINE
  5
B9
330
2539
100
AcDbEntity
  8
Structures
100
AcDbPolyline
 90
        4
 70
   129
 43
0.0
 10
-890.536503
 20
-1935.884019
 10
-690.005991
 20
-2051.977251
 10
-482.92918
 20
-1704.09738
 10
-684.773526
 20
-1583.581668
  0
LWPOLYLINE
  5
BA
330
2539
100
AcDbEntity
  8
Structures
100
AcDbPolyline
 90
        4
 70
   129
 43
0.0
 10
-1664.154017
 20
-2377.473994
 10
-1505.109244
 20
-2556.426195
 10
-1233.636846
 20
-2336.205872
 10
-1401.045602
 20
-2145.300066
  0
LWPOLYLINE
  5
BB
330
2539
100
AcDbEntity
  8
Structures
100
AcDbPolyline
 90
        4
 70
   129
 43
0.0
 10
-606.57861
 20
-3240.016916
 10
-427.92001
 20
-3355.388683
 10
-311.955874
 20
-3203.024474
 10
-504.714772
 20
-3072.590456
  0
LWPOLYLINE
  5
BC
330
2539
100
AcDbEntity
  8
Structures
100
AcDbPolyline
 90
        4
 70
   129
 43
0.0
 10
-578.68932
 20
-3633.599925
 10
-286.987854
 20
-3862.179063
 10
-42.273119
 20
-3568.090416
 10
-329.792594
 20
-3345.488081
  0
LWPOLYLINE
  5
BD
330
2539
100
AcDbEntity
  8
Structures
100
AcDbPolyline
 90
        4
 70
   129
 43
0.0
 10
-1273.980622
 20
-3869.034467
 10
-891.442377
 20
-4087.472514
 10
-776.903468
 20
-3889.81016
 10
-1160.755547
 20
-3666.949633
  0
LWPOLYLINE
  5
BE
330
2539
100
AcDbEntity
  8
Structures
100
AcDbPolyline
 90
        4
 70
   129
 43
0.0
 10
-1887.009377
 20
-3336.453544
 10
-1661.996989
 20
-3551.155169
 10
-1529.304888
 20
-3422.698171
 10
-1755.871598
 20
-3210.864703
  0
LWPOLYLINE
  5
BF
330
2539
100
AcDbEntity
  8
Structures
100
AcDbPolyline
 90
        4
 70
   129
 43
0.0
 10
-1777.579004
 20
-2983.893001
 10
-1506.417911
 20
-3127.131185
 10
-1417.581023
 20
-2956.355591
 10
-1697.346589
 20
-2808.454438
  0
LWPOLYLINE
  5
C0
330
2539
100
AcDbEntity
  8
Structures
100
AcDbPolyline
 90
        4
 70
   129
 43
0.0
 10
-2226.477321
 20
-2299.076966
 10
-2044.727779
 20
-2497.754386
 10
-1866.016067
 20
-2346.00025
 10
-2052.780457
 20
-2122.342273
  0
LWPOLYLINE
  5
C1
330
2539
100
AcDbEntity
  8
Structures
100
AcDbPolyline
 90
        4
 70
   129
 43
0.0
 10
-2677.616017
 20
-1460.917064
 10
-2482.728132
 20
-1703.819283
 10
-2285.253154
 20
-1558.522927
 10
-2472.369425
 20
-1301.279922
  0
LWPOLYLINE
  5
C2
330
2539
100
AcDbEntity
  8
Structures
100
AcDbPolyline
 90
        4
 70
   129
 43
0.0
 10
-3631.585886
 20
-687.91479
 10
-3361.979115
 20
-834.021132
 10
-3254.490354
 20
-628.827653
 10
-3519.674645
 20
-481.407476
  0
LWPOLYLINE
  5
C3
330
2539
100
AcDbEntity
  8
Structures
100
AcDbPolyline
 90
        4
 70
   129
 43
0.0
 10
-4121.959605
 20
-1216.212665
 10
-3914.396649
 20
-1428.87899
 10
-3769.510453
 20
-1284.767372
 10
-3977.313897
 20
-1079.391684
  0
LWPOLYLINE
  5
C4
330
2539
100
AcDbEntity
  8
Structures
100
AcDbPolyline
 90
        4
 70
   129
 43
0.0
 10
-3165.392307
 20
-2751.271304
 10
-2940.121727
 20
-2869.640324
 10
-2848.89766
 20
-2715.000327
 10
-3073.927751
 20
-2589.340669
  0
LWPOLYLINE
  5
C5
330
2539
100
AcDbEntity
  8
Structures
100
AcDbPolyline
 90
        4
 70
   129
 43
0.0
 10
-3771.183536
 20
-2486.056772
 10
-3571.984564
 20
-2686.769492
 10
-3421.121565
 20
-2538.475882
 10
-3618.525727
 20
-2327.604368
  0
LWPOLYLINE
  5
C6
330
2539
100
AcDbEntity
  8
Structures
100
AcDbPolyline
 90
        4
 70
   129
 43
0.0
 10
-2759.645444
 20
-3460.938799
 10
-2491.352507
 20
-3602.622661
 10
-2378.367921
 20
-3407.828464
 10
-2646.420369
 20
-3258.853965
  0
LWPOLYLINE
  5
C7
330
2539
100
AcDbEntity
  8
Structures
100
AcDbPolyline
 90
        4
 70
   129
 43
0.0
 10
-2245.858028
 20
-3594.663671
 10
-2026.711051
 20
-3854.422952
 10
-1849.79415
 20
-3712.827611
 10
-2073.363607
 20
-3454.382164
  0
LWPOLYLINE
  5
C8
330
2539
100
AcDbEntity
  8
Structures
100
AcDbPolyline
 90
        4
 70
   129
 43
0.0
 10
-2309.944511
 20
-4917.969994
 10
-1997.684967
 20
-5142.848117
 10
-1834.979756
 20
-4945.314859
 10
-2146.758322
 20
-4705.855462
  0
LWPOLYLINE
  5
C9
330
2539
100
AcDbEntity
  8
Structures
100
AcDbPolyline
 90
        4
 70
   129
 43
0.0
 10
-1088.121501
 20
-4424.74928
 10
-818.069191
 20
-4571.09707
 10
-703.332758
 20
-4377.972722
 10
-978.142934
 20
-4215.609543
  0
LWPOLYLINE
  5
CA
330
2539
100
AcDbEntity
  8
Structures
100
AcDbPolyline
 90
        4
 70
   129
 43
0.0
 10
-1491.086841
 20
-4461.675506
 10
-1152.283902
 20
-4406.774378
 10
-1175.839481
 20
-4239.483694
 10
-1522.214667
 20
-4283.562747
  0
LWPOLYLINE
  5
CB
330
2539
100
AcDbEntity
  8
Structures
100
AcDbPolyline
 90
        4
 70
   129
 43
0.0
 10
-2588.687056
 20
-205.769939
 10
-2388.089014
 20
-314.478804
 10
-2252.805629
 20
-71.40323
 10
-2467.37367
 20
37.766449
  0
LWPOLYLINE
  5
CC
330
2539
100
AcDbEntity
  8
Structures
100
AcDbPolyline
 90
        4
 70
   129
 43
0.0
 10
-2173.739368
 20
205.692676
 10
-1998.54685
 20
174.74043
 10
-1942.509247
 20
389.662562
 10
-2122.736789
 20
437.563132
  0
LWPOLYLINE
  5
CD
330
2539
100
AcDbEntity
  8
Structures
100
AcDbPolyline
 90
        4
 70
   129
 43
0.0
 10
-26.612193
 20
933.19852
 10
239.467344
 20
830.938052
 10
324.905334
 20
1031.584079
 10
64.379253
 20
1135.494373
  0
LWPOLYLINE
  5
CE
330
2539
100
AcDbEntity
  8
Structures
100
AcDbPolyline
 90
        4
 70
   129
 43
0.0
 10
1420.239458
 20
1118.265238
 10
1549.294541
 20
1029.689706
 10
1675.698415
 20
1194.157217
 10
1541.693855
 20
1299.393115
  0
LWPOLYLINE
  5
CF
330
2539
100
AcDbEntity
  8
Structures
100
AcDbPolyline
 90
        4
 70
   129
 43
0.0
 10
-2616.891185
 20
2593.198172
 10
-2422.402592
 20
2487.800163
 10
-2250.642874
 20
2804.744537
 10
-2458.190193
 20
2903.241254
  0
LWPOLYLINE
  5
105
330
2539
100
AcDbEntity
  8
Stone Wall
100
AcDbPolyline
 90
        8
 70
   128
 43
0.0
 10
-4970.694821
 20
-7334.878768
 10
-5347.360744
 20
-7815.217776
 42
-0.396907
 10
-5363.601876
 20
-7817.674219
 10
-6316.832512
 20
-7157.718701
 42
-0.441048
 10
-6319.203667
 20
-7140.190935
 10
-5329.230353
 20
-5956.001459
 42
0.555236
 10
-5335.575517
 20
-5936.686489
 10
-6886.653777
 20
-5557.631239
  0
LWPOLYLINE
  5
10D
330
2539
100
AcDbEntity
  8
Stone Wall
100
AcDbPolyline
 90
        4
 70
   128
 43
0.0
 10
-6086.369259
 20
-4492.523699
 10
-4951.171465
 20
-4671.586019
 42
-0.304862
 10
-4941.378705
 20
-4680.67734
 10
-4772.48124
 20
-5399.743629
  0
LWPOLYLINE
  5
111
330
2539
100
AcDbEntity
  8
Stone Wall
100
AcDbPolyline
 90
        4
 70
   128
 43
0.0
 10
-4941.378705
 20
-4680.67734
 10
-4794.852428
 20
-4575.766839
 42
-0.150532
 10
-4788.164756
 20
-4573.531647
 10
-4163.333583
 20
-4558.699293
  0
LWPOLYLINE
  5
115
330
2539
100
AcDbEntity
  8
Stone Wall
100
AcDbPolyline
 90
        4
 70
   128
 43
0.0
 10
-4659.625011
 20
-2477.243817
 10
-4289.344687
 20
-2889.441639
 42
0.414214
 10
-4272.432253
 20
-2890.347641
 10
-3239.138573
 20
-1962.132355
  0
LWPOLYLINE
  5
119
330
2539
100
AcDbEntity
  8
Stone Wall
100
AcDbPolyline
 90
        4
 70
   128
 43
0.0
 10
-3489.775389
 20
-1777.931365
 10
-3363.74364
 20
-1737.358422
 42
-0.220421
 10
-3353.749189
 20
-1738.588449
 10
-3050.837198
 20
-1926.966335
  0
LWPOLYLINE
  5
11D
330
2539
100
AcDbEntity
  8
Stone Wall
100
AcDbPolyline
 90
        4
 70
   128
 43
0.0
 10
-3720.224809
 20
-1608.566734
 10
-3008.784298
 20
-485.810823
 10
-3008.784298
 20
-485.810823
 10
-2546.893889
 20
-533.956426
  0
SPLINE
  5
11E
330
2539
100
AcDbEntity
  8
Stone Wall
100
AcDbSpline
210
0.0
220
0.0
230
1.0
 70
     8
 71
     3
 72
    26
 73
    22
 74
     0
 42
0.0000000001
 43
0.00000001
 40
0.0
 40
0.0
 40
0.0
 40
0.0
 40
0.2187728924864585
 40
0.2187728924864585
 40
0.2187728924864585
 40
0.3437834479567354
 40
0.3437834479567354
 40
0.3437834479567354
 40
0.565271282329494
 40
0.565271282329494
 40
0.565271282329494
 40
0.6717139347756271
 40
0.6717139347756271
 40
0.6717139347756271
 40
0.9390297892515163
 40
0.9390297892515163
 40
0.9390297892515163
 40
0.9606643801622702
 40
0.9606643801622702
 40
0.9606643801622702
 40
1.0
 40
1.0
 40
1.0
 40
1.0
 10
-2580.186638567406
 20
-1935.553447225865
 30
0.0
 10
-2491.269563125255
 20
-1862.615712599074
 30
0.0
 10
-2402.352487683108
 20
-1789.67797797228
 30
0.0
 10
-2313.435412240959
 20
-1716.740243345488
 30
0.0
 10
-2262.626681481486
 20
-1675.062379983128
 30
0.0
 10
-2209.742461060615
 20
-1635.840379979244
 30
0.0
 10
-2156.81883092991
 20
-1596.997230183963
 30
0.0
 10
-2063.051227220784
 20
-1528.176760616342
 30
0.0
 10
-1926.500343969309
 20
-1532.216294500606
 30
0.0
 10
-1837.127953252589
 20
-1456.263663278368
 30
0.0
 10
-1794.177358018858
 20
-1419.76233781978
 30
0.0
 10
-1756.943772487235
 20
-1378.515387289097
 30
0.0
 10
-1719.37549196504
 20
-1336.626560550628
 30
0.0
 10
-1625.028002700223
 20
-1231.428622926396
 30
0.0
 10
-1535.144467370001
 20
-1123.457847386608
 30
0.0
 10
-1446.467449071542
 20
-1015.313360740203
 30
0.0
 10
-1439.290579529577
 20
-1006.56093663713
 30
0.0
 10
-1441.461756221064
 20
-986.9806854221724
 30
0.0
 10
-1430.21129137049
 20
-985.3162358263361
 30
0.0
 10
-1409.755900733084
 20
-982.2899638339067
 30
0.0
 10
-1389.300510095674
 20
-979.2636918415233
 30
0.0
 10
-1368.845119458268
 20
-976.2374198491118
 30
0.0
  0
SPLINE
  5
11F
330
2539
100
AcDbEntity
  8
Stone Wall
100
AcDbSpline
210
0.0
220
0.0
230
1.0
 70
     8
 71
     3
 72
    32
 73
    28
 74
     0
 42
0.0000000001
 43
0.00000001
 40
0.0
 40
0.0
 40
0.0
 40
0.0
 40
0.2473795120651083
 40
0.2473795120651083
 40
0.2473795120651083
 40
0.2911774093389168
 40
0.2911774093389168
 40
0.2911774093389168
 40
0.332055446794466
 40
0.332055446794466
 40
0.332055446794466
 40
0.4624395302876686
 40
0.4624395302876686
 40
0.4624395302876686
 40
0.5605919980856403
 40
0.5605919980856403
 40
0.5605919980856403
 40
0.6659095243910321
 40
0.6659095243910321
 40
0.6659095243910321
 40
0.7736282146383112
 40
0.7736282146383112
 40
0.7736282146383112
 40
0.9148721893003103
 40
0.9148721893003103
 40
0.9148721893003103
 40
1.0
 40
1.0
 40
1.0
 40
1.0
 10
-1368.845119458268
 20
-976.2374198491118
 30
0.0
 10
-1281.305577038336
 20
-973.11084836065
 30
0.0
 10
-1188.503062854644
 20
-947.5532377629919
 30
0.0
 10
-1106.226492198473
 20
-966.8577053837156
 30
0.0
 10
-1091.659639998152
 20
-970.275511016526
 30
0.0
 10
-1078.956378640417
 20
-981.6360305664895
 30
0.0
 10
-1065.321321861389
 20
-989.0251931578765
 30
0.0
 10
-1052.595268867631
 20
-995.9217449098367
 30
0.0
 10
-1039.869215873874
 20
-1002.818296661797
 30
0.0
 10
-1027.143162880116
 20
-1009.714848413757
 30
0.0
 10
-986.5523013965776
 20
-1031.712004720994
 30
0.0
 10
-971.8082942391557
 20
-1086.840374829563
 30
0.0
 10
-963.1895556722393
 20
-1132.56993548518
 30
0.0
 10
-956.7014135847694
 20
-1166.994913668195
 30
0.0
 10
-966.2343222270765
 20
-1202.735414376783
 30
0.0
 10
-959.6875056535555
 20
-1236.776417614286
 30
0.0
 10
-952.6627762487124
 20
-1273.302389241479
 30
0.0
 10
-946.5204075558158
 20
-1310.513056654405
 30
0.0
 10
-929.9358672336639
 20
-1344.624525822171
 30
0.0
 10
-912.9732113061473
 20
-1379.513711982006
 30
0.0
 10
-894.463257184997
 20
-1412.075465940918
 30
0.0
 10
-874.9551655692076
 20
-1444.9775610049
 30
0.0
 10
-849.3755712429183
 20
-1488.119774031029
 30
0.0
 10
-827.6198253246839
 20
-1533.836236315813
 30
0.0
 10
-795.8886690640311
 20
-1572.494799311912
 30
0.0
 10
-776.7642860954593
 20
-1595.794333614378
 30
0.0
 10
-757.6399031268711
 20
-1619.093867916827
 30
0.0
 10
-738.5155201582957
 20
-1642.393402219288
 30
0.0
  0
SPLINE
  5
120
330
2539
100
AcDbEntity
  8
Stone Wall
100
AcDbSpline
210
0.0
220
0.0
230
1.0
 70
     8
 71
     3
 72
    35
 73
    31
 74
     0
 42
0.0000000001
 43
0.00000001
 40
0.0
 40
0.0
 40
0.0
 40
0.0
 40
0.2354295563943773
 40
0.2354295563943773
 40
0.2354295563943773
 40
0.4499505608526134
 40
0.4499505608526134
 40
0.4499505608526134
 40
0.5916252550865901
 40
0.5916252550865901
 40
0.5916252550865901
 40
0.6595367737754475
 40
0.6595367737754475
 40
0.6595367737754475
 40
0.6976233423000997
 40
0.6976233423000997
 40
0.6976233423000997
 40
0.7563753000429203
 40
0.7563753000429203
 40
0.7563753000429203
 40
0.8212775978639579
 40
0.8212775978639579
 40
0.8212775978639579
 40
0.8548715493857224
 40
0.8548715493857224
 40
0.8548715493857224
 40
0.9267027279193775
 40
0.9267027279193775
 40
0.9267027279193775
 40
1.0
 40
1.0
 40
1.0
 40
1.0
 10
-1944.786821920251
 20
-2088.62821890672
 30
0.0
 10
-1860.875333269496
 20
-2092.736274391206
 30
0.0
 10
-1776.963844618741
 20
-2096.844329875695
 30
0.0
 10
-1693.052355967986
 20
-2100.952385360178
 30
0.0
 10
-1616.593065526169
 20
-2104.695603511705
 30
0.0
 10
-1540.350889777105
 20
-2090.434126052375
 30
0.0
 10
-1464.009929925358
 20
-2084.22276894282
 30
0.0
 10
-1413.592572558237
 20
-2080.120643272204
 30
0.0
 10
-1363.3046713314
 20
-2075.420159274998
 30
0.0
 10
-1312.971978316506
 20
-2070.413210574961
 30
0.0
 10
-1288.845089313334
 20
-2068.013138409249
 30
0.0
 10
-1265.670516283577
 20
-2061.276235380477
 30
0.0
 10
-1242.333616168813
 20
-2053.215278752452
 30
0.0
 10
-1229.245667871762
 20
-2048.694481943386
 30
0.0
 10
-1217.452325853174
 20
-2041.537037993217
 30
0.0
 10
-1208.28142203113
 20
-2030.790046841947
 30
0.0
 10
-1194.134477985293
 20
-2014.211846325583
 30
0.0
 10
-1190.394539801987
 20
-1992.689564696886
 30
0.0
 10
-1178.314063356494
 20
-1975.491948851461
 30
0.0
 10
-1164.96896456817
 20
-1956.494032385469
 30
0.0
 10
-1151.99540442455
 20
-1938.348391861761
 30
0.0
 10
-1133.486530955437
 20
-1922.407086645846
 30
0.0
 10
-1123.906189135208
 20
-1914.15573881077
 30
0.0
 10
-1113.201706723754
 20
-1909.457484278141
 30
0.0
 10
-1101.363697948008
 20
-1906.236096544074
 30
0.0
 10
-1076.051459186734
 20
-1899.348068581602
 30
0.0
 10
-1049.70202067727
 20
-1893.68477261807
 30
0.0
 10
-1024.754968646214
 20
-1899.5734577695
 30
0.0
 10
-999.2987406174188
 20
-1905.582332558311
 30
0.0
 10
-973.842512588627
 20
-1911.591207347135
 30
0.0
 10
-948.3862845598324
 20
-1917.600082135946
 30
0.0
  0
SPLINE
  5
121
330
2539
100
AcDbEntity
  8
Stone Wall
100
AcDbSpline
210
0.0
220
0.0
230
1.0
 70
     8
 71
     3
 72
    11
 73
     7
 74
     0
 42
0.0000000001
 43
0.00000001
 40
0.0
 40
0.0
 40
0.0
 40
0.0
 40
0.3664023737418679
 40
0.3664023737418679
 40
0.3664023737418679
 40
1.0
 40
1.0
 40
1.0
 40
1.0
 10
-3265.807526640757
 20
-1034.403995778267
 30
0.0
 10
-3187.886870671073
 20
-1045.633376450754
 30
0.0
 10
-3109.351514602885
 20
-1053.58673734945
 30
0.0
 10
-3032.045558731708
 20
-1068.092137795754
 30
0.0
 10
-2898.365010662713
 20
-1093.175455889039
 30
0.0
 10
-2766.810390541709
 20
-1129.588822590156
 30
0.0
 10
-2634.192806446708
 20
-1160.337164987353
 30
0.0
  0
SPLINE
  5
122
330
2539
100
AcDbEntity
  8
Stone Wall
100
AcDbSpline
210
0.0
220
0.0
230
1.0
 70
     8
 71
     3
 72
    20
 73
    16
 74
     0
 42
0.0000000001
 43
0.00000001
 40
0.0
 40
0.0
 40
0.0
 40
0.0
 40
0.3724435496016796
 40
0.3724435496016796
 40
0.3724435496016796
 40
0.6765582725111904
 40
0.6765582725111904
 40
0.6765582725111904
 40
0.8014025009469273
 40
0.8014025009469273
 40
0.8014025009469273
 40
0.8936820244947932
 40
0.8936820244947932
 40
0.8936820244947932
 40
1.0
 40
1.0
 40
1.0
 40
1.0
 10
-3204.446741280089
 20
-614.6829361060974
 30
0.0
 10
-3166.981850279483
 20
-545.5498090845316
 30
0.0
 10
-3129.516959278878
 20
-476.4166820629661
 30
0.0
 10
-3092.052068278272
 20
-407.2835550413999
 30
0.0
 10
-3061.460519686091
 20
-350.8336533300754
 30
0.0
 10
-3053.653663191277
 20
-283.2556286594789
 30
0.0
 10
-3044.55282836477
 20
-220.6134437648137
 30
0.0
 10
-3040.816782009742
 20
-194.8977692131734
 30
0.0
 10
-3042.472428332776
 20
-167.9159717586359
 30
0.0
 10
-3053.395841326681
 20
-142.0363016466514
 30
0.0
 10
-3061.469961846501
 20
-122.9071544090666
 30
0.0
 10
-3073.568373810687
 20
-103.4345585191699
 30
0.0
 10
-3092.42280749161
 20
-98.52759619084944
 30
0.0
 10
-3114.145559638385
 20
-92.87413938299392
 30
0.0
 10
-3135.868311785163
 20
-87.2206825751594
 30
0.0
 10
-3157.591063931939
 20
-81.56722576730803
 30
0.0
  0
SPLINE
  5
123
330
2539
100
AcDbEntity
  8
Stone Wall
100
AcDbSpline
210
0.0
220
0.0
230
1.0
 70
     8
 71
     3
 72
     8
 73
     4
 74
     0
 42
0.0000000001
 43
0.00000001
 40
0.0
 40
0.0
 40
0.0
 40
0.0
 40
1.0
 40
1.0
 40
1.0
 40
1.0
 10
-3047.983892991659
 20
-247.335169954174
 30
0.0
 10
-2899.523491520532
 20
-314.5358594580994
 30
0.0
 10
-2751.063090049406
 20
-381.7365489620254
 30
0.0
 10
-2602.602688578279
 20
-448.9372384659506
 30
0.0
  0
SPLINE
  5
124
330
2539
100
AcDbEntity
  8
Stone Wall
100
AcDbSpline
210
0.0
220
0.0
230
1.0
 70
     8
 71
     3
 72
     8
 73
     4
 74
     0
 42
0.0000000001
 43
0.00000001
 40
0.0
 40
0.0
 40
0.0
 40
0.0
 40
1.0
 40
1.0
 40
1.0
 40
1.0
 10
-1032.581799028878
 20
1333.021308025657
 30
0.0
 10
-799.7329254117367
 20
1206.834947802739
 30
0.0
 10
-566.8840517945955
 20
1080.648587579821
 30
0.0
 10
-334.0351781774543
 20
954.462227356902
 30
0.0
  0
SPLINE
  5
125
330
2539
100
AcDbEntity
  8
Stone Wall
100
AcDbSpline
210
0.0
220
0.0
230
1.0
 70
     8
 71
     3
 72
    14
 73
    10
 74
     0
 42
0.0000000001
 43
0.00000001
 40
0.0
 40
0.0
 40
0.0
 40
0.0
 40
0.4002242460848611
 40
0.4002242460848611
 40
0.4002242460848611
 40
0.5735650695042459
 40
0.5735650695042459
 40
0.5735650695042459
 40
1.0
 40
1.0
 40
1.0
 40
1.0
 10
-978.148844681823
 20
1389.963356611389
 30
0.0
 10
-881.0714563434722
 20
1412.008019140464
 30
0.0
 10
-783.9940680051222
 20
1434.052681669538
 30
0.0
 10
-686.9166796667714
 20
1456.097344198613
 30
0.0
 10
-644.8715647228728
 20
1465.645091473229
 30
0.0
 10
-604.8726507843085
 20
1487.65366063371
 30
0.0
 10
-572.1131555858565
 20
1515.685190078397
 30
0.0
 10
-491.5216781574336
 20
1584.645421572819
 30
0.0
 10
-410.9302007290326
 20
1653.605653067259
 30
0.0
 10
-330.3387233006133
 20
1722.56588456168
 30
0.0
  0
SPLINE
  5
126
330
2539
100
AcDbEntity
  8
Stone Wall
100
AcDbSpline
210
0.0
220
0.0
230
1.0
 70
     8
 71
     3
 72
     8
 73
     4
 74
     0
 42
0.0000000001
 43
0.00000001
 40
0.0
 40
0.0
 40
0.0
 40
0.0
 40
1.0
 40
1.0
 40
1.0
 40
1.0
 10
-1672.452198434941
 20
2740.643827280565
 30
0.0
 10
-1291.155137672226
 20
2569.371902006502
 30
0.0
 10
-909.858076909507
 20
2398.099976732443
 30
0.0
 10
-528.5610161467894
 20
2226.828051458383
 30
0.0
  0
LWPOLYLINE
  5
127
330
2539
100
AcDbEntity
  8
Stone Wall
100
AcDbPolyline
 90
        4
 70
   128
 43
0.0
 10
-1553.07809
 20
2235.89109
 10
-1368.219217
 20
2135.711656
 42
0.385026
 10
-1352.610593
 20
2139.505587
 10
-1165.383312
 20
2414.772583
  0
POINT
  5
12B
330
2539
100
AcDbEntity
  8
Stone Wall
100
AcDbPoint
 10
-1165.383312
 20
2414.772583
 30
0.0
  0
LWPOLYLINE
  5
12C
330
2539
100
AcDbEntity
  8
Stone Wall
100
AcDbPolyline
 90
        3
 70
   128
 43
0.0
 10
1300.690767
 20
1215.867282
 10
98.777187
 20
2079.385225
 10
98.777187
 20
2079.385225
  0
LWPOLYLINE
  5
12D
330
2539
100
AcDbEntity
  8
Stone Wall
100
AcDbPolyline
 90
        4
 70
   128
 43
0.0
 10
1413.11957
 20
-483.502192
 10
1621.621954
 20
-207.512065
 10
1621.621954
 20
-207.512065
 10
1621.621954
 20
-207.512065
  0
LWPOLYLINE
  5
12E
330
2539
100
AcDbEntity
  8
Stone Wall
100
AcDbPolyline
 90
        3
 70
   128
 43
0.0
 10
512.115192
 20
739.518383
 10
642.557588
 20
523.451222
 10
642.557588
 20
523.451222
  0
LWPOLYLINE
  5
12F
330
2539
100
AcDbEntity
  8
Stone Wall
100
AcDbPolyline
 90
        5
 70
   128
 43
0.0
 10
-317.772004
 20
-164.288469
 10
-215.567268
 20
24.307649
 42
0.360664
 10
-218.539662
 20
39.304517
 10
-429.146308
 20
210.607059
 10
-429.146308
 20
210.607059
  0
LWPOLYLINE
  5
133
330
2539
100
AcDbEntity
  8
Stone Wall
100
AcDbPolyline
 90
        3
 70
   128
 43
0.0
 10
-347.947733
 20
786.863548
 10
-207.12635
 20
975.514113
 10
-207.12635
 20
975.514113
  0
LINE
  5
134
330
2539
100
AcDbEntity
  8
Stone Wall
100
AcDbLine
 10
-431.574891
 20
276.528275
 30
0.0
 11
-308.727169
 21
503.216432
 31
0.0
  0
LINE
  5
135
330
2539
100
AcDbEntity
  8
Stone Wall
100
AcDbLine
 10
-2333.92955
 20
-3889.659341
 30
0.0
 11
-2202.272617
 21
-3744.264647
 31
0.0
  0
LINE
  5
136
330
2539
100
AcDbEntity
  8
Stone Wall
100
AcDbLine
 10
-2856.747728
 20
-3010.729732
 30
0.0
 11
-2646.854274
 21
-2763.238125
 31
0.0
  0
LINE
  5
137
330
2539
100
AcDbEntity
  8
Stone Wall
100
AcDbLine
 10
-3423.948128
 20
-3130.527137
 30
0.0
 11
-3354.832649
 21
-2892.276615
 31
0.0
  0
LWPOLYLINE
  5
138
330
2539
100
AcDbEntity
  8
Stone Wall
100
AcDbPolyline
 90
       10
 70
   128
 43
0.0
 10
-1842.024337
 20
-1460.308297
 10
-2509.664375
 20
-567.314628
 42
-0.378826
 10
-2508.360531
 20
-551.4984
 10
-2019.903073
 20
-83.225894
 42
-0.231019
 10
-2009.898517
 20
-80.018614
 10
-1672.195478
 20
-128.93226
 42
0.414214
 10
-1658.626394
 20
-118.79662
 10
-1629.435761
 20
82.737439
 42
0.414214
 10
-1639.571401
 20
96.306523
 10
-1878.909612
 20
130.972792
  0
LWPOLYLINE
  5
142
330
2539
100
AcDbEntity
  8
Stone Wall
100
AcDbPolyline
 90
        4
 70
   128
 43
0.0
 10
-2618.50446
 20
260.228843
 10
-2440.11604
 20
956.041577
 42
-0.473739
 10
-2423.30766
 20
963.852005
 10
-2220.70203
 20
866.020505
  0
LWPOLYLINE
  5
146
330
2539
100
AcDbEntity
  8
Stone Wall
100
AcDbPolyline
 90
        4
 70
   128
 43
0.0
 10
-1725.924294
 20
1236.037358
 10
-1862.266828
 20
955.064804
 42
0.414214
 10
-1856.720674
 20
939.061948
 10
-1717.819028
 20
871.659626
  0
LWPOLYLINE
  5
14A
330
2539
100
AcDbEntity
  8
Stone Wall
100
AcDbPolyline
 90
        9
 70
   128
 43
0.0
 10
-3090.877898
 20
-2075.619004
 10
-3240.256635
 20
-1963.188395
 42
0.001636
 10
-3240.319391
 20
-1963.141483
 10
-3489.751985
 20
-1777.948741
 42
0.001217
 10
-3489.798877
 20
-1777.914102
 10
-3720.224809
 20
-1608.566734
 10
-3853.347486
 20
-1510.730633
 42
-0.012231
 10
-3853.810931
 20
-1510.372249
 10
-4157.084484
 20
-1263.763859
  0
LWPOLYLINE
  5
152
330
2539
100
AcDbEntity
  8
Stone Wall
100
AcDbPolyline
 90
       10
 70
   128
 43
0.0
 10
-2920.4737
 20
1670.645724
 10
-3465.255828
 20
140.720819
 42
-0.030911
 10
-3465.837209
 20
139.360491
 10
-3855.94722
 20
-636.892487
 10
-4077.286282
 20
-1077.319805
 42
0.003412
 10
-4077.358674
 20
-1077.466335
 10
-4363.094769
 20
-1665.913075
 42
-0.016
 10
-4363.451357
 20
-1666.591312
 10
-4450.191193
 20
-1819.48775
 10
-4450.191193
 20
-1819.48775
  0
LINE
  5
15A
330
2539
100
AcDbEntity
  8
Stone Wall
100
AcDbLine
 10
-4480.682289
 20
-1873.957723
 30
0.0
 11
-4506.347756
 21
-1921.317638
 31
0.0
  0
LINE
  5
15B
330
2539
100
AcDbEntity
  8
Stone Wall
100
AcDbLine
 10
-4541.131028
 20
-1978.324169
 30
0.0
 11
-4574.536875
 21
-2039.967232
 31
0.0
  0
LINE
  5
15C
330
2539
100
AcDbEntity
  8
Stone Wall
100
AcDbLine
 10
-4692.010707
 20
-2202.90209
 30
0.0
 11
-4731.192066
 21
-2275.202578
 31
0.0
  0
LINE
  5
15D
330
2539
100
AcDbEntity
  8
Stone Wall
100
AcDbLine
 10
-4764.962422
 20
-2326.750866
 30
0.0
 11
-4813.034251
 21
-2415.456737
 31
0.0
  0
LINE
  5
15E
330
2539
100
AcDbEntity
  8
Stone Wall
100
AcDbLine
 10
-4616.274946
 20
-2099.039901
 30
0.0
 11
-4652.939899
 21
-2166.696922
 31
0.0
  0
LINE
  5
15F
330
2539
100
AcDbEntity
  8
Stone Wall
100
AcDbLine
 10
-4851.047434
 20
-2489.190748
 30
0.0
 11
-4893.415825
 21
-2567.372194
 31
0.0
  0
LINE
  5
160
330
2539
100
AcDbEntity
  8
Stone Wall
100
AcDbLine
 10
-4950.630013
 20
-2631.67324
 30
0.0
 11
-5019.478649
 21
-2758.71809
 31
0.0
  0
LINE
  5
161
330
2539
100
AcDbEntity
  8
Stone Wall
100
AcDbLine
 10
-5097.275908
 20
-2832.28756
 30
0.0
 11
-5146.875781
 21
-2886.127212
 31
0.0
  0
LINE
  5
162
330
2539
100
AcDbEntity
  8
Stone Wall
100
AcDbLine
 10
-5204.904746
 20
-2951.931747
 30
0.0
 11
-5290.0058
 21
-3049.746142
 31
0.0
  0
LINE
  5
163
330
2539
100
AcDbEntity
  8
Stone Wall
100
AcDbLine
 10
-5396.164986
 20
-3182.829506
 30
0.0
 11
-5450.183099
 21
-3243.027471
 31
0.0
  0
LINE
  5
164
330
2539
100
AcDbEntity
  8
Stone Wall
100
AcDbLine
 10
-5529.609912
 20
-3319.60392
 30
0.0
 11
-5634.479259
 21
-3425.18325
 31
0.0
  0
LINE
  5
165
330
2539
100
AcDbEntity
  8
Stone Wall
100
AcDbLine
 10
-5714.410329
 20
-3517.046721
 30
0.0
 11
-5824.905588
 21
-3656.336779
 31
0.0
  0
LINE
  5
166
330
2539
100
AcDbEntity
  8
Stone Wall
100
AcDbLine
 10
-5911.592297
 20
-3753.488016
 30
0.0
 11
-6011.082649
 21
-3904.773152
 31
0.0
  0
LINE
  5
167
330
2539
100
AcDbEntity
  8
Stone Wall
100
AcDbLine
 10
-6090.165105
 20
-3982.508734
 30
0.0
 11
-6198.807097
 21
-4156.064886
 31
0.0
  0
LINE
  5
168
330
2539
100
AcDbEntity
  8
Stone Wall
100
AcDbLine
 10
-6269.595806
 20
-4272.333182
 30
0.0
 11
-6377.233925
 21
-4438.653211
 31
0.0
  0
LINE
  5
169
330
2539
100
AcDbEntity
  8
Stone Wall
100
AcDbLine
 10
-6489.113466
 20
-4588.5732
 30
0.0
 11
-6590.548531
 21
-4752.419703
 31
0.0
  0
LINE
  5
16A
330
2539
100
AcDbEntity
  8
Stone Wall
100
AcDbLine
 10
-6728.724055
 20
-4942.901032
 30
0.0
 11
-6775.630485
 21
-5029.456421
 31
0.0
  0
LINE
  5
16B
330
2539
100
AcDbEntity
  8
Stone Wall
100
AcDbLine
 10
-6899.398681
 20
-5242.109919
 30
0.0
 11
-6992.306962
 21
-5413.551496
 31
0.0
  0
LINE
  5
16C
330
2539
100
AcDbEntity
  8
Stone Wall
100
AcDbLine
 10
-7102.518075
 20
-5602.808996
 30
0.0
 11
-7195.426356
 21
-5774.250573
 31
0.0
  0
LINE
  5
16D
330
2539
100
AcDbEntity
  8
Stone Wall
100
AcDbLine
 10
-7311.831824
 20
-5951.653473
 30
0.0
 11
-7392.637111
 21
-6100.761664
 31
0.0
  0
POINT
  5
16E
330
2539
100
AcDbEntity
  8
Stone Wall
100
AcDbPoint
 10
-7862.817691
 20
-6325.231644
 30
0.0
  0
LINE
  5
16F
330
2539
100
AcDbEntity
  8
Stone Wall
100
AcDbLine
 10
-7484.5132
 20
-6227.724634
 30
0.0
 11
-7550.011758
 21
-6348.587661
 31
0.0
  0
LINE
  5
170
330
2539
100
AcDbEntity
  8
Stone Wall
100
AcDbLine
 10
-7614.762656
 20
-6510.644975
 30
0.0
 11
-7680.973156
 21
-6632.821731
 31
0.0
  0
HATCH
  5
172
330
2539
100
AcDbEntity
  8
Pond
 62
   136
100
AcDbHatch
 10
0.0
 20
0.0
 30
0.0
210
0.0
220
0.0
230
1.0
  2
SOLID
 70
     1
 71
     0
 91
        1
 92
        1
 93
        1
 72
     2
 10
2767.817320880669
 20
1499.344403560668
 40
124.2395528445509
 50
151.5456793598711
 51
511.5456793598712
 73
     1
 97
        0
 75
     0
 76
     1
 98
        0
  0
LWPOLYLINE
  5
173
330
2539
100
AcDbEntity
  8
Stone Wall
100
AcDbPolyline
 90
        4
 70
   128
 43
0.0
 10
616.626158
 20
-2140.88696
 10
475.740094
 20
-2033.424548
 42
-0.398234
 10
473.097091
 20
-2017.172304
 10
642.611559
 20
-1767.658985
  0
LWPOLYLINE
  5
177
330
2539
100
AcDbEntity
  8
Structures
100
AcDbPolyline
 90
        4
 70
   129
 43
0.0
 10
38.59911
 20
-499.041059
 10
336.388502
 20
-675.454323
 10
436.953084
 20
-480.63739
 10
147.154738
 20
-301.037621
  0
LWPOLYLINE
  5
179
330
2539
100
AcDbEntity
  8
Sunken Footpath
100
AcDbPolyline
 90
       41
 70
   128
 43
0.0
 10
-4373.488692
 20
-6807.702375
 10
-3608.748247
 20
-5972.858642
 10
-3046.69763
 20
-5359.285188
 10
-2590.95471
 20
-4861.764594
 42
-0.019104
 10
-2590.311465
 20
-4861.11411
 10
-2239.73851
 20
-4532.689799
 42
0.022164
 10
-2238.996936
 20
-4531.930646
 10
-1947.804072
 20
-4206.128173
 42
-0.016511
 10
-1947.257953
 20
-4205.556319
 10
-1358.331486
 20
-3628.296081
 42
0.023953
 10
-1357.551885
 20
-3627.455038
 10
-1249.28234
 20
-3498.810554
 42
0.054252
 10
-1247.838047
 20
-3496.659095
 10
-1157.721544
 20
-3324.743103
 42
0.04363
 10
-1156.917627
 20
-3322.818119
 10
-1095.997077
 20
-3131.583425
 42
0.027741
 10
-1095.664785
 20
-3130.297805
 10
-1026.46135
 20
-2784.407419
 10
-1000.232029
 20
-2653.308869
 42
-0.056096
 10
-999.416003
 20
-2650.757366
 10
-941.976998
 20
-2522.69186
 42
-0.045154
 10
-940.919672
 20
-2520.809854
 10
-788.73628
 20
-2299.368504
 10
-560.795303
 20
-1967.69264
 10
-366.923125
 20
-1685.590131
 10
-201.02168
 20
-1444.187704
 42
-0.026837
 10
-200.238313
 20
-1443.169488
 10
6.717127
 20
-1202.115786
 42
0.035885
 10
7.739239
 20
-1200.736355
 10
129.425873
 20
-1009.187126
 10
623.552438
 20
-231.373163
 10
810.231404
 20
62.481725
 42
-0.034804
 10
811.219904
 20
63.821834
 10
959.053628
 20
237.525333
 42
0.063564
 10
960.710968
 20
240.065174
 10
1020.048833
 20
362.528997
 42
-0.058478
 10
1021.550712
 20
364.882376
 10
1191.379572
 20
572.826812
 10
1361.803787
 20
781.50022
 42
-0.019376
 10
1362.418098
 20
782.195582
 10
1719.019446
 20
1155.634761
  0
LWPOLYLINE
  5
199
330
2539
100
AcDbEntity
  8
Sunken Footpath
100
AcDbPolyline
 90
       29
 70
   128
 43
0.0
 10
1784.454311
 20
1084.275344
 10
1311.625109
 20
608.862042
 42
0.026107
 10
1310.791241
 20
607.931144
 10
1114.127056
 20
363.87179
 42
0.017569
 10
1113.622475
 20
363.198503
 10
838.111814
 20
-32.680144
 10
670.678442
 20
-273.263564
 10
406.893
 20
-652.294357
 42
0.030207
 10
406.140298
 20
-653.528667
 10
154.087854
 20
-1129.269612
 42
-0.035874
 10
153.177737
 20
-1130.724736
 10
-180.589298
 20
-1587.875508
 10
-606.079231
 20
-2170.656402
 42
0.018341
 10
-606.570793
 20
-2171.384302
 10
-866.037377
 20
-2587.745252
 10
-967.42854
 20
-2750.445668
 42
0.109752
 10
-969.154433
 20
-2755.34559
 10
-1011.601124
 20
-3107.278871
 42
-0.042955
 10
-1012.021022
 20
-3109.289427
 10
-1082.62703
 20
-3344.396688
 42
-0.07094
 10
-1084.047012
 20
-3347.465403
 10
-1323.392289
 20
-3716.773637
 42
-0.05981
 10
-1325.219463
 20
-3718.967269
 10
-1655.066269
 20
-4030.474039
 10
-1889.273194
 20
-4251.658666
 42
0.011797
 10
-1889.674722
 20
-4252.056202
 10
-2891.448471
 20
-5291.799188
 10
-3222.497908
 20
-5635.396064
 10
-4338.464489
 20
-6841.965702
  0
LINE
  5
1AF
330
2539
100
AcDbEntity
  8
Stone Wall
100
AcDbLine
 10
-389.749281
 20
-1748.345559
 30
0.0
 11
-383.545646
 21
-1738.062301
 31
0.0
  0
LWPOLYLINE
  5
1B0
330
2539
100
AcDbEntity
  8
Stone Wall
100
AcDbPolyline
 90
       20
 70
   128
 43
0.0
 10
-4397.614722
 20
-6786.050185
 10
-3587.430101
 20
-5889.721385
 42
-0.010808
 10
-3587.074732
 20
-5889.344918
 10
-2856.177761
 20
-5147.838512
 42
0.010101
 10
-2855.845137
 20
-5147.487138
 10
-1970.948708
 20
-4174.050663
 10
-1612.788922
 20
-3780.054498
 10
-1352.437805
 20
-3493.65344
 10
-1225.492584
 20
-3354.006466
 42
0.081682
 10
-1223.379401
 20
-3350.744085
 10
-1124.505326
 20
-3124.360109
 42
0.047368
 10
-1123.79933
 20
-3122.208962
 10
-1063.766568
 20
-2856.809428
 42
0.069031
 10
-1063.488429
 20
-2853.530023
 10
-1071.270486
 20
-2707.475705
 42
-0.100041
 10
-1070.57931
 20
-2702.781412
 10
-1006.80693
 20
-2525.664068
 42
-0.071759
 10
-1005.200813
 20
-2522.644752
 10
-897.723826
 20
-2375.900817
 10
-748.706357
 20
-2160.881989
  0
LWPOLYLINE
  5
1C0
330
2539
100
AcDbEntity
  8
Stone Wall
100
AcDbPolyline
 90
        7
 70
   128
 43
0.0
 10
-748.706357
 20
-2160.881989
 10
-678.398919
 20
-2053.669734
 42
-0.008752
 10
-678.162914
 20
-2053.323229
 10
-161.455767
 20
-1322.519511
 42
-0.020007
 10
-160.871836
 20
-1321.760005
 10
-18.118551
 20
-1150.704405
 10
60.497703
 20
-1056.501664
  0
LINE
  5
1C6
330
2539
100
AcDbEntity
  8
Stone Wall
100
AcDbLine
 10
-802.533165
 20
-2574.169471
 30
0.0
 11
126.741821
 21
-1257.075406
 31
0.0
  0
TEXT
  5
1C8
330
2539
100
AcDbEntity
  8
Structure Numbers
100
AcDbText
 10
-2130.732428
 20
-4973.887262
 30
0.0
 40
119.760434
  1
1
 50
331.445679
  7
Style-Garamond
 11
-2073.487931
 21
-4868.693968
 31
0.0
100
AcDbText
 73
     3
  0
HATCH
  5
2562
330
2539
100
AcDbEntity
  8
Tombs
100
AcDbHatch
 10
0.0
 20
0.0
 30
0.0
210
0.0
220
0.0
230
1.0
  2
SOLID
 70
     1
 71
     1
 91
        1
 92
        3
 72
     1
 73
     1
 93
        8
 10
3312.800882109814
 20
2064.935759645739
 42
0.0
 10
3329.726268069559
 20
2044.814052020929
 42
0.4142135623730954
 10
3346.600264480401
 20
2043.358209872863
 42
0.0
 10
3411.119956124812
 20
2097.628985666209
 42
0.414213562373093
 10
3412.575798272883
 20
2114.502982077063
 42
0.0
 10
3392.870265847761
 20
2137.929860671908
 42
0.4292852979203943
 10
3375.537485358611
 20
2138.979302757618
 42
0.0
 10
3313.797940179627
 20
2081.403355994217
 42
0.3993007574554891
 97
        1
330
1CA
 75
     0
 76
     1
 98
        0
  0
LWPOLYLINE
  5
1CA
102
{ACAD_REACTORS
330
2562
102
}
330
2539
100
AcDbEntity
  8
Tombs
 62
   250
100
AcDbPolyline
 90
        8
 70
   129
 43
0.0
 10
3312.800882
 20
2064.93576
 10
3329.726268
 20
2044.814052
 42
0.414214
 10
3346.600264
 20
2043.35821
 10
3411.119956
 20
2097.628986
 42
0.414214
 10
3412.575798
 20
2114.502982
 10
3392.870266
 20
2137.929861
 42
0.429285
 10
3375.537485
 20
2138.979303
 10
3313.79794
 20
2081.403356
 42
0.399301
  0
HATCH
  5
2563
330
2539
100
AcDbEntity
  8
Tombs
100
AcDbHatch
 10
0.0
 20
0.0
 30
0.0
210
0.0
220
0.0
230
1.0
  2
SOLID
 70
     1
 71
     1
 91
        1
 92
        3
 72
     1
 73
     1
 93
        8
 10
3260.537204125238
 20
2118.565714215489
 42
0.0
 10
3277.427445319048
 20
2098.41449688157
 42
0.4142135623730954
 10
3294.298875106761
 20
2096.929206286291
 42
0.0
 10
3358.913188806493
 20
2151.087291372555
 42
0.414213562373093
 10
3360.398479401771
 20
2167.958721160264
 42
0.0
 10
3340.73386458562
 20
2191.419956698631
 42
0.4292852979203943
 10
3323.402942116843
 20
2192.499648579419
 42
0.0
 10
3261.563002039446
 20
2135.031545288683
 42
0.3993007574554891
 97
        1
330
1D3
 75
     0
 76
     1
 98
        0
  0
LWPOLYLINE
  5
1D3
102
{ACAD_REACTORS
330
2563
102
}
330
2539
100
AcDbEntity
  8
Tombs
 62
   250
100
AcDbPolyline
 90
        8
 70
   129
 43
0.0
 10
3260.537204
 20
2118.565714
 10
3277.427445
 20
2098.414497
 42
0.414214
 10
3294.298875
 20
2096.929206
 10
3358.913189
 20
2151.087291
 42
0.414214
 10
3360.398479
 20
2167.958721
 10
3340.733865
 20
2191.419957
 42
0.429285
 10
3323.402942
 20
2192.499649
 10
3261.563002
 20
2135.031545
 42
0.399301
  0
SOLID
  5
1DC
330
2539
100
AcDbEntity
  8
0
  6
Continuous
 62
   253
370
     0
100
AcDbTrace
 10
4193.899461
 20
-1645.687457
 30
0.0
 11
4291.131613
 21
-1597.657086
 31
0.0
 12
4175.731031
 22
-1608.907487
 32
0.0
 13
4272.963183
 23
-1560.877117
 33
0.0
210
0.0
220
0.0
230
-1.0
  0
HATCH
  5
2564
330
2539
100
AcDbEntity
  8
Tombs
  6
DGN Style 2
100
AcDbHatch
 10
0.0
 20
0.0
 30
0.0
210
0.0
220
0.0
230
1.0
  2
SOLID
 70
     1
 71
     1
 91
        1
 92
        3
 72
     0
 73
     1
 93
        4
 10
-4835.270632302421
 20
-3072.961858623629
 10
-4853.954567061526
 20
-3029.140969817306
 10
-4703.253461654445
 20
-2964.886462475087
 10
-4684.569526895359
 20
-3008.707351281384
 97
        1
330
1DD
 75
     0
 76
     1
 98
        0
  0
LWPOLYLINE
  5
1DD
102
{ACAD_REACTORS
330
2564
102
}
330
2539
100
AcDbEntity
  8
Tombs
  6
DGN Style 2
 62
   250
100
AcDbPolyline
 90
        4
 70
   129
 43
0.0
 10
-4853.954567
 20
-3029.14097
 10
-4703.253462
 20
-2964.886462
 10
-4684.569527
 20
-3008.707351
 10
-4835.270632
 20
-3072.961859
  0
HATCH
  5
2565
330
2539
100
AcDbEntity
  8
Tombs
  6
DGN Style 2
100
AcDbHatch
 10
0.0
 20
0.0
 30
0.0
210
0.0
220
0.0
230
1.0
  2
SOLID
 70
     1
 71
     1
 91
        1
 92
        3
 72
     0
 73
     1
 93
        4
 10
-4243.428639317517
 20
-3134.916555774803
 10
-4244.682157833424
 20
-3087.295253764179
 10
-4137.824602102272
 20
-3084.482480508971
 10
-4136.571083586357
 20
-3132.103782519582
 97
        1
330
1DE
 75
     0
 76
     1
 98
        0
  0
LWPOLYLINE
  5
1DE
102
{ACAD_REACTORS
330
2565
102
}
330
2539
100
AcDbEntity
  8
Tombs
  6
DGN Style 2
 62
   250
100
AcDbPolyline
 90
        4
 70
   129
 43
0.0
 10
-4136.571084
 20
-3132.103783
 10
-4243.428639
 20
-3134.916556
 10
-4244.682158
 20
-3087.295254
 10
-4137.824602
 20
-3084.482481
  0
HATCH
  5
2566
330
2539
100
AcDbEntity
  8
Probable graves
  6
DGN Style 2
100
AcDbHatch
 10
0.0
 20
0.0
 30
0.0
210
0.0
220
0.0
230
1.0
  2
SOLID
 70
     1
 71
     1
 91
        1
 92
        3
 72
     0
 73
     1
 93
        4
 10
-3267.698699137209
 20
-3297.681774965053
 10
-3270.159799569381
 20
-3255.925931376977
 10
-3170.409728775649
 20
-3250.046635900135
 10
-3167.948628343477
 20
-3291.802479488212
 97
        1
330
1E0
 75
     0
 76
     1
 98
        0
  0
LWPOLYLINE
  5
1E0
102
{ACAD_REACTORS
330
2566
102
}
330
2539
100
AcDbEntity
  8
Probable graves
  6
DGN Style 2
 62
   250
100
AcDbPolyline
 90
        4
 70
   129
 43
0.0
 10
-3167.948628
 20
-3291.802479
 10
-3267.698699
 20
-3297.681775
 10
-3270.1598
 20
-3255.925931
 10
-3170.409729
 20
-3250.046636
  0
HATCH
  5
2567
330
2539
100
AcDbEntity
  8
Probable graves
  6
DGN Style 2
100
AcDbHatch
 10
0.0
 20
0.0
 30
0.0
210
0.0
220
0.0
230
1.0
  2
SOLID
 70
     1
 71
     1
 91
        1
 92
        3
 72
     0
 73
     1
 93
        4
 10
-2329.998535310609
 20
-3808.419143308907
 10
-2402.721765821195
 20
-3739.62106439368
 10
-2375.120141346233
 20
-3710.444678500207
 10
-2302.396910835653
 20
-3779.242757415448
 97
        1
330
1E1
 75
     0
 76
     1
 98
        0
  0
LWPOLYLINE
  5
1E1
102
{ACAD_REACTORS
330
2567
102
}
330
2539
100
AcDbEntity
  8
Probable graves
  6
DGN Style 2
 62
   250
100
AcDbPolyline
 90
        4
 70
   129
 43
0.0
 10
-2329.998535
 20
-3808.419143
 10
-2402.721766
 20
-3739.621064
 10
-2375.120141
 20
-3710.444679
 10
-2302.396911
 20
-3779.242757
  0
HATCH
  5
2568
330
2539
100
AcDbEntity
  8
Probable graves
  6
DGN Style 2
100
AcDbHatch
 10
0.0
 20
0.0
 30
0.0
210
0.0
220
0.0
230
1.0
  2
SOLID
 70
     1
 71
     1
 91
        1
 92
        3
 72
     0
 73
     1
 93
        4
 10
-2204.845874000547
 20
-3950.05132549332
 10
-2217.373210747697
 20
-3905.003169601584
 10
-2141.137870007837
 20
-3883.803061260216
 10
-2128.610533260686
 20
-3928.851217151952
 97
        1
330
1E2
 75
     0
 76
     1
 98
        0
  0
LWPOLYLINE
  5
1E2
102
{ACAD_REACTORS
330
2568
102
}
330
2539
100
AcDbEntity
  8
Probable graves
  6
DGN Style 2
 62
   250
100
AcDbPolyline
 90
        4
 70
   129
 43
0.0
 10
-2204.845874
 20
-3950.051325
 10
-2217.373211
 20
-3905.00317
 10
-2141.13787
 20
-3883.803061
 10
-2128.610533
 20
-3928.851217
  0
HATCH
  5
2569
330
2539
100
AcDbEntity
  8
Probable graves
  6
DGN Style 2
100
AcDbHatch
 10
0.0
 20
0.0
 30
0.0
210
0.0
220
0.0
230
1.0
  2
SOLID
 70
     1
 71
     1
 91
        1
 92
        3
 72
     0
 73
     1
 93
        4
 10
-4190.106964601559
 20
-1653.840887461877
 10
-4306.5128024404
 20
-1590.757786575873
 10
-4280.563725480202
 20
-1542.874534131533
 10
-4164.157887641362
 20
-1605.957635017537
 97
        1
330
1E3
 75
     0
 76
     1
 98
        0
  0
LWPOLYLINE
  5
1E3
102
{ACAD_REACTORS
330
2569
102
}
330
2539
100
AcDbEntity
  8
Probable graves
  6
DGN Style 2
 62
   250
100
AcDbPolyline
 90
        4
 70
   129
 43
0.0
 10
-4280.563725
 20
-1542.874534
 10
-4164.157888
 20
-1605.957635
 10
-4190.106965
 20
-1653.840887
 10
-4306.512802
 20
-1590.757787
  0
HATCH
  5
256A
330
2539
100
AcDbEntity
  8
Probable graves
  6
DGN Style 2
100
AcDbHatch
 10
0.0
 20
0.0
 30
0.0
210
0.0
220
0.0
230
1.0
  2
SOLID
 70
     1
 71
     1
 91
        1
 92
        3
 72
     0
 73
     1
 93
        4
 10
-3714.603050284282
 20
-973.7040420219797
 10
-3737.419603575312
 20
-919.6525151311662
 10
-3643.540635817581
 20
-880.0237646783277
 10
-3620.724082526551
 20
-934.0752915691412
 97
        1
330
1E4
 75
     0
 76
     1
 98
        0
  0
LWPOLYLINE
  5
1E4
102
{ACAD_REACTORS
330
256A
102
}
330
2539
100
AcDbEntity
  8
Probable graves
  6
DGN Style 2
 62
   250
100
AcDbPolyline
 90
        4
 70
   129
 43
0.0
 10
-3737.419604
 20
-919.652515
 10
-3643.540636
 20
-880.023765
 10
-3620.724083
 20
-934.075292
 10
-3714.60305
 20
-973.704042
  0
HATCH
  5
256B
330
2539
100
AcDbEntity
  8
Probable graves
  6
DGN Style 2
100
AcDbHatch
 10
0.0
 20
0.0
 30
0.0
210
0.0
220
0.0
230
1.0
  2
SOLID
 70
     1
 71
     1
 91
        1
 92
        3
 72
     0
 73
     1
 93
        4
 10
-3665.028580084598
 20
-1048.569313819289
 10
-3687.845133375627
 20
-994.5177869284762
 10
-3593.966165617903
 20
-954.889036475651
 10
-3571.14961232688
 20
-1008.940563366478
 97
        1
330
1E5
 75
     0
 76
     1
 98
        0
  0
LWPOLYLINE
  5
1E5
102
{ACAD_REACTORS
330
256B
102
}
330
2539
100
AcDbEntity
  8
Probable graves
  6
DGN Style 2
 62
   250
100
AcDbPolyline
 90
        4
 70
   129
 43
0.0
 10
-3687.845133
 20
-994.517787
 10
-3593.966166
 20
-954.889036
 10
-3571.149612
 20
-1008.940563
 10
-3665.02858
 20
-1048.569314
  0
HATCH
  5
256C
330
2539
100
AcDbEntity
  8
Probable graves
  6
DGN Style 2
100
AcDbHatch
 10
0.0
 20
0.0
 30
0.0
210
0.0
220
0.0
230
1.0
  2
SOLID
 70
     1
 71
     1
 91
        1
 92
        3
 72
     0
 73
     1
 93
        4
 10
-4979.726178576928
 20
-4097.564611699752
 10
-4986.045284142938
 20
-4050.480731488233
 10
-4854.210419550663
 20
-4032.787235903435
 10
-4847.891313984661
 20
-4079.871116114966
 97
        1
330
1E6
 75
     0
 76
     1
 98
        0
  0
LWPOLYLINE
  5
1E6
102
{ACAD_REACTORS
330
256C
102
}
330
2539
100
AcDbEntity
  8
Probable graves
  6
DGN Style 2
 62
   250
100
AcDbPolyline
 90
        4
 70
   129
 43
0.0
 10
-4847.891314
 20
-4079.871116
 10
-4979.726179
 20
-4097.564612
 10
-4986.045284
 20
-4050.480731
 10
-4854.21042
 20
-4032.787236
  0
HATCH
  5
256D
330
2539
100
AcDbEntity
  8
Probable graves
  6
DGN Style 2
100
AcDbHatch
 10
0.0
 20
0.0
 30
0.0
210
0.0
220
0.0
230
1.0
  2
SOLID
 70
     1
 71
     1
 91
        1
 92
        3
 72
     0
 73
     1
 93
        4
 10
-5072.973378266954
 20
-3993.517568139352
 10
-5079.292483832955
 20
-3946.433687927818
 10
-4947.457619240682
 20
-3928.740192343021
 10
-4941.138513674705
 20
-3975.824072554539
 97
        1
330
1E7
 75
     0
 76
     1
 98
        0
  0
LWPOLYLINE
  5
1E7
102
{ACAD_REACTORS
330
256D
102
}
330
2539
100
AcDbEntity
  8
Probable graves
  6
DGN Style 2
 62
   250
100
AcDbPolyline
 90
        4
 70
   129
 43
0.0
 10
-5079.292484
 20
-3946.433688
 10
-4947.457619
 20
-3928.740192
 10
-4941.138514
 20
-3975.824073
 10
-5072.973378
 20
-3993.517568
  0
HATCH
  5
256E
330
2539
100
AcDbEntity
  8
Probable graves
  6
DGN Style 2
100
AcDbHatch
 10
0.0
 20
0.0
 30
0.0
210
0.0
220
0.0
230
1.0
  2
SOLID
 70
     1
 71
     1
 91
        1
 92
        3
 72
     0
 73
     1
 93
        4
 10
-2666.895028507841
 20
-3166.60576239816
 10
-2700.007901143775
 20
-3075.817631548104
 10
-2630.625101957554
 20
-3050.511858964529
 10
-2597.512229321597
 20
-3141.299989814599
 97
        1
330
1E8
 75
     0
 76
     1
 98
        0
  0
LWPOLYLINE
  5
1E8
102
{ACAD_REACTORS
330
256E
102
}
330
2539
100
AcDbEntity
  8
Probable graves
  6
DGN Style 2
 62
   250
100
AcDbPolyline
 90
        4
 70
   129
 43
0.0
 10
-2700.007901
 20
-3075.817632
 10
-2630.625102
 20
-3050.511859
 10
-2597.512229
 20
-3141.29999
 10
-2666.895029
 20
-3166.605762
  0
HATCH
  5
256F
330
2539
100
AcDbEntity
  8
Probable graves
  6
DGN Style 2
100
AcDbHatch
 10
0.0
 20
0.0
 30
0.0
210
0.0
220
0.0
230
1.0
  2
SOLID
 70
     1
 71
     1
 91
        1
 92
        3
 72
     0
 73
     1
 93
        4
 10
-5732.515045280686
 20
-3900.808524914408
 10
-5842.132432584389
 20
-3825.459207009158
 10
-5815.221961903942
 20
-3786.310140114998
 10
-5705.604574600257
 20
-3861.65945802022
 97
        1
330
1E9
 75
     0
 76
     1
 98
        0
  0
LWPOLYLINE
  5
1E9
102
{ACAD_REACTORS
330
256F
102
}
330
2539
100
AcDbEntity
  8
Probable graves
  6
DGN Style 2
 62
   250
100
AcDbPolyline
 90
        4
 70
   129
 43
0.0
 10
-5732.515045
 20
-3900.808525
 10
-5842.132433
 20
-3825.459207
 10
-5815.221962
 20
-3786.31014
 10
-5705.604575
 20
-3861.659458
  0
CIRCLE
  5
1EA
330
2539
100
AcDbEntity
  8
Key
  6
Continuous
 62
   250
370
    13
100
AcDbCircle
 10
-10544.173669
 20
-8260.41155
 30
0.0
 40
218.0195680082958
  0
LWPOLYLINE
  5
1EB
330
2539
100
AcDbEntity
  8
Key
  6
Continuous
 62
   250
370
    13
100
AcDbPolyline
 90
        4
 70
   128
 43
0.0
 10
-10547.776807
 20
-8042.421758
 10
-10762.125138
 20
-8254.962763
 10
-10326.214904
 20
-8255.262918
 10
-10549.242521
 20
-8042.450914
  0
LINE
  5
1EC
330
2539
100
AcDbEntity
  8
Key
  6
Continuous
 62
   250
370
    13
100
AcDbLine
 10
-10544.176258
 20
-8255.112836
 30
0.0
 11
-10544.173669
 21
-8478.431118
 31
0.0
  0
MTEXT
  5
1EE
330
2539
100
AcDbEntity
  8
1204 Quadrats
  6
Continuous
 62
   250
370
    13
100
AcDbMText
 10
-4437.429213
 20
-3595.421697
 30
0.0
 40
53.307998
 41
0.0
 71
     1
 72
     1
  1
Quadrat W160/S450
  7
Style-Garamond
 11
0.8791972506437497
 21
-0.4764579671497493
 31
0.0
 73
     2
 44
0.63
  0
MTEXT
  5
1F0
330
2539
100
AcDbEntity
  8
1204 Quadrats
  6
Continuous
 62
   250
370
    13
100
AcDbMText
 10
-4731.381165
 20
-4122.043647
 30
0.0
 40
53.307998
 41
0.0
 71
     1
 72
     1
  1
Quadrat W160/S500
  7
Style-Garamond
 11
0.8791972506437497
 21
-0.4764579671497493
 31
0.0
 73
     2
 44
0.63
  0
HATCH
  5
1F3
330
2539
100
AcDbEntity
  8
Grove
  6
Continuous
 62
    96
370
    13
100
AcDbHatch
 10
0.0
 20
0.0
 30
0.0
210
0.0
220
0.0
230
1.0
  2
SOLID
 70
     1
 71
     0
 91
        1
 92
        1
 93
       19
 72
     1
 10
-2431.418956355449
 20
-6715.765740470885
 11
-2433.582746473292
 21
-6708.482236021057
 72
     4
 94
        3
 73
     0
 74
     0
 95
        8
 96
        4
 40
0.0
 40
0.0
 40
0.0
 40
0.0
 40
1.0
 40
1.0
 40
1.0
 40
1.0
 10
-2433.582746473292
 20
-6708.482236021057
 10
-2440.114064098349
 20
-6686.497256704836
 10
-2425.609286142485
 20
-6651.694294830647
 10
-2445.773353083978
 20
-6640.766905854614
 72
     1
 10
-2445.773353083978
 20
-6640.766905854614
 11
-2596.930066166857
 21
-6558.851476542504
 72
     4
 94
        3
 73
     0
 74
     0
 95
       20
 96
       16
 40
0.0
 40
0.0
 40
0.0
 40
0.0
 40
0.1929437994063747
 40
0.1929437994063747
 40
0.1929437994063747
 40
0.3552258894587277
 40
0.3552258894587277
 40
0.3552258894587277
 40
0.5341818623891789
 40
0.5341818623891789
 40
0.5341818623891789
 40
0.7701445711435092
 40
0.7701445711435092
 40
0.7701445711435092
 40
1.0
 40
1.0
 40
1.0
 40
1.0
 10
-2596.930066166857
 20
-6558.851476542504
 10
-2613.778477233765
 20
-6549.720920594142
 10
-2609.083713638166
 20
-6519.242432054144
 10
-2605.874987600822
 20
-6502.06140305082
 10
-2603.176177017907
 20
-6487.610701320638
 10
-2585.356580451607
 20
-6473.841517057573
 10
-2582.83627310679
 20
-6459.548577496255
 10
-2580.057013529655
 20
-6443.787091404929
 10
-2581.938392425303
 20
-6423.009633938781
 10
-2594.341051706711
 20
-6407.482151288446
 10
-2610.694599631795
 20
-6387.008362085934
 10
-2642.370113329391
 20
-6446.92742678335
 10
-2661.1725203383
 20
-6429.318085990884
 10
-2679.488276032846
 20
-6412.164517102393
 10
-2712.29255105733
 20
-6393.971309917097
 10
-2701.415249689448
 20
-6373.899668520741
 72
     1
 10
-2701.415249689447
 20
-6373.89966852074
 11
-2623.339606126337
 21
-6229.828426363603
 72
     4
 94
        3
 73
     0
 74
     0
 95
       62
 96
       58
 40
0.0
 40
0.0
 40
0.0
 40
0.0
 40
0.0510637704392087
 40
0.0510637704392087
 40
0.0510637704392087
 40
0.101236143356467
 40
0.101236143356467
 40
0.101236143356467
 40
0.1295676753499372
 40
0.1295676753499372
 40
0.1295676753499372
 40
0.1753339962624526
 40
0.1753339962624526
 40
0.1753339962624526
 40
0.2386852277065372
 40
0.2386852277065372
 40
0.2386852277065372
 40
0.2757341541595438
 40
0.2757341541595438
 40
0.2757341541595438
 40
0.3441670887728776
 40
0.3441670887728776
 40
0.3441670887728776
 40
0.3921127583002865
 40
0.3921127583002865
 40
0.3921127583002865
 40
0.4291616847532809
 40
0.4291616847532809
 40
0.4291616847532809
 40
0.503259537659255
 40
0.503259537659255
 40
0.503259537659255
 40
0.5680562303256848
 40
0.5680562303256848
 40
0.5680562303256848
 40
0.6182286032429455
 40
0.6182286032429455
 40
0.6182286032429455
 40
0.6552775296959145
 40
0.6552775296959145
 40
0.6552775296959145
 40
0.6988645019935612
 40
0.6988645019935612
 40
0.6988645019935612
 40
0.7499282724327705
 40
0.7499282724327705
 40
0.7499282724327705
 40
0.7917921922460622
 40
0.7917921922460622
 40
0.7917921922460622
 40
0.8655366607914417
 40
0.8655366607914417
 40
0.8655366607914417
 40
0.913482330318849
 40
0.913482330318849
 40
0.913482330318849
 40
1.0
 40
1.0
 40
1.0
 40
1.0
 10
-2623.339606126338
 20
-6229.828426363604
 10
-2613.343044325763
 20
-6211.381994029747
 10
-2580.333331725087
 20
-6223.871324362795
 10
-2561.627851826745
 20
-6217.439786228829
 10
-2543.248905168798
 20
-6211.120520594634
 10
-2524.906498375478
 20
-6195.523474245554
 10
-2506.605501404767
 20
-6189.20420861136
 10
-2496.271222776105
 20
-6185.635820949376
 10
-2486.089954248149
 20
-6215.126556288981
 10
-2475.901794059798
 20
-6205.843280190385
 10
-2459.443996832466
 20
-6190.847218800349
 10
-2452.509396589436
 20
-6171.699869415371
 10
-2449.023293816762
 20
-6156.244983710066
 10
-2444.197716860037
 20
-6134.851827744345
 10
-2497.237705640667
 20
-6113.708986190522
 10
-2493.791636927656
 20
-6092.26313320707
 10
-2491.776314677559
 20
-6079.721217102295
 10
-2484.523386040545
 20
-6064.654047399185
 10
-2472.032851016617
 20
-6052.112131294411
 10
-2448.961630109251
 20
-6028.946004583218
 10
-2412.512471556001
 20
-6056.671072762767
 10
-2388.668616891597
 20
-6039.23569667298
 10
-2371.963070323141
 20
-6027.020075863929
 10
-2362.576927381127
 20
-5999.491197359778
 10
-2360.510188065553
 20
-5987.275576550727
 10
-2358.913162230792
 20
-5977.83623319828
 10
-2404.508395312238
 20
-5976.789663822928
 10
-2400.661189978198
 20
-5965.516790639695
 10
-2392.966779310123
 20
-5942.971044273233
 10
-2379.017577373646
 20
-5907.758446214051
 10
-2357.143618156143
 20
-5885.214786814418
 10
-2338.015395714757
 20
-5865.500928552584
 10
-2321.22836474565
 20
-5848.621472594994
 10
-2297.687381412872
 20
-5831.883010670665
 10
-2279.459491284413
 20
-5818.922343711132
 10
-2260.948454957705
 20
-5810.467059076045
 10
-2242.665030990876
 20
-5803.647433053223
 10
-2229.163950805322
 20
-5798.611597427649
 10
-2215.758695033347
 20
-5831.507479925077
 10
-2202.514029078257
 20
-5825.406218964239
 10
-2186.93206913108
 20
-5818.228264892658
 10
-2188.274901700344
 20
-5789.357386474585
 10
-2176.915457418216
 20
-5778.169746125825
 10
-2163.607443014771
 20
-5765.063006464619
 10
-2132.282276720637
 20
-5751.740092140754
 10
-2118.449388295376
 20
-5754.855849316292
 10
-2107.108687700015
 20
-5757.410259369299
 10
-2120.647133932739
 20
-5796.673438307078
 10
-2109.306433337379
 20
-5805.642346941112
 10
-2089.32947126438
 20
-5821.441330973154
 10
-2039.680453103703
 20
-5834.880675813147
 10
-2019.648862382907
 20
-5820.620001536051
 10
-2006.625132634058
 20
-5811.348288150431
 10
-2009.021585099143
 20
-5780.194359073835
 10
-1991.490433556865
 20
-5768.6598814138
 10
-1959.855576994941
 20
-5747.84598647872
 10
-1922.939068515523
 20
-5714.146077339651
 10
-1891.685161376874
 20
-5731.083315314251
 72
     1
 10
-1891.685161376874
 20
-5731.083315314251
 11
-1768.870331997018
 21
-5797.639601630345
 72
     4
 94
        3
 73
     0
 74
     0
 95
       11
 96
        7
 40
0.0
 40
0.0
 40
0.0
 40
0.0
 40
0.5120708766844995
 40
0.5120708766844995
 40
0.5120708766844995
 40
1.0
 40
1.0
 40
1.0
 40
1.0
 10
-1768.870331997018
 20
-5797.639601630345
 10
-1739.287240330908
 20
-5813.6713848359
 10
-1699.476631821037
 20
-5774.470447244052
 10
-1668.089470843724
 20
-5803.367995181667
 10
-1638.182068106467
 20
-5830.903158521674
 10
-1611.199126066159
 20
-5861.895833689756
 10
-1626.475085471069
 20
-5890.08422056906
 72
     1
 10
-1626.475085471069
 20
-5890.08422056906
 11
-1730.149300694215
 21
-6081.391935564597
 72
     4
 94
        3
 73
     0
 74
     0
 95
       11
 96
        7
 40
0.0
 40
0.0
 40
0.0
 40
0.0
 40
0.5948736295576343
 40
0.5948736295576343
 40
0.5948736295576343
 40
1.0
 40
1.0
 40
1.0
 40
1.0
 10
-1730.149300694215
 20
-6081.391935564597
 10
-1742.834304898589
 20
-6104.799290651147
 10
-1729.684060394701
 20
-6136.914928281823
 10
-1742.369064599076
 20
-6160.322283368372
 10
-1751.007924109768
 20
-6176.263377975173
 10
-1781.469051060513
 20
-6170.452976261193
 10
-1790.107910571207
 20
-6186.394070867993
 72
     1
 10
-1790.107910571207
 20
-6186.394070867993
 11
-1874.583197049324
 21
-6342.274431234722
 72
     4
 94
        3
 73
     0
 74
     0
 95
       20
 96
       16
 40
0.0
 40
0.0
 40
0.0
 40
0.0
 40
0.1413043478261044
 40
0.1413043478261044
 40
0.1413043478261044
 40
0.3478260869565765
 40
0.3478260869565765
 40
0.3478260869565765
 40
0.5217391304348353
 40
0.5217391304348353
 40
0.5217391304348353
 40
0.6956521739130281
 40
0.6956521739130281
 40
0.6956521739130281
 40
1.0
 40
1.0
 40
1.0
 40
1.0
 10
-1874.583197049324
 20
-6342.274431234722
 10
-1880.129554242331
 20
-6352.509000349712
 10
-1841.947565421307
 20
-6352.293366608724
 10
-1843.879489704352
 20
-6358.913502813749
 10
-1846.703071348801
 20
-6368.589086498017
 10
-1854.809285707815
 20
-6394.11256832598
 10
-1868.198132781393
 20
-6403.788152010247
 10
-1879.472951369668
 20
-6411.936011954892
 10
-1896.275971785662
 20
-6380.424241191767
 10
-1905.98731105212
 20
-6383.309294682215
 10
-1915.698650318577
 20
-6386.194348172664
 10
-1916.754829113686
 20
-6418.213419462482
 10
-1926.466168380143
 20
-6421.09847295293
 10
-1943.461012096448
 20
-6426.147316561216
 10
-1980.651230245901
 20
-6363.21678530428
 10
-1992.59723035392
 20
-6385.260472628872
 72
     1
 10
-1992.59723035392
 20
-6385.260472628872
 11
-2024.595444928968
 21
-6444.306063676883
 72
     1
 10
-2024.595444928967
 20
-6444.306063676882
 11
-1951.378912029432
 21
-6483.98384974994
 72
     4
 94
        3
 73
     0
 74
     0
 95
       26
 96
       22
 40
0.0
 40
0.0
 40
0.0
 40
0.0
 40
0.1329677708050024
 40
0.1329677708050024
 40
0.1329677708050024
 40
0.2991774843112421
 40
0.2991774843112421
 40
0.2991774843112421
 40
0.3723097582539493
 40
0.3723097582539493
 40
0.3723097582539493
 40
0.4959769337008862
 40
0.4959769337008862
 40
0.4959769337008862
 40
0.6688350357473933
 40
0.6688350357473933
 40
0.6688350357473933
 40
0.8126616704338642
 40
0.8126616704338642
 40
0.8126616704338642
 40
1.0
 40
1.0
 40
1.0
 40
1.0
 10
-1951.378912029432
 20
-6483.98384974994
 10
-1935.633421083298
 20
-6492.516706969952
 10
-1962.575250391889
 20
-6519.327179485733
 10
-1976.977483689467
 20
-6531.220322588344
 10
-1994.980275311436
 20
-6546.086751466608
 10
-2022.524936488452
 20
-6544.688884497945
 10
-2038.00340997829
 20
-6559.257866681742
 10
-2044.813938313814
 20
-6565.668218842608
 10
-2045.272096055777
 20
-6578.827574581981
 10
-2052.082624391302
 20
-6585.237926742848
 10
-2063.599274389297
 20
-6596.077876092373
 10
-2085.418954142149
 20
-6596.725901657377
 10
-2097.261613197462
 20
-6606.586066958631
 10
-2113.814910869921
 20
-6620.368296994046
 10
-2107.468039699537
 20
-6662.32146434599
 10
-2130.53975635551
 20
-6667.993481648558
 10
-2149.73658498999
 20
-6672.712885314648
 10
-2169.082223522047
 20
-6672.510910110654
 10
-2188.411724906094
 20
-6673.296650857565
 10
-2213.588956567861
 20
-6674.320100786149
 10
-2252.074442603483
 20
-6649.818317019055
 10
-2264.096387533143
 20
-6672.002143627481
 72
     1
 10
-2264.096387533143
 20
-6672.002143627481
 11
-2314.013602270209
 21
-6764.113265662366
 72
     4
 94
        3
 73
     0
 74
     0
 95
       11
 96
        7
 40
0.0
 40
0.0
 40
0.0
 40
0.0
 40
0.5139294320256543
 40
0.5139294320256543
 40
0.5139294320256543
 40
1.0
 40
1.0
 40
1.0
 40
1.0
 10
-2314.013602270209
 20
-6764.113265662366
 10
-2323.486611111421
 20
-6781.593597407746
 10
-2350.02263081237
 20
-6790.052975186057
 10
-2367.756024109187
 20
-6789.987019637916
 10
-2384.528133303092
 20
-6789.924639379562
 10
-2411.999213260546
 20
-6781.134273250384
 10
-2417.354320589506
 20
-6763.108519394881
 72
     1
 10
-2417.354320589506
 20
-6763.108519394881
 11
-2433.582746473292
 21
-6708.482236021057
 72
     1
 10
-2433.582746473292
 20
-6708.482236021057
 11
-2431.418956355449
 21
-6715.765740470885
 97
        0
 75
     0
 76
     1
 98
        0
  0
INSERT
  5
201
330
2539
100
AcDbEntity
  8
Key
 62
   250
100
AcDbBlockReference
  2
AI9-BLK61
 10
-11975.13606
 20
-8215.338302
 30
0.0
 41
1.446546
 42
1.221553
 43
0.426808
 50
360.0
  0
LINE
  5
202
330
2539
100
AcDbEntity
  8
Key
  6
DGN Style 4
 62
   178
370
    13
100
AcDbLine
 10
-12679.136461
 20
-8331.93809
 30
0.0
 11
-12495.590529
 21
-8331.93809
 31
0.0
  0
TEXT
  5
203
330
2539
100
AcDbEntity
  8
Key
  6
DGN Style 6
 62
   250
370
    13
100
AcDbText
 10
-12457.02437
 20
-8359.203061
 30
0.0
 40
47.36185
  1
= Quadrat Boundaries
 41
1.184186
  7
Style-Garamond
 11
-12457.02437
 21
-8311.841212
 31
0.0
100
AcDbText
 73
     3
  0
TEXT
  5
204
330
2539
100
AcDbEntity
  8
Key
  6
Continuous
 62
     1
370
    13
100
AcDbText
 10
-12636.54191
 20
-8249.314316
 30
0.0
 40
63.471611
  1
24
 41
0.987363
  7
Style-Garamond
 11
-12636.54191
 21
-8185.842706
 31
0.0
100
AcDbText
 73
     3
  0
TEXT
  5
206
330
2539
100
AcDbEntity
  8
Key
  6
DGN Style 6
 62
   250
370
    13
100
AcDbText
 10
-12461.120883
 20
-8092.185361
 30
0.0
 40
47.36185
  1
= Pond
 41
1.184186
  7
Style-Garamond
 11
-12461.120883
 21
-8044.823511
 31
0.0
100
AcDbText
 73
     3
  0
TEXT
  5
208
330
2539
100
AcDbEntity
  8
Key
  6
DGN Style 6
 62
   250
370
    13
100
AcDbText
 10
-12463.242273
 20
-7953.556539
 30
0.0
 40
47.36185
  1
= Aqueduct
 41
1.184186
  7
Style-Garamond
 11
-12463.242273
 21
-7906.19469
 31
0.0
100
AcDbText
 73
     3
  0
TEXT
  5
20A
330
2539
100
AcDbEntity
  8
Key
  6
DGN Style 6
 62
   250
370
    13
100
AcDbText
 10
-12459.850295
 20
-7821.269423
 30
0.0
 40
47.36185
  1
= Fence Line
 41
1.184186
  7
Style-Garamond
 11
-12459.850295
 21
-7773.907573
 31
0.0
100
AcDbText
 73
     3
  0
TEXT
  5
20C
330
2539
100
AcDbEntity
  8
Key
  6
DGN Style 6
 62
   250
370
    13
100
AcDbText
 10
-12459.850295
 20
-7704.728821
 30
0.0
 40
47.36185
  1
= Stone Wall
 41
1.184186
  7
Style-Garamond
 11
-12459.850295
 21
-7657.366971
 31
0.0
100
AcDbText
 73
     3
  0
TEXT
  5
20D
330
2539
100
AcDbEntity
  8
Key
  6
DGN Style 6
 62
   250
370
    13
100
AcDbText
 10
-12458.145445
 20
-7579.235038
 30
0.0
 40
47.36185
  1
= Grove
 41
1.184186
  7
Style-Garamond
 11
-12458.145445
 21
-7531.873188
 31
0.0
100
AcDbText
 73
     3
  0
HATCH
  5
2571
330
2539
100
AcDbEntity
  8
Key
  6
DGN Style 2
100
AcDbHatch
 10
0.0
 20
0.0
 30
0.0
210
0.0
220
0.0
230
1.0
  2
SOLID
 70
     1
 71
     1
 91
        1
 92
        3
 72
     0
 73
     1
 93
        4
 10
-12610.92477068637
 20
-7425.980377044252
 10
-12644.80204620178
 20
-7398.878556631951
 10
-12597.73046338043
 20
-7340.039078105291
 10
-12563.85318786508
 20
-7367.140898517591
 97
        1
330
20E
 75
     0
 76
     1
 98
        0
  0
LWPOLYLINE
  5
20E
102
{ACAD_REACTORS
330
2571
102
}
330
2539
100
AcDbEntity
  8
Key
  6
DGN Style 2
 62
   250
100
AcDbPolyline
 90
        4
 70
   129
 43
0.0
 10
-12644.802046
 20
-7398.878557
 10
-12597.730463
 20
-7340.039078
 10
-12563.853188
 20
-7367.140899
 10
-12610.924771
 20
-7425.980377
  0
HATCH
  5
2572
330
2539
100
AcDbEntity
  8
Key
  6
DGN Style 2
100
AcDbHatch
 10
0.0
 20
0.0
 30
0.0
210
0.0
220
0.0
230
1.0
  2
SOLID
 70
     1
 71
     1
 91
        1
 92
        3
 72
     0
 73
     1
 93
        4
 10
-12552.31820540853
 20
-7457.18647024415
 10
-12586.19548092389
 20
-7430.08464983188
 10
-12539.12389810253
 20
-7371.245171305191
 10
-12505.24662258718
 20
-7398.346991717491
 97
        1
330
20F
 75
     0
 76
     1
 98
        0
  0
LWPOLYLINE
  5
20F
102
{ACAD_REACTORS
330
2572
102
}
330
2539
100
AcDbEntity
  8
Key
  6
DGN Style 2
 62
   250
100
AcDbPolyline
 90
        4
 70
   129
 43
0.0
 10
-12586.195481
 20
-7430.08465
 10
-12539.123898
 20
-7371.245171
 10
-12505.246623
 20
-7398.346992
 10
-12552.318205
 20
-7457.18647
  0
TEXT
  5
210
330
2539
100
AcDbEntity
  8
Key
  6
DGN Style 6
 62
   250
370
    13
100
AcDbText
 10
-12459.850295
 20
-7452.665298
 30
0.0
 40
47.36185
  1
= Tombs
 41
1.184186
  7
Style-Garamond
 11
-12459.850295
 21
-7405.303449
 31
0.0
100
AcDbText
 73
     3
  0
HATCH
  5
212
330
2539
100
AcDbEntity
  8
Key
  6
Continuous
 62
    96
370
    13
100
AcDbHatch
 10
0.0
 20
0.0
 30
0.0
210
0.0
220
0.0
230
1.0
  2
SOLID
 70
     1
 71
     0
 91
        1
 92
        1
 93
       19
 72
     1
 10
-12596.42960184925
 20
-7613.600837739695
 11
-12596.98609970664
 21
-7613.044339882309
 72
     4
 94
        3
 73
     0
 74
     0
 95
        8
 96
        4
 40
0.0
 40
0.0
 40
0.0
 40
0.0
 40
1.0
 40
1.0
 40
1.0
 40
1.0
 10
-12596.98609970664
 20
-7613.044339882309
 10
-12598.66586718234
 20
-7611.364572406604
 10
-12599.06253261988
 20
-7607.479361308524
 10
-12601.43808256565
 20
-7607.479361308524
 72
     1
 10
-12601.43808256565
 20
-7607.479361308524
 11
-12619.24601400177
 21
-7607.479361308524
 72
     4
 94
        3
 73
     0
 74
     0
 95
       20
 96
       16
 40
0.0
 40
0.0
 40
0.0
 40
0.0
 40
0.1929437994065904
 40
0.1929437994065904
 40
0.1929437994065904
 40
0.3552258894583878
 40
0.3552258894583878
 40
0.3552258894583878
 40
0.5341818623883234
 40
0.5341818623883234
 40
0.5341818623883234
 40
0.7701445711427135
 40
0.7701445711427135
 40
0.7701445711427135
 40
1.0
 40
1.0
 40
1.0
 40
1.0
 10
-12619.24601400177
 20
-7607.479361308524
 10
-12621.23094303978
 20
-7607.479361308524
 10
-12622.10936538818
 20
-7604.638047122717
 10
-12622.86325007474
 20
-7602.749129520787
 10
-12623.49733099866
 20
-7601.160389704738
 10
-12621.82588559038
 20
-7599.360431476516
 10
-12622.86325007474
 20
-7597.740648804387
 10
-12624.00719991247
 20
-7595.954439470174
 10
-12625.22922768202
 20
-7594.482730754442
 10
-12626.48048614771
 20
-7593.566914874065
 10
-12628.13033516969
 20
-7592.35936425524
 10
-12629.80120768096
 20
-7599.121859120324
 10
-12631.48896686411
 20
-7598.853644519189
 10
-12633.13304279839
 20
-7598.59237195415
 10
-12637.888692224
 20
-7598.157567498653
 10
-12637.888692224
 20
-7595.792906303603
 72
     1
 10
-12637.888692224
 20
-7595.792906303603
 11
-12637.888692224
 21
-7578.819721653496
 72
     4
 94
        3
 73
     0
 74
     0
 95
       62
 96
       58
 40
0.0
 40
0.0
 40
0.0
 40
0.0
 40
0.0510637704394572
 40
0.0510637704394572
 40
0.0510637704394572
 40
0.1012361433564702
 40
0.1012361433564702
 40
0.1012361433564702
 40
0.1295676753499936
 40
0.1295676753499936
 40
0.1295676753499936
 40
0.175333996262541
 40
0.175333996262541
 40
0.175333996262541
 40
0.2386852277063457
 40
0.2386852277063457
 40
0.2386852277063457
 40
0.2757341541592592
 40
0.2757341541592592
 40
0.2757341541592592
 40
0.3441670887726421
 40
0.3441670887726421
 40
0.3441670887726421
 40
0.3921127582998396
 40
0.3921127582998396
 40
0.3921127582998396
 40
0.4291616847530114
 40
0.4291616847530114
 40
0.4291616847530114
 40
0.5032595376590967
 40
0.5032595376590967
 40
0.5032595376590967
 40
0.5680562303255412
 40
0.5680562303255412
 40
0.5680562303255412
 40
0.6182286032425539
 40
0.6182286032425539
 40
0.6182286032425539
 40
0.6552775296957115
 40
0.6552775296957115
 40
0.6552775296957115
 40
0.69886450199358
 40
0.69886450199358
 40
0.69886450199358
 40
0.7499282724328187
 40
0.7499282724328187
 40
0.7499282724328187
 40
0.7917921922461949
 40
0.7917921922461949
 40
0.7917921922461949
 40
0.8655366607913909
 40
0.8655366607913909
 40
0.8655366607913909
 40
0.9134823303185883
 40
0.9134823303185883
 40
0.9134823303185883
 40
1.0
 40
1.0
 40
1.0
 40
1.0
 10
-12637.888692224
 20
-7578.819721653496
 10
-12637.888692224
 20
-7576.64652804837
 10
-12634.26736708914
 20
-7576.15937719573
 10
-12632.88021150754
 20
-7574.645987723176
 10
-12631.51727088379
 20
-7573.159016817341
 10
-12630.62591605838
 20
-7570.846228983917
 10
-12629.26297543463
 20
-7569.359258078083
 10
-12628.49334478649
 20
-7568.519589524599
 10
-12626.45676164939
 20
-7570.08135006909
 10
-12625.64573936167
 20
-7569.359258078083
 10
-12624.33562643535
 20
-7568.19280178492
 10
-12624.72614009595
 20
-7564.770383714701
 10
-12625.64573936167
 20
-7563.516030575605
 10
-12626.91867860512
 20
-7561.779714121876
 10
-12631.74454973426
 20
-7561.97386650117
 10
-12632.88021150754
 20
-7559.898794502638
 10
-12633.54436670318
 20
-7558.685255505747
 10
-12633.54436670318
 20
-7556.382101711822
 10
-12632.88021150754
 20
-7555.168562714931
 10
-12631.65345290945
 20
-7552.927039335555
 10
-12627.21493021082
 20
-7551.969698097717
 10
-12625.92398829032
 20
-7549.881833069808
 10
-12625.01952503665
 20
-7548.41902737236
 10
-12625.01952503665
 20
-7545.223162336119
 10
-12625.92398829032
 20
-7543.760356638671
 10
-12626.62289171363
 20
-7542.630006781542
 10
-12630.2573766086
 20
-7545.250299353515
 10
-12630.65422007806
 20
-7543.760356638671
 10
-12631.44790701699
 20
-7540.780471208991
 10
-12631.51768316833
 20
-7537.288824783653
 10
-12630.65422007806
 20
-7534.299893063224
 10
-12629.8991435098
 20
-7531.686148096347
 10
-12629.07369210315
 20
-7529.084742216825
 10
-12627.87173079114
 20
-7526.508923059932
 10
-12626.94104669761
 20
-7524.514454608098
 10
-12625.63303458539
 20
-7522.800649632133
 10
-12624.25449471823
 20
-7521.222193414841
 10
-12623.23653564671
 20
-7520.056609550575
 10
-12620.46280910571
 20
-7522.453217415276
 10
-12619.5242629305
 20
-7521.222193414841
 10
-12618.42009095966
 20
-7519.773929884916
 10
-12620.69368680154
 20
-7517.343540505592
 10
-12619.5242629305
 20
-7515.657214841027
 10
-12618.15423906903
 20
-7513.681621169764
 10
-12616.71935373378
 20
-7511.734942351606
 10
-12615.35052900014
 20
-7510.648734124627
 10
-12614.22831713849
 20
-7509.758221463228
 10
-12613.13375371748
 20
-7514.803685133802
 10
-12612.01154185583
 20
-7514.822468054948
 10
-12610.0347341966
 20
-7514.85555469719
 10
-12605.09936049592
 20
-7514.516918591137
 10
-12603.10757613781
 20
-7511.761729839364
 10
-12601.81259854169
 20
-7509.970417596108
 10
-12604.08669007003
 20
-7507.445560779106
 10
-12603.10757613781
 20
-7505.640253408227
 10
-12601.34077098932
 20
-7502.382587213818
 10
-12599.55515968153
 20
-7497.29278554752
 10
-12595.87310399187
 20
-7497.29278554752
 72
     1
 10
-12595.87310399187
 20
-7497.29278554752
 11
-12581.40415969999
 21
-7497.29278554752
 72
     4
 94
        3
 73
     0
 74
     0
 95
       11
 96
        7
 40
0.0
 40
0.0
 40
0.0
 40
0.0
 40
0.5120708766840866
 40
0.5120708766840866
 40
0.5120708766840866
 40
1.0
 40
1.0
 40
1.0
 40
1.0
 10
-12581.40415969999
 20
-7497.29278554752
 10
-12577.91894453943
 20
-7497.29278554752
 10
-12575.06241176143
 20
-7492.534876270833
 10
-12571.94369612458
 20
-7492.840802688505
 10
-12568.97201338329
 20
-7493.132306102528
 10
-12563.87447719259
 20
-7495.363126669047
 10
-12563.87447719259
 20
-7498.684030190982
 72
     1
 10
-12563.87447719259
 20
-7498.684030190982
 11
-12563.87447719259
 21
-7521.222193414841
 72
     4
 94
        3
 73
     0
 74
     0
 95
       11
 96
        7
 40
0.0
 40
0.0
 40
0.0
 40
0.0
 40
0.5948736295568485
 40
0.5948736295568485
 40
0.5948736295568485
 40
1.0
 40
1.0
 40
1.0
 40
1.0
 10
-12563.87447719259
 20
-7521.222193414841
 10
-12563.87447719259
 20
-7523.97983855
 10
-12561.09198790573
 20
-7526.491232048802
 10
-12561.09198790573
 20
-7529.013163418103
 10
-12561.09198790573
 20
-7530.730672568597
 10
-12564.15272612126
 20
-7531.865358074812
 10
-12564.15272612126
 20
-7533.74339520584
 72
     1
 10
-12564.15272612126
 20
-7533.74339520584
 11
-12564.15272612125
 21
-7552.107824499315
 72
     4
 94
        3
 73
     0
 74
     0
 95
       20
 96
       16
 40
0.0
 40
0.0
 40
0.0
 40
0.0
 40
0.1413043478259309
 40
0.1413043478259309
 40
0.1413043478259309
 40
0.3478260869566208
 40
0.3478260869566208
 40
0.3478260869566208
 40
0.5217391304361496
 40
0.5217391304361496
 40
0.5217391304361496
 40
0.6956521739132429
 40
0.6956521739132429
 40
0.6956521739132429
 40
1.0
 40
1.0
 40
1.0
 40
1.0
 10
-12564.15272612126
 20
-7552.107824499316
 10
-12564.15272612126
 20
-7553.313569856972
 10
-12561.13836272711
 20
-7551.504951820487
 10
-12560.53549004829
 20
-7552.107824499316
 10
-12559.65436844077
 20
-7552.988946106836
 10
-12559.65436844077
 20
-7556.513432536917
 10
-12560.53549004829
 20
-7557.394554144437
 10
-12561.27748719147
 20
-7558.136551287616
 10
-12564.24547576418
 20
-7556.652557001258
 10
-12564.98747290736
 20
-7557.394554144437
 10
-12565.72947005053
 20
-7558.136551287606
 10
-12564.24547576419
 20
-7561.104539860282
 10
-12564.98747290736
 20
-7561.846537003452
 10
-12566.28596790792
 20
-7563.145032004005
 10
-12572.77844291069
 20
-7559.249547002344
 10
-12572.77844291069
 20
-7561.846537003452
 72
     1
 10
-12572.77844291069
 20
-7561.846537003452
 11
-12572.77844291069
 21
-7568.802760220698
 72
     1
 10
-12572.77844291069
 20
-7568.802760220698
 11
-12564.15272612126
 21
-7568.802760220698
 72
     4
 94
        3
 73
     0
 74
     0
 95
       26
 96
       22
 40
0.0
 40
0.0
 40
0.0
 40
0.0
 40
0.1329677708047956
 40
0.1329677708047956
 40
0.1329677708047956
 40
0.2991774843115543
 40
0.2991774843115543
 40
0.2991774843115543
 40
0.3723097582542511
 40
0.3723097582542511
 40
0.3723097582542511
 40
0.4959769337007117
 40
0.4959769337007117
 40
0.4959769337007117
 40
0.6688350357473446
 40
0.6688350357473446
 40
0.6688350357473446
 40
0.8126616704331244
 40
0.8126616704331244
 40
0.8126616704331244
 40
1.0
 40
1.0
 40
1.0
 40
1.0
 10
-12564.15272612126
 20
-7568.802760220698
 10
-12562.29773326333
 20
-7568.802760220698
 10
-12563.45710379953
 20
-7572.821911412874
 10
-12564.15272612126
 20
-7574.367738794483
 10
-12565.02225402341
 20
-7576.300023021501
 10
-12567.63588037852
 20
-7577.842077101424
 10
-12568.32646005161
 20
-7579.932717368297
 10
-12568.63031510777
 20
-7580.852599085717
 10
-12568.02260499545
 20
-7582.073573866461
 10
-12568.32646005161
 20
-7582.993455583881
 10
-12568.84028102987
 20
-7584.548981859835
 10
-12570.79081796641
 20
-7585.6747381791
 10
-12571.38719826719
 20
-7587.167189514204
 10
-12572.22079996076
 20
-7589.253291216225
 10
-12569.55192384365
 20
-7592.714669328393
 10
-12571.38719826719
 20
-7594.401661660141
 10
-12572.91423889148
 20
-7595.805324126311
 10
-12574.67261599872
 20
-7596.712418456153
 10
-12576.39567898359
 20
-7597.740648804387
 10
-12578.64001809387
 20
-7599.079948415123
 10
-12583.35190220087
 20
-7598.744384919739
 10
-12583.35190220087
 20
-7601.357884877356
 72
     1
 10
-12583.35190220087
 20
-7601.357884877356
 11
-12583.35190220087
 21
-7612.209593096262
 72
     4
 94
        3
 73
     0
 74
     0
 95
       11
 96
        7
 40
0.0
 40
0.0
 40
0.0
 40
0.0
 40
0.5139294320268165
 40
0.5139294320268165
 40
0.5139294320268165
 40
1.0
 40
1.0
 40
1.0
 40
1.0
 10
-12583.35190220087
 20
-7612.209593096262
 10
-12583.35190220087
 20
-7614.268969374388
 10
-12585.19440148446
 20
-7615.901168478448
 10
-12586.96913827384
 20
-7617.218073812662
 10
-12588.64767090002
 20
-7618.463592912908
 10
-12591.43510384595
 20
-7618.59533574299
 10
-12592.81236577628
 20
-7617.218073812662
 72
     1
 10
-12592.81236577628
 20
-7617.218073812662
 11
-12596.98609970664
 21
-7613.044339882309
 72
     1
 10
-12596.98609970664
 20
-7613.044339882309
 11
-12596.42960184925
 21
-7613.600837739695
 97
        0
 75
     0
 76
     1
 98
        0
  0
TEXT
  5
218
330
2539
100
AcDbEntity
  8
Key
  6
DGN Style 6
 62
   250
370
    13
100
AcDbText
 10
-12457.02437
 20
-8469.329446
 30
0.0
 40
47.36185
  1
= Sunken Footpath
 41
1.184186
  7
Style-Garamond
 11
-12457.02437
 21
-8421.967597
 31
0.0
100
AcDbText
 73
     3
  0
TEXT
  5
219
330
2539
100
AcDbEntity
  8
Structure Numbers
100
AcDbText
 10
-1425.446434
 20
-4385.804985
 30
0.0
 40
119.760434
  1
2
 50
331.445679
  7
Style-Garamond
 11
-1368.201937
 21
-4280.611691
 31
0.0
100
AcDbText
 73
     3
  0
TEXT
  5
21A
330
2539
100
AcDbEntity
  8
Structure Numbers
100
AcDbText
 10
-955.62159
 20
-4422.157655
 30
0.0
 40
119.760434
  1
3
 50
331.445679
  7
Style-Garamond
 11
-898.377094
 21
-4316.96436
 31
0.0
100
AcDbText
 73
     3
  0
TEXT
  5
21B
330
2539
100
AcDbEntity
  8
Structure Numbers
100
AcDbText
 10
-1113.2703
 20
-3915.362245
 30
0.0
 40
119.760434
  1
4
 50
331.445679
  7
Style-Garamond
 11
-1056.025803
 21
-3810.16895
 31
0.0
100
AcDbText
 73
     3
  0
TEXT
  5
21C
330
2539
100
AcDbEntity
  8
Structure Numbers
100
AcDbText
 10
-387.230332
 20
-3635.23694
 30
0.0
 40
119.760434
  1
5
 50
331.445679
  7
Style-Garamond
 11
-329.985835
 21
-3530.043646
 31
0.0
100
AcDbText
 73
     3
  0
TEXT
  5
21D
330
2539
100
AcDbEntity
  8
Structure Numbers
100
AcDbText
 10
-512.258257
 20
-3265.086741
 30
0.0
 40
119.760434
  1
6
 50
331.445679
  7
Style-Garamond
 11
-455.013761
 21
-3159.893447
 31
0.0
100
AcDbText
 73
     3
  0
TEXT
  5
21E
330
2539
100
AcDbEntity
  8
Structure Numbers
100
AcDbText
 10
171.343861
 20
-2928.235306
 30
0.0
 40
119.760434
  1
7
 50
331.445679
  7
Style-Garamond
 11
228.588358
 21
-2823.042012
 31
0.0
100
AcDbText
 73
     3
  0
TEXT
  5
21F
330
2539
100
AcDbEntity
  8
Structure Numbers
100
AcDbText
 10
300.001624
 20
-2449.595268
 30
0.0
 40
119.760434
  1
8
 50
151.445679
  7
Style-Garamond
 11
242.757128
 21
-2554.788562
 31
0.0
100
AcDbText
 73
     3
  0
TEXT
  5
220
330
2539
100
AcDbEntity
  8
Structure Numbers
100
AcDbText
 10
-88.124439
 20
-2069.386531
 30
0.0
 40
119.760434
  1
9
 50
331.445679
  7
Style-Garamond
 11
-30.879942
 21
-1964.193237
 31
0.0
100
AcDbText
 73
     3
  0
TEXT
  5
221
330
2539
100
AcDbEntity
  8
Structure Numbers
100
AcDbText
 10
729.342379
 20
-2162.62434
 30
0.0
 40
119.760434
  1
10
 50
331.445679
  7
Style-Garamond
 11
786.586876
 21
-2057.431046
 31
0.0
100
AcDbText
 73
     3
  0
TEXT
  5
222
330
2539
100
AcDbEntity
  8
Structure Numbers
100
AcDbText
 10
853.683028
 20
-1946.935654
 30
0.0
 40
119.760434
  1
11
 50
331.445679
  7
Style-Garamond
 11
910.927525
 21
-1841.74236
 31
0.0
100
AcDbText
 73
     3
  0
TEXT
  5
223
330
2539
100
AcDbEntity
  8
Structure Numbers
100
AcDbText
 10
682.912857
 20
-1391.446413
 30
0.0
 40
119.760434
  1
12
 50
331.445679
  7
Style-Garamond
 11
740.157354
 21
-1286.253119
 31
0.0
100
AcDbText
 73
     3
  0
TEXT
  5
224
330
2539
100
AcDbEntity
  8
Structure Numbers
100
AcDbText
 10
1280.326262
 20
-1426.529479
 30
0.0
 40
119.760434
  1
13
 50
331.445679
  7
Style-Garamond
 11
1337.570759
 21
-1321.336185
 31
0.0
100
AcDbText
 73
     3
  0
TEXT
  5
225
330
2539
100
AcDbEntity
  8
Structure Numbers
100
AcDbText
 10
1793.653504
 20
-655.916417
 30
0.0
 40
119.760434
  1
14
 50
331.445679
  7
Style-Garamond
 11
1850.898001
 21
-550.723123
 31
0.0
100
AcDbText
 73
     3
  0
TEXT
  5
226
330
2539
100
AcDbEntity
  8
Structure Numbers
100
AcDbText
 10
2405.256937
 20
127.940002
 30
0.0
 40
119.760434
  1
15
 50
331.445679
  7
Style-Garamond
 11
2462.501434
 21
233.133296
 31
0.0
100
AcDbText
 73
     3
  0
TEXT
  5
227
330
2539
100
AcDbEntity
  8
Structure Numbers
100
AcDbText
 10
2112.823229
 20
351.903984
 30
0.0
 40
119.760434
  1
16
 50
331.445679
  7
Style-Garamond
 11
2170.067726
 21
457.097278
 31
0.0
100
AcDbText
 73
     3
  0
TEXT
  5
228
330
2539
100
AcDbEntity
  8
Structure Numbers
100
AcDbText
 10
2320.101728
 20
893.583549
 30
0.0
 40
119.760434
  1
17
 50
331.445679
  7
Style-Garamond
 11
2377.346225
 21
998.776843
 31
0.0
100
AcDbText
 73
     3
  0
TEXT
  5
229
330
2539
100
AcDbEntity
  8
Structure Numbers
100
AcDbText
 10
1436.244786
 20
1141.044623
 30
0.0
 40
119.760434
  1
18
 50
331.445679
  7
Style-Garamond
 11
1493.489283
 21
1246.237917
 31
0.0
100
AcDbText
 73
     3
  0
TEXT
  5
22A
330
2539
100
AcDbEntity
  8
Structure Numbers
100
AcDbText
 10
1057.944389
 20
732.3435
 30
0.0
 40
119.760434
  1
19
 50
331.445679
  7
Style-Garamond
 11
1115.188886
 21
837.536794
 31
0.0
100
AcDbText
 73
     3
  0
TEXT
  5
22B
330
2539
100
AcDbEntity
  8
Structure Numbers
100
AcDbText
 10
826.296453
 20
971.416798
 30
0.0
 40
119.760434
  1
20
 50
331.445679
  7
Style-Garamond
 11
883.54095
 21
1076.610092
 31
0.0
100
AcDbText
 73
     3
  0
TEXT
  5
22C
330
2539
100
AcDbEntity
  8
Structure Numbers
100
AcDbText
 10
676.996602
 20
283.526344
 30
0.0
 40
119.760434
  1
21
 50
331.445679
  7
Style-Garamond
 11
734.241099
 21
388.719638
 31
0.0
100
AcDbText
 73
     3
  0
TEXT
  5
22D
330
2539
100
AcDbEntity
  8
Structure Numbers
100
AcDbText
 10
417.4376
 20
457.993352
 30
0.0
 40
119.760434
  1
22
 50
331.445679
  7
Style-Garamond
 11
474.682097
 21
563.186646
 31
0.0
100
AcDbText
 73
     3
  0
TEXT
  5
22E
330
2539
100
AcDbEntity
  8
Structure Numbers
100
AcDbText
 10
53.488712
 20
972.348325
 30
0.0
 40
119.760434
  1
23
 50
331.445679
  7
Style-Garamond
 11
110.733209
 21
1077.541619
 31
0.0
100
AcDbText
 73
     3
  0
TEXT
  5
22F
330
2539
100
AcDbEntity
  8
Structure Numbers
100
AcDbText
 10
-2544.270598
 20
2684.393577
 30
0.0
 40
119.760434
  1
24
 50
331.445679
  7
Style-Garamond
 11
-2487.026101
 21
2789.586871
 31
0.0
100
AcDbText
 73
     3
  0
TEXT
  5
230
330
2539
100
AcDbEntity
  8
Structure Numbers
100
AcDbText
 10
449.833399
 20
-78.78703
 30
0.0
 40
119.760434
  1
25
 50
331.445679
  7
Style-Garamond
 11
507.077896
 21
26.406264
 31
0.0
100
AcDbText
 73
     3
  0
TEXT
  5
231
330
2539
100
AcDbEntity
  8
Structure Numbers
100
AcDbText
 10
147.734383
 20
-505.113568
 30
0.0
 40
119.760434
  1
26
 50
331.445679
  7
Style-Garamond
 11
204.97888
 21
-399.920274
 31
0.0
100
AcDbText
 73
     3
  0
TEXT
  5
232
330
2539
100
AcDbEntity
  8
Structure Numbers
100
AcDbText
 10
-2153.433757
 20
296.075933
 30
0.0
 40
119.760434
  1
28
 50
331.445679
  7
Style-Garamond
 11
-2096.18926
 21
401.269227
 31
0.0
100
AcDbText
 73
     3
  0
TEXT
  5
233
330
2539
100
AcDbEntity
  8
Structure Numbers
100
AcDbText
 10
-2524.229494
 20
-165.972807
 30
0.0
 40
119.760434
  1
29
 50
331.445679
  7
Style-Garamond
 11
-2466.984997
 21
-60.779513
 31
0.0
100
AcDbText
 73
     3
  0
TEXT
  5
234
330
2539
100
AcDbEntity
  8
Structure Numbers
100
AcDbText
 10
-3537.400181
 20
-690.94273
 30
0.0
 40
119.760434
  1
30
 50
331.445679
  7
Style-Garamond
 11
-3480.155684
 21
-585.749436
 31
0.0
100
AcDbText
 73
     3
  0
TEXT
  5
235
330
2539
100
AcDbEntity
  8
Structure Numbers
100
AcDbText
 10
-431.539369
 20
-1242.182769
 30
0.0
 40
119.760434
  1
32
 50
331.445679
  7
Style-Garamond
 11
-374.294872
 21
-1136.989475
 31
0.0
100
AcDbText
 73
     3
  0
TEXT
  5
236
330
2539
100
AcDbEntity
  8
Structure Numbers
100
AcDbText
 10
-2584.205343
 20
-1523.629578
 30
0.0
 40
119.760434
  1
31
 50
331.445679
  7
Style-Garamond
 11
-2526.960846
 21
-1418.436284
 31
0.0
100
AcDbText
 73
     3
  0
TEXT
  5
237
330
2539
100
AcDbEntity
  8
Structure Numbers
100
AcDbText
 10
-782.873222
 20
-1847.382432
 30
0.0
 40
119.760434
  1
33
 50
331.445679
  7
Style-Garamond
 11
-725.628725
 21
-1742.189137
 31
0.0
100
AcDbText
 73
     3
  0
TEXT
  5
238
330
2539
100
AcDbEntity
  8
Structure Numbers
100
AcDbText
 10
-1550.081463
 20
-2363.02014
 30
0.0
 40
119.760434
  1
34
 50
331.445679
  7
Style-Garamond
 11
-1492.836966
 21
-2257.826846
 31
0.0
100
AcDbText
 73
     3
  0
TEXT
  5
239
330
2539
100
AcDbEntity
  8
Structure Numbers
100
AcDbText
 10
-2158.620559
 20
-2338.143284
 30
0.0
 40
119.760434
  1
35
 50
331.445679
  7
Style-Garamond
 11
-2101.376062
 21
-2232.94999
 31
0.0
100
AcDbText
 73
     3
  0
TEXT
  5
23A
330
2539
100
AcDbEntity
  8
Structure Numbers
100
AcDbText
 10
-1710.192694
 20
-2974.336618
 30
0.0
 40
119.760434
  1
40
 50
331.445679
  7
Style-Garamond
 11
-1652.948197
 21
-2869.143324
 31
0.0
100
AcDbText
 73
     3
  0
TEXT
  5
23B
330
2539
100
AcDbEntity
  8
Structure Numbers
100
AcDbText
 10
-2668.223023
 20
-3438.909533
 30
0.0
 40
119.760434
  1
39
 50
331.445679
  7
Style-Garamond
 11
-2610.978526
 21
-3333.716239
 31
0.0
100
AcDbText
 73
     3
  0
TEXT
  5
23C
330
2539
100
AcDbEntity
  8
Structure Numbers
100
AcDbText
 10
-3697.204276
 20
-2524.019303
 30
0.0
 40
119.760434
  1
37
 50
331.445679
  7
Style-Garamond
 11
-3639.95978
 21
-2418.826009
 31
0.0
100
AcDbText
 73
     3
  0
TEXT
  5
23D
330
2539
100
AcDbEntity
  8
Structure Numbers
100
AcDbText
 10
-431.539369
 20
-1242.182769
 30
0.0
 40
119.760434
  1
32
 50
331.445679
  7
Style-Garamond
 11
-374.294872
 21
-1136.989475
 31
0.0
100
AcDbText
 73
     3
  0
TEXT
  5
23E
330
2539
100
AcDbEntity
  8
Structure Numbers
100
AcDbText
 10
-1002.797794
 20
-374.621747
 30
0.0
 40
119.760434
  1
27
 50
331.445679
  7
Style-Garamond
 11
-945.553297
 21
-269.428453
 31
0.0
100
AcDbText
 73
     3
  0
HATCH
  5
2573
330
2539
100
AcDbEntity
  8
0
  6
Continuous
 62
   212
370
     0
100
AcDbHatch
 10
0.0
 20
0.0
 30
0.0
210
0.0
220
0.0
230
1.0
  2
SOLID
 70
     1
 71
     1
 91
        1
 92
        1
 93
        1
 72
     2
 10
-0.0398719717013591
 20
-0.0369788029327083
 40
24.31434380608028
 50
331.5456793598711
 51
691.5456793598712
 73
     1
 97
        1
330
241
 75
     0
 76
     1
 98
        0
  0
CIRCLE
  5
241
102
{ACAD_REACTORS
330
2573
102
}
330
2539
100
AcDbEntity
  8
0
  6
Continuous
 62
     7
370
     0
100
AcDbCircle
 10
-0.039872
 20
-0.036979
 30
0.0
 40
24.31434380608028
  0
TEXT
  5
242
330
2539
100
AcDbEntity
  8
Key
  6
DGN Style 6
 62
   250
370
    13
100
AcDbText
 10
-12463.242273
 20
-8237.785178
 30
0.0
 40
47.36185
  1
= Barry Higman's House Numbers
 41
1.184186
  7
Style-Garamond
 11
-12463.242273
 21
-8190.423328
 31
0.0
100
AcDbText
 73
     3
  0
INSERT
  5
244
330
2539
100
AcDbEntity
  8
Key
100
AcDbBlockReference
  2
*U2
 10
-10537.571627
 20
-8597.80272
 30
0.0
 41
1.00195
 42
1.00195
 43
1.00195
  0
LWPOLYLINE
  5
261
330
2539
100
AcDbEntity
  8
1204 Quadrats
100
AcDbPolyline
 90
        4
 70
   129
 43
0.0
 10
-4260.971616
 20
-3832.902835
 10
-4318.146572
 20
-3938.406505
 10
-4212.642902
 20
-3995.581461
 10
-4155.467946
 20
-3890.077791
  0
LWPOLYLINE
  5
262
330
2539
100
AcDbEntity
  8
1204 Quadrats
100
AcDbPolyline
 90
        4
 70
   129
 43
0.0
 10
-3205.934915
 20
-4404.652396
 10
-3263.109871
 20
-4510.156066
 10
-3157.606201
 20
-4567.331022
 10
-3100.431245
 20
-4461.827352
  0
LWPOLYLINE
  5
264
330
2539
100
AcDbEntity
  8
1204 Quadrats
100
AcDbPolyline
 90
        4
 70
   129
 43
0.0
 10
-4546.846396
 20
-4360.421186
 10
-4604.021352
 20
-4465.924856
 10
-4498.517682
 20
-4523.099812
 10
-4441.342726
 20
-4417.596142
  0
MTEXT
  5
265
330
2539
100
AcDbEntity
  8
1204 Quadrats
  6
Continuous
 62
   250
370
    13
100
AcDbMText
 10
-3382.392512
 20
-4167.171257
 30
0.0
 40
53.307998
 41
0.0
 71
     1
 72
     1
  1
Quadrat W60/S450
  7
Style-Garamond
 11
0.8791972506437497
 21
-0.4764579671497493
 31
0.0
 73
     2
 44
0.63
  0
TEXT
  5
26B
330
2539
100
AcDbEntity
  8
Depression Features
100
AcDbText
 10
-1672.424606
 20
925.493553
 30
0.0
 40
5.4864
  1
W160 N02
 50
331.545679
  7
Style-Garamond
 11
-1669.810567
 21
930.317181
 31
0.0
100
AcDbText
 73
     3
  0
TEXT
  5
26C
330
2539
100
AcDbEntity
  8
Depression Features
100
AcDbText
 10
-1250.409926
 20
696.793729
 30
0.0
 40
5.4864
  1
W120 N02
 50
331.545679
  7
Style-Garamond
 11
-1247.795887
 21
701.617356
 31
0.0
100
AcDbText
 73
     3
  0
TEXT
  5
26D
330
2539
100
AcDbEntity
  8
Depression Features
100
AcDbText
 10
-828.395245
 20
468.093904
 30
0.0
 40
5.4864
  1
W80 N02
 50
331.545679
  7
Style-Garamond
 11
-825.781206
 21
472.917532
 31
0.0
100
AcDbText
 73
     3
  0
TEXT
  5
26E
330
2539
100
AcDbEntity
  8
Depression Features
100
AcDbText
 10
-406.380565
 20
239.39408
 30
0.0
 40
5.4864
  1
W40 N02
 50
331.545679
  7
Style-Garamond
 11
-403.766526
 21
244.217708
 31
0.0
100
AcDbText
 73
     3
  0
LWPOLYLINE
  5
26F
330
2539
100
AcDbEntity
  8
1204 Quadrats
100
AcDbPolyline
 90
        4
 70
   129
 43
0.0
 10
-1688.098593
 20
914.762318
 10
-1676.663602
 20
935.863052
 10
-1465.656262
 20
821.51314
 10
-1477.091253
 20
800.412406
  0
LWPOLYLINE
  5
270
330
2539
100
AcDbEntity
  8
1204 Quadrats
100
AcDbPolyline
 90
        4
 70
   129
 43
0.0
 10
-1266.083913
 20
686.062494
 10
-1254.648922
 20
707.163228
 10
-1043.641582
 20
592.813316
 10
-1055.076573
 20
571.712582
  0
LWPOLYLINE
  5
271
330
2539
100
AcDbEntity
  8
1204 Quadrats
100
AcDbPolyline
 90
        4
 70
   129
 43
0.0
 10
-844.069233
 20
457.36267
 10
-832.634241
 20
478.463404
 10
-621.626901
 20
364.113492
 10
-633.061892
 20
343.012758
  0
LWPOLYLINE
  5
272
330
2539
100
AcDbEntity
  8
1204 Quadrats
100
AcDbPolyline
 90
        4
 70
   129
 43
0.0
 10
-410.619561
 20
249.763579
 10
-422.054552
 20
228.662845
 10
-211.047212
 20
114.312933
 10
-199.612221
 20
135.413667
  0
SPLINE
  5
4C8
330
2539
100
AcDbEntity
  8
Aqueduct
100
AcDbSpline
210
0.0
220
0.0
230
1.0
 70
     8
 71
     3
 72
    23
 73
    19
 74
     0
 42
0.0000000001
 43
0.00000001
 40
0.0
 40
0.0
 40
0.0
 40
0.0
 40
0.2275156564786177
 40
0.2275156564786177
 40
0.2275156564786177
 40
0.4479701119192932
 40
0.4479701119192932
 40
0.4479701119192932
 40
0.5685827941183422
 40
0.5685827941183422
 40
0.5685827941183422
 40
0.596328505734165
 40
0.596328505734165
 40
0.596328505734165
 40
0.6658126885434923
 40
0.6658126885434923
 40
0.6658126885434923
 40
1.0
 40
1.0
 40
1.0
 40
1.0
 10
4508.513398065263
 20
2278.384660309688
 30
0.0
 10
4877.421148327967
 20
2154.255262492602
 30
0.0
 10
5246.328898590667
 20
2030.125864675515
 30
0.0
 10
5615.23664885337
 20
1905.996466858428
 30
0.0
 10
5972.694937442191
 20
1785.719562739012
 30
0.0
 10
6323.199818533089
 20
1647.391918582688
 30
0.0
 10
6679.057345000156
 20
1520.675584789513
 30
0.0
 10
6873.750306238411
 20
1451.347900453654
 30
0.0
 10
7074.656382785539
 20
1400.319706939195
 30
0.0
 10
7273.79174993261
 20
1348.95649604141
 30
0.0
 10
7319.600800594924
 20
1337.140915695715
 30
0.0
 10
7370.426104438404
 20
1332.740528439164
 30
0.0
 10
7416.192945479817
 20
1348.95649604141
 30
0.0
 10
7530.807830603668
 20
1389.566492746704
 30
0.0
 10
7631.412355518309
 20
1459.883841601653
 30
0.0
 10
7713.560147946046
 20
1545.805207533138
 30
0.0
 10
8108.653661081928
 20
1959.047892650525
 30
0.0
 10
8503.747174217806
 20
2372.290577767912
 30
0.0
 10
8898.840687353686
 20
2785.533262885298
 30
0.0
  0
SPLINE
  5
4CC
330
2539
100
AcDbEntity
  8
Works Road
100
AcDbSpline
210
0.0
220
0.0
230
1.0
 70
     8
 71
     3
 72
    50
 73
    46
 74
     0
 42
0.0000000001
 43
0.00000001
 40
0.0
 40
0.0
 40
0.0
 40
0.0
 40
0.1270003049061624
 40
0.1270003049061624
 40
0.1270003049061624
 40
0.1992924522964802
 40
0.1992924522964802
 40
0.1992924522964802
 40
0.2387534037452898
 40
0.2387534037452898
 40
0.2387534037452898
 40
0.2921687377115566
 40
0.2921687377115566
 40
0.2921687377115566
 40
0.3174142506533752
 40
0.3174142506533752
 40
0.3174142506533752
 40
0.3462881885450917
 40
0.3462881885450917
 40
0.3462881885450917
 40
0.396099146432403
 40
0.396099146432403
 40
0.396099146432403
 40
0.4351123119918123
 40
0.4351123119918123
 40
0.4351123119918123
 40
0.4667969835885878
 40
0.4667969835885878
 40
0.4667969835885878
 40
0.537798190980986
 40
0.537798190980986
 40
0.537798190980986
 40
0.6702973264631725
 40
0.6702973264631725
 40
0.6702973264631725
 40
0.7460111181672791
 40
0.7460111181672791
 40
0.7460111181672791
 40
0.8113970362026681
 40
0.8113970362026681
 40
0.8113970362026681
 40
0.9083160642495802
 40
0.9083160642495802
 40
0.9083160642495802
 40
1.0
 40
1.0
 40
1.0
 40
1.0
 10
8349.170852656866
 20
6236.627456856473
 30
0.0
 10
8349.170852656866
 20
5899.634336326067
 30
0.0
 10
8349.170852656866
 20
5562.641215795661
 30
0.0
 10
8349.170852656866
 20
5225.648095265254
 30
0.0
 10
8349.170852656866
 20
5033.822127942516
 30
0.0
 10
8489.012905401463
 20
4868.627772760367
 30
0.0
 10
8560.617516519082
 20
4690.42372736402
 30
0.0
 10
8599.703173603903
 20
4593.150352077502
 30
0.0
 10
8638.425571239186
 20
4496.044528104815
 30
0.0
 10
8679.556264941577
 20
4399.684564553474
 30
0.0
 10
8735.231803916544
 20
4269.249300194751
 30
0.0
 10
8893.092034462996
 20
4222.497868722629
 30
0.0
 10
8983.510844243512
 20
4102.337693497233
 30
0.0
 10
9026.245187792492
 20
4045.546786589122
 30
0.0
 10
9084.326943806274
 20
3986.885760396581
 30
0.0
 10
9076.018759683231
 20
3923.92957086349
 30
0.0
 10
9066.516477320638
 20
3851.924969068827
 30
0.0
 10
9031.79586268031
 20
3777.520767692676
 30
0.0
 10
9003.333968980596
 20
3705.875198755579
 30
0.0
 10
8954.233836058431
 20
3582.278118560917
 30
0.0
 10
8882.769032937809
 20
3469.991773717327
 30
0.0
 10
8844.748971083933
 20
3342.451245242396
 30
0.0
 10
8814.970724878753
 20
3242.558370984008
 30
0.0
 10
8826.10662079565
 20
3133.340371729308
 30
0.0
 10
8844.748971083933
 20
3031.888957694767
 30
0.0
 10
8859.889417602604
 20
2949.49485584169
 30
0.0
 10
8883.045872513381
 20
2868.198987085349
 30
0.0
 10
8898.840687353686
 20
2785.533262885298
 30
0.0
 10
8934.234802794519
 20
2600.290180587803
 30
0.0
 10
9026.474581620245
 20
2407.510519002306
 30
0.0
 10
8976.90313599782
 20
2225.748551720069
 30
0.0
 10
8884.395220558105
 20
1886.552861774431
 30
0.0
 10
8791.887305118378
 20
1547.357171828794
 30
0.0
 10
8699.379389678659
 20
1208.161481883156
 30
0.0
 10
8646.517723713107
 20
1014.335373342792
 30
0.0
 10
8593.656057747552
 20
820.5092648024273
 30
0.0
 10
8540.794391781999
 20
626.6831562620629
 30
0.0
 10
8495.143414856348
 20
459.2962408680038
 30
0.0
 10
8467.618016520315
 20
282.0593733708914
 30
0.0
 10
8468.109601079363
 20
111.2819130979121
 30
0.0
 10
8468.838257938471
 20
-141.8549389841986
 30
0.0
 10
8551.120561922193
 20
-409.9179507833377
 30
0.0
 10
8686.163973187271
 20
-628.7814104198428
 30
0.0
 10
8813.912999270693
 20
-835.822935451596
 30
0.0
 10
8941.662025354115
 20
-1042.864460483349
 30
0.0
 10
9069.411051437537
 20
-1249.905985515102
 30
0.0
  0
SPLINE
  5
4CD
330
2539
100
AcDbEntity
  8
Anchovy  Gully
100
AcDbSpline
210
0.0
220
0.0
230
1.0
 70
     8
 71
     3
 72
    29
 73
    25
 74
     0
 42
0.0000000001
 43
0.00000001
 40
0.0
 40
0.0
 40
0.0
 40
0.0
 40
0.169060668281431
 40
0.169060668281431
 40
0.169060668281431
 40
0.2857897341197989
 40
0.2857897341197989
 40
0.2857897341197989
 40
0.3847349885705645
 40
0.3847349885705645
 40
0.3847349885705645
 40
0.4944020462608613
 40
0.4944020462608613
 40
0.4944020462608613
 40
0.581353866363256
 40
0.581353866363256
 40
0.581353866363256
 40
0.710537299179175
 40
0.710537299179175
 40
0.710537299179175
 40
0.7969288758743384
 40
0.7969288758743384
 40
0.7969288758743384
 40
1.0
 40
1.0
 40
1.0
 40
1.0
 10
6154.828219770127
 20
4736.508153783949
 30
0.0
 10
6399.507923299563
 20
4461.243487313332
 30
0.0
 10
6644.187626828998
 20
4185.978820842715
 30
0.0
 10
6888.867330358438
 20
3910.7141543721
 30
0.0
 10
7057.808063368293
 20
3720.655829736022
 30
0.0
 10
7340.418567646877
 20
3672.91110958666
 30
0.0
 10
7582.676696156334
 20
3593.544158578777
 30
0.0
 10
7788.026511953931
 20
3526.268856527356
 30
0.0
 10
8015.422258134246
 20
3532.576849592783
 30
0.0
 10
8217.01668774298
 20
3467.997701910587
 30
0.0
 10
8440.456084252335
 20
3396.420695476411
 30
0.0
 10
8580.035956456961
 20
3127.142271599902
 30
0.0
 10
8805.102721609768
 20
3058.319790677544
 30
0.0
 10
8983.551613070511
 20
3003.752447427932
 30
0.0
 10
9193.104348276644
 20
3003.795848863464
 30
0.0
 10
9373.365630739474
 20
3058.319790677544
 30
0.0
 10
9641.17798066988
 20
3139.32545526172
 30
0.0
 10
9901.236545814827
 20
3239.813806246333
 30
0.0
 10
10153.07520373139
 20
3382.097494716561
 30
0.0
 10
10321.49261032879
 20
3477.249883200169
 30
0.0
 10
10499.42323854637
 20
3557.824685073227
 30
0.0
 10
10615.61478092999
 20
3705.875198755579
 30
0.0
 10
10888.73338841869
 20
4053.881166362142
 30
0.0
 10
11161.85199590738
 20
4401.887133968706
 30
0.0
 10
11434.97060339608
 20
4749.893101575269
 30
0.0
  0
LWPOLYLINE
  5
4CE
330
2539
100
AcDbEntity
  8
Works Structures
100
AcDbPolyline
 90
        4
 70
   129
 43
0.0
 10
6895.97623
 20
-190.748091
 10
6737.022355
 20
-367.696744
 10
7147.903126
 20
-693.102318
 10
7287.505354
 20
-516.830381
  0
LWPOLYLINE
  5
4CF
330
2539
100
AcDbEntity
  8
Works Structures
100
AcDbPolyline
 90
        5
 70
   129
 43
0.0
 10
7531.791729
 20
-904.540963
 10
7347.345252
 20
-1121.977867
 10
7578.073509
 20
-1317.699078
 10
7773.79472
 20
-1086.970821
 10
7543.066463
 20
-891.24961
  0
LWPOLYLINE
  5
4D0
330
2539
100
AcDbEntity
  8
Works Structures
100
AcDbPolyline
 90
        5
 70
   129
 43
0.0
 10
9716.34471
 20
-804.68159
 10
9320.779883
 20
-1250.212501
 10
9632.634111
 20
-1527.092423
 10
10055.479271
 20
-1050.835243
 10
9748.042488
 20
-777.877352
  0
LWPOLYLINE
  5
4D1
330
2539
100
AcDbEntity
  8
Works Structures
100
AcDbPolyline
 90
        5
 70
   129
 43
0.0
 10
9510.234616
 20
-1656.186928
 10
9360.336366
 20
-1799.839418
 10
9959.929366
 20
-2320.319453
 10
10111.538626
 20
-2145.665586
 10
9525.104648
 20
-1636.608313
  0
LWPOLYLINE
  5
4D2
330
2539
100
AcDbEntity
  8
Works Structures
100
AcDbPolyline
 90
        4
 70
   129
 43
0.0
 10
6724.396207
 20
6029.853842
 10
6382.880453
 20
5649.529479
 10
6911.537455
 20
5174.817068
 10
7276.046662
 20
5580.747775
  0
LWPOLYLINE
  5
4D3
330
2539
100
AcDbEntity
  8
Works Structures
100
AcDbPolyline
 90
        4
 70
   129
 43
0.0
 10
7658.417182
 20
4623.632091
 10
7375.114341
 20
4301.520641
 10
8040.164549
 20
3716.596964
 10
8325.693374
 20
4041.239328
  0
LWPOLYLINE
  5
4D4
330
2539
100
AcDbEntity
  8
Works Structures
100
AcDbPolyline
 90
        4
 70
   128
 43
0.0
 10
7658.417182
 20
4623.632091
 10
7941.720024
 20
4934.100959
 10
8605.347229
 20
4402.423023
 10
8325.693374
 20
4041.239328
  0
LWPOLYLINE
  5
4D5
330
2539
100
AcDbEntity
  8
Works Structures
100
AcDbPolyline
 90
        4
 70
   129
 43
0.0
 10
7086.960423
 20
3055.76431
 10
6881.274798
 20
3210.998743
 10
6403.928914
 20
2654.095212
 10
6611.669112
 20
2476.032185
  0
LWPOLYLINE
  5
4D8
330
2539
100
AcDbEntity
  8
Works Structures
100
AcDbPolyline
 90
        4
 70
   129
 43
0.0
 10
8573.996561
 20
2426.25006
 10
8305.086815
 20
2150.445193
 10
8591.234365
 20
1888.430568
 10
8853.24899
 20
2174.578118
  0
LWPOLYLINE
  5
4DA
330
2539
100
AcDbEntity
  8
Works Structures
100
AcDbPolyline
 90
        5
 70
   129
 43
0.0
 10
10458.22245
 20
3156.555577
 10
10279.886487
 20
2963.759942
 10
10490.604519
 20
2768.845762
 10
10702.93784
 20
2998.395298
 10
10479.108644
 20
3177.441771
  0
LWPOLYLINE
  5
4DC
330
2539
100
AcDbEntity
  8
Works Structures
100
AcDbPolyline
 90
        5
 70
   129
 43
0.0
 10
10567.47331
 20
2626.367579
 10
10339.331808
 20
2399.832707
 10
10601.856563
 20
2135.446074
 10
10866.243195
 20
2397.970829
 10
10585.146244
 20
2642.433882
  0
LWPOLYLINE
  5
4DE
330
2539
100
AcDbEntity
  8
Works Structures
100
AcDbPolyline
 90
        4
 70
   129
 43
0.0
 10
6280.577309
 20
2534.155903
 10
6102.514282
 20
2326.415705
 10
6675.666606
 20
1907.761901
 10
6833.365114
 20
2123.65691
  0
SPLINE
  5
4DF
330
2539
100
AcDbEntity
  8
Anchovy  Gully
100
AcDbSpline
210
0.0
220
0.0
230
1.0
 70
     8
 71
     3
 72
    23
 73
    19
 74
     0
 42
0.0000000001
 43
0.00000001
 40
0.0
 40
0.0
 40
0.0
 40
0.0
 40
0.1469405987004786
 40
0.1469405987004786
 40
0.1469405987004786
 40
0.29081530795391
 40
0.29081530795391
 40
0.29081530795391
 40
0.3970934621266086
 40
0.3970934621266086
 40
0.3970934621266086
 40
0.585283876888821
 40
0.585283876888821
 40
0.585283876888821
 40
0.7912764675470776
 40
0.7912764675470776
 40
0.7912764675470776
 40
1.0
 40
1.0
 40
1.0
 40
1.0
 10
6154.828219770127
 20
4736.508153783949
 30
0.0
 10
6031.123081105985
 20
4948.789429261211
 30
0.0
 10
5907.417942441842
 20
5161.070704738472
 30
0.0
 10
5783.712803777698
 20
5373.351980215733
 30
0.0
 10
5662.588750821182
 20
5581.204044650931
 30
0.0
 10
5506.062236191681
 20
5762.956706271444
 30
0.0
 10
5339.667239971612
 20
5942.285358842279
 30
0.0
 10
5216.753677514349
 20
6074.752825045348
 30
0.0
 10
5079.505880138153
 20
6183.668618451942
 30
0.0
 10
4923.374523903409
 20
6275.319531696841
 30
0.0
 10
4646.907314664359
 20
6437.608983476988
 30
0.0
 10
4358.087058058249
 20
6554.219285672974
 30
0.0
 10
4063.036244029119
 20
6663.859400027166
 30
0.0
 10
3740.07462223513
 20
6783.871097883429
 30
0.0
 10
3346.960925818357
 20
6731.21839522774
 30
0.0
 10
3063.933725465429
 20
6927.511453537029
 30
0.0
 10
2777.154298840665
 20
7126.406862325171
 30
0.0
 10
2490.374872215904
 20
7325.302271113314
 30
0.0
 10
2203.595445591142
 20
7524.197679901455
 30
0.0
  0
TEXT
  5
4EC
330
2539
100
AcDbEntity
  8
Works Stucture Labels
 62
   250
100
AcDbText
 10
6497.734557
 20
6224.295063
 30
0.0
 40
119.760434
  1
Distillery
 50
3.053182
  7
Style-Garamond
 11
6491.355774
 21
6343.885501
 31
0.0
100
AcDbText
 73
     3
  0
TEXT
  5
4ED
330
2539
100
AcDbEntity
  8
Works Stucture Labels
 62
   250
100
AcDbText
 10
6482.326651
 20
4467.793768
 30
0.0
 40
119.760434
  1
Boiling House
 50
3.053182
  7
Style-Garamond
 11
6475.947868
 21
4587.384205
 31
0.0
100
AcDbText
 73
     3
  0
TEXT
  5
4EF
330
2539
100
AcDbEntity
  8
Works Stucture Labels
 62
   250
100
AcDbText
 10
7545.472172
 20
5053.2942
 30
0.0
 40
119.760434
  1
Curing House
 50
3.053182
  7
Style-Garamond
 11
7539.093389
 21
5172.884637
 31
0.0
100
AcDbText
 73
     3
  0
TEXT
  5
4F0
330
2539
100
AcDbEntity
  8
Works Stucture Labels
 62
   250
100
AcDbText
 10
5337.292996
 20
2716.048797
 30
0.0
 40
119.760434
  1
Trash Houses
 50
3.053182
  7
Style-Garamond
 11
5330.914214
 21
2835.639235
 31
0.0
100
AcDbText
 73
     3
  0
TEXT
  5
4F1
330
2539
100
AcDbEntity
  8
Works Stucture Labels
 62
   250
100
AcDbText
 10
8062.07998
 20
2345.263308
 30
0.0
 40
119.760434
  1
Mill
 50
3.053182
  7
Style-Garamond
 11
8055.701197
 21
2464.853745
 31
0.0
100
AcDbText
 73
     3
  0
TEXT
  5
4F2
330
2539
100
AcDbEntity
  8
Works Stucture Labels
 62
   250
100
AcDbText
 10
7137.605614
 20
-120.001668
 30
0.0
 40
119.760434
  1
Stables
 50
3.053182
  7
Style-Garamond
 11
7131.226832
 21
-0.41123
 31
0.0
100
AcDbText
 73
     3
  0
TEXT
  5
4F3
330
2539
100
AcDbEntity
  8
Works Stucture Labels
 62
   250
100
AcDbText
 10
6856.283503
 20
-1632.402044
 30
0.0
 40
119.760434
  1
Bookkeeper's House
 50
3.053182
  7
Style-Garamond
 11
6849.90472
 21
-1512.811607
 31
0.0
100
AcDbText
 73
     3
  0
TEXT
  5
4F4
330
2539
100
AcDbEntity
  8
Works Stucture Labels
 62
   250
100
AcDbText
 10
10014.904253
 20
-1909.744354
 30
0.0
 40
119.760434
  1
Kitchen Store
 50
3.053182
  7
Style-Garamond
 11
10008.52547
 21
-1790.153917
 31
0.0
100
AcDbText
 73
     3
  0
TEXT
  5
4F5
330
2539
100
AcDbEntity
  8
Works Stucture Labels
 62
   250
100
AcDbText
 10
9943.688674
 20
-755.484427
 30
0.0
 40
119.760434
  1
Overseer's House
 50
3.053182
  7
Style-Garamond
 11
9937.309891
 21
-635.893989
 31
0.0
100
AcDbText
 73
     3
  0
TEXT
  5
4F6
330
2539
100
AcDbEntity
  8
Works Stucture Labels
 62
   250
100
AcDbText
 10
10732.136251
 20
2754.164896
 30
0.0
 40
119.760434
  1
Workshops
 50
3.053182
  7
Style-Garamond
 11
10725.757468
 21
2873.755334
 31
0.0
100
AcDbText
 73
     3
  0
TEXT
  5
4F7
330
2539
100
AcDbEntity
  8
Key
  6
DGN Style 6
 62
   250
370
    13
100
AcDbText
 10
-12459.850295
 20
-7328.790892
 30
0.0
 40
47.36185
  1
= Anchovy Gully
 41
1.184186
  7
Style-Garamond
 11
-12459.850295
 21
-7281.429043
 31
0.0
100
AcDbText
 73
     3
  0
TEXT
  5
4F8
330
2539
100
AcDbEntity
  8
Key
  6
DGN Style 6
 62
   250
370
    13
100
AcDbText
 10
-12459.850295
 20
-7191.990489
 30
0.0
 40
47.36185
  1
= Road
 41
1.184186
  7
Style-Garamond
 11
-12459.850295
 21
-7144.62864
 31
0.0
100
AcDbText
 73
     3
  0
HATCH
  5
23F8
330
2539
100
AcDbEntity
  8
Key
  6
Continuous
 62
   136
370
     0
100
AcDbHatch
 10
0.0
 20
0.0
 30
0.0
210
0.0
220
0.0
230
1.0
  2
SOLID
 70
     1
 71
     0
 91
        1
 92
        1
 93
        1
 72
     2
 10
-12584.11721869422
 20
-8062.349096222387
 40
71.96728515193345
 50
0.0
 51
360.0
 73
     1
 97
        0
 75
     0
 76
     1
 98
        0
  0
LINE
  5
23F9
330
2539
100
AcDbEntity
  8
Sunken Footpath
100
AcDbLine
 10
-12684.097239
 20
-8430.178453
 30
0.0
 11
-12492.917306
 21
-8430.178453
 31
0.0
  0
LINE
  5
23FA
330
2539
100
AcDbEntity
  8
Sunken Footpath
100
AcDbLine
 10
-12684.097239
 20
-8465.228107
 30
0.0
 11
-12492.917306
 21
-8465.228107
 31
0.0
  0
HATCH
  5
2577
330
2539
100
AcDbEntity
  8
0
  6
Continuous
 62
   212
370
     0
100
AcDbHatch
 10
0.0
 20
0.0
 30
0.0
210
0.0
220
0.0
230
1.0
  2
SOLID
 70
     1
 71
     1
 91
        1
 92
        1
 93
        1
 72
     2
 10
-12602.36613582344
 20
-7049.497508532495
 40
24.31434380608028
 50
331.5456793598711
 51
691.5456793598712
 73
     1
 97
        1
330
23FB
 75
     0
 76
     1
 98
        0
  0
CIRCLE
  5
23FB
102
{ACAD_REACTORS
330
2577
102
}
330
2539
100
AcDbEntity
  8
0
  6
Continuous
 62
     7
370
     0
100
AcDbCircle
 10
-12602.366136
 20
-7049.497509
 30
0.0
 40
24.31434380608028
  0
TEXT
  5
23FC
330
2539
100
AcDbEntity
  8
Key
  6
DGN Style 6
 62
   250
370
    13
100
AcDbText
 10
-12459.850295
 20
-7078.153997
 30
0.0
 40
47.36185
  1
= Datum used for house excavations
 41
1.184186
  7
Style-Garamond
 11
-12459.850295
 21
-7030.792147
 31
0.0
100
AcDbText
 73
     3
  0
LINE
  5
23FD
330
2539
100
AcDbEntity
  8
Works Road
370
    13
100
AcDbLine
 10
-12682.749502
 20
-7139.819541
 30
0.0
 11
-12491.569569
 21
-7139.819541
 31
0.0
  0
LINE
  5
23FE
330
2539
100
AcDbEntity
  8
Works Road
370
    13
100
AcDbLine
 10
-12682.749502
 20
-7168.662818
 30
0.0
 11
-12491.569569
 21
-7168.662818
 31
0.0
  0
LINE
  5
23FF
330
2539
100
AcDbEntity
  8
Stone Wall
370
    13
100
AcDbLine
 10
-12670.267212
 20
-7683.354433
 30
0.0
 11
-12479.087279
 21
-7683.354433
 31
0.0
  0
LINE
  5
2400
330
2539
100
AcDbEntity
  8
Anchovy  Gully
370
    13
100
AcDbLine
 10
-12696.909655
 20
-7295.135977
 30
0.0
 11
-12483.770111
 21
-7295.135977
 31
0.0
  0
LINE
  5
2401
330
2539
100
AcDbEntity
  8
Fenceline
370
    13
100
AcDbLine
 10
-12658.849023
 20
-7799.439363
 30
0.0
 11
-12478.061016
 21
-7799.439363
 31
0.0
  0
LINE
  5
2402
330
2539
100
AcDbEntity
  8
Aqueduct
370
    13
100
AcDbLine
 10
-12656.945991
 20
-7921.233388
 30
0.0
 11
-12476.157985
 21
-7921.233388
 31
0.0
  0
LWPOLYLINE
  5
2404
330
2539
100
AcDbEntity
  8
Key
370
    13
100
AcDbPolyline
 90
        4
 70
   129
 43
0.0
 10
-12845.346124
 20
-6893.5963
 10
-11045.078188
 20
-6893.5963
 10
-11045.078188
 20
-8644.385413
 10
-12845.346124
 20
-8644.385413
  0
TEXT
  5
2405
330
2539
100
AcDbEntity
  8
Structure Numbers
100
AcDbText
 10
-2142.094957
 20
-3680.41094
 30
0.0
 40
119.760434
  1
42
 50
331.445679
  7
Style-Garamond
 11
-2084.85046
 21
-3575.217646
 31
0.0
100
AcDbText
 73
     3
  0
TEXT
  5
2406
330
2539
100
AcDbEntity
  8
Structure Numbers
100
AcDbText
 10
-1814.343047
 20
-3387.159231
 30
0.0
 40
119.760434
  1
41
 50
331.445679
  7
Style-Garamond
 11
-1757.09855
 21
-3281.965937
 31
0.0
100
AcDbText
 73
     3
  0
TEXT
  5
2407
330
2539
100
AcDbEntity
  8
Structure Numbers
100
AcDbText
 10
-3108.100586
 20
-2744.592987
 30
0.0
 40
119.760434
  1
38
 50
331.445679
  7
Style-Garamond
 11
-3050.856089
 21
-2639.399693
 31
0.0
100
AcDbText
 73
     3
  0
TEXT
  5
2408
330
2539
100
AcDbEntity
  8
Structure Numbers
100
AcDbText
 10
-4049.378289
 20
-1257.807454
 30
0.0
 40
119.760434
  1
36
 50
331.445679
  7
Style-Garamond
 11
-3992.133792
 21
-1152.61416
 31
0.0
100
AcDbText
 73
     3
  0
ENDSEC
  0
SECTION
  2
OBJECTS
  0
DICTIONARY
  5
254C
330
0
100
AcDbDictionary
281
     1
  3
ACAD_GROUP
350
254A
  3
ACAD_LAYOUT
350
254D
  3
ACAD_MLINESTYLE
350
254B
  3
ACAD_PLOTSETTINGS
350
254E
  3
ACAD_PLOTSTYLENAME
350
254F
  3
ACAD_TABLESTYLE
350
257B
  3
AcadDim
350
2561
  3
DWGPROPS
350
26E5
  0
DICTIONARY
  5
254A
102
{ACAD_REACTORS
330
254C
102
}
330
254C
100
AcDbDictionary
281
     1
  0
DICTIONARY
  5
254D
102
{ACAD_REACTORS
330
254C
102
}
330
254C
100
AcDbDictionary
281
     1
  3
Layout1
350
2540
  3
Model
350
253C
  0
DICTIONARY
  5
254B
102
{ACAD_REACTORS
330
254C
102
}
330
254C
100
AcDbDictionary
281
     1
  3
Standard
350
2537
  0
DICTIONARY
  5
254E
102
{ACAD_REACTORS
330
254C
102
}
330
254C
100
AcDbDictionary
281
     1
  0
ACDBDICTIONARYWDFLT
  5
254F
102
{ACAD_REACTORS
330
254C
102
}
330
254C
100
AcDbDictionary
281
     1
  3
Normal
350
2532
100
AcDbDictionaryWithDefault
340
2532
  0
DICTIONARY
  5
257B
102
{ACAD_REACTORS
330
254C
102
}
330
254C
100
AcDbDictionary
281
     1
  0
XRECORD
  5
2561
102
{ACAD_REACTORS
330
254C
102
}
330
254C
100
AcDbXrecord
280
     1
 90
   990106
  3
 
 60
     0
 61
     0
 62
     1
 63
     1
 64
     0
 65
     0
 66
     0
 67
     3
 68
     1
 69
     1
 70
     0
 71
     0
 72
     0
 40
0.0
170
     0
  0
XRECORD
  5
26E5
102
{ACAD_REACTORS
330
254C
102
}
330
254C
100
AcDbXrecord
280
     1
  1
DWGPROPS COOKIE
  2

  3

  4
lcooper
  6

  7

  8

  9

300
=
301
=
302
=
303
=
304
=
305
=
306
=
307
=
308
=
309
=
 40
0.0
 41
2451789.537469
 42
2451789.537561
  1

 90
        0
  0
LAYOUT
  5
2540
102
{ACAD_REACTORS
330
254D
330
254D
102
}
330
254D
100
AcDbPlotSettings
  1

  2

  4

  6

 40
0.0
 41
0.0
 42
0.0
 43
0.0
 44
0.0
 45
0.0
 46
0.0
 47
0.0
 48
0.0
 49
0.0
140
0.0
141
0.0
142
1.0
143
1.0
 70
   688
 72
     0
 73
     0
 74
     5
  7

 75
    16
147
1.0
148
0.0
149
0.0
100
AcDbLayout
  1
Layout1
 70
     1
 71
     1
 10
0.0
 20
0.0
 11
12.0
 21
9.0
 12
0.0
 22
0.0
 32
0.0
 14
1.000000E+20
 24
1.000000E+20
 34
1.000000E+20
 15
-1.000000E+20
 25
-1.000000E+20
 35
-1.000000E+20
146
0.0
 13
0.0
 23
0.0
 33
0.0
 16
1.0
 26
0.0
 36
0.0
 17
0.0
 27
1.0
 37
0.0
 76
     0
330
253D
  0
LAYOUT
  5
253C
102
{ACAD_REACTORS
330
254D
330
254D
102
}
330
254D
100
AcDbPlotSettings
  1

  2

  4

  6

 40
0.0
 41
0.0
 42
0.0
 43
0.0
 44
0.0
 45
0.0
 46
0.0
 47
0.0
 48
0.0
 49
0.0
140
0.0
141
0.0
142
1.0
143
1.0
 70
  1712
 72
     0
 73
     0
 74
     0
  7

 75
     0
147
1.0
148
0.0
149
0.0
100
AcDbLayout
  1
Model
 70
     1
 71
     0
 10
0.0
 20
0.0
 11
12.0
 21
9.0
 12
0.0
 22
0.0
 32
0.0
 14
0.0
 24
0.0
 34
0.0
 15
0.0
 25
0.0
 35
0.0
146
0.0
 13
0.0
 23
0.0
 33
0.0
 16
1.0
 26
0.0
 36
0.0
 17
0.0
 27
1.0
 37
0.0
 76
     0
330
2539
  0
MLINESTYLE
  5
2537
102
{ACAD_REACTORS
330
254B
102
}
330
254B
100
AcDbMlineStyle
  2
STANDARD
 70
     0
  3

 62
   256
 51
90.0
 52
90.0
 71
     2
 49
0.5
 62
   256
  6
BYLAYER
 49
-0.5
 62
   256
  6
BYLAYER
  0
ACDBPLACEHOLDER
  5
2532
102
{ACAD_REACTORS
330
254F
102
}
330
254F
  0
ENDSEC
  0
SECTION
  2
THUMBNAILIMAGE
 90
    22304
310
28000000B4000000760000000100080000000000F85200000004000000040000000100000C000000FFFFFF0000780000303030000060C800480000000000F8007878000058585800E8582800F800000000384800F8F8F800FFFFFF00FFFFFF00FFFFFF00FFFFFF00FFFFFF00FFFFFF00FFFFFF00FFFFFF00FFFFFF00FFFFFF
310
00FFFFFF00FFFFFF00FFFFFF00FFFFFF00FFFFFF00FFFFFF00FFFFFF00FFFFFF00FFFFFF00FFFFFF00FFFFFF00FFFFFF00FFFFFF00FFFFFF00FFFFFF00FFFFFF00FFFFFF00FFFFFF00FFFFFF00FFFFFF00FFFFFF00FFFFFF00FFFFFF00FFFFFF00FFFFFF00FFFFFF00FFFFFF00FFFFFF00FFFFFF00FFFFFF00FFFFFF00FFFF
310
FF00FFFFFF00FFFFFF00FFFFFF00FFFFFF00FFFFFF00FFFFFF00FFFFFF00FFFFFF00FFFFFF00FFFFFF00FFFFFF00FFFFFF00FFFFFF00FFFFFF00FFFFFF00FFFFFF00FFFFFF00FFFFFF00FFFFFF00FFFFFF00FFFFFF00FFFFFF00FFFFFF00FFFFFF00FFFFFF00FFFFFF00FFFFFF00FFFFFF00FFFFFF00FFFFFF00FFFFFF00FF
310
FFFF00FFFFFF00FFFFFF00FFFFFF00FFFFFF00FFFFFF00FFFFFF00FFFFFF00FFFFFF00FFFFFF00FFFFFF00FFFFFF00FFFFFF00FFFFFF00FFFFFF00FFFFFF00FFFFFF00FFFFFF00FFFFFF00FFFFFF00FFFFFF00FFFFFF00FFFFFF00FFFFFF00FFFFFF00FFFFFF00FFFFFF00FFFFFF00FFFFFF00FFFFFF00FFFFFF00FFFFFF00
310
FFFFFF00FFFFFF00FFFFFF00FFFFFF00FFFFFF00FFFFFF00FFFFFF00FFFFFF00FFFFFF00FFFFFF00FFFFFF00FFFFFF00FFFFFF00FFFFFF00FFFFFF00FFFFFF00FFFFFF00FFFFFF00FFFFFF00FFFFFF00FFFFFF00FFFFFF00FFFFFF00FFFFFF00FFFFFF00FFFFFF00FFFFFF00FFFFFF00FFFFFF00FFFFFF00FFFFFF00FFFFFF
310
00FFFFFF00FFFFFF00FFFFFF00FFFFFF00FFFFFF00FFFFFF00FFFFFF00FFFFFF00FFFFFF00FFFFFF00FFFFFF00FFFFFF00FFFFFF00FFFFFF00FFFFFF00FFFFFF00FFFFFF00FFFFFF00FFFFFF00FFFFFF00FFFFFF00FFFFFF00FFFFFF00FFFFFF00FFFFFF00FFFFFF00FFFFFF00FFFFFF00FFFFFF00FFFFFF00FFFFFF00FFFF
310
FF00FFFFFF00FFFFFF00FFFFFF00FFFFFF00FFFFFF00FFFFFF00FFFFFF00FFFFFF00FFFFFF00FFFFFF00FFFFFF00FFFFFF00FFFFFF00FFFFFF00FFFFFF00FFFFFF00FFFFFF00FFFFFF00FFFFFF00FFFFFF00FFFFFF00FFFFFF00FFFFFF00FFFFFF00FFFFFF00FFFFFF00FFFFFF00FFFFFF00FFFFFF00FFFFFF00FFFFFF00FF
310
FFFF00FFFFFF00FFFFFF00FFFFFF00FFFFFF00FFFFFF00FFFFFF00FFFFFF00FFFFFF00FFFFFF00FFFFFF00FFFFFF00FFFFFF00FFFFFF00FFFFFF00FFFFFF00FFFFFF00FFFFFF00FFFFFF00FFFFFF00FFFFFF00FFFFFF00FFFFFF00FFFFFF00FFFFFF00FFFFFF00FFFFFF00FFFFFF00FFFFFF00FFFFFF00FFFFFF00FFFFFF00
310
FFFFFF00FFFFFF00FFFFFF00FFFFFF00FFFFFF00FFFFFF00FFFFFF00FFFFFF00FFFFFF00FFFFFF00FFFFFF00FFFFFF000B0B0B0B0B0B0B0B0B0B0B0B0B0B0B0B0B030B0B0B0B070B0B0B0B0B0B0B0B0B0B0B0B0B0B0B0B0B0B0B0B0B0B0B0B0B070B0B0B0B0B0B0B0B0B0B0B0B0B0B0B0B0B0B0B070B0B0B0B0B0B0B0B0B0B
310
0B0B0B0B0B0B0B0B0B0B0B0B0B0B0B0B0B0B0B0B0B0B0B0B0B0B0B0B0B0B0B0B0B0B0B0B0B0B0B0B0B0B0B0B0B0B0B0B0B0B0B0B0B0B0B0B0B0B0B0B0B0B0B0B0B0B0B0B0B0B0B0B0B0B0B0B0B0B0B0B0B0B0B0B0B0B0B0B0B0B0B0B0B0B0B0B0B0B0B0B0B0B0B0B0B0B0B0B0B0B0B0B0B0B0B0B0B0B030B0B0B0B0B0B0B0B
310
0B0B0B0B0B0B0B0B0B0B0B0B0B0B0B0B0B0B0B0B07070B070B0B0B0B0B0B0B0B0B0B0B0B0B0B0B0B0B0B0B070B0B0B0B0B0B0B0B0B0B0B0B0B0B0B0B0B0B0B0B0B0B0B0B0B0B0B0B0B0B0B0B0B0B0B0B0B0B0B0B0B0B0B0B0B0B0B0B0B0B0B0B0B0B0B0B0B0B0B0B0B0B0B0B0B0B0B0B0B0B0B0B0B0B0B0B0B0B0B0B0B0B0B
310
0B0B0B0B0B0B0B0B0B0B0B0B0B0B0B0B0B0B0B0B0B0B0B0B0B0B0B0B0B0B0B0B0B0B0B0B0B0B0B0B0B0B0B0B0B030B0B0B0B0B0B0B0B0B0B0B0B0B0B0B0B0B0B0B0B0B0B0B0B0B0B070B0B0B0B070B0B0B0B0B0B0B0B0B0B0B0B0B0B0B0B0B0B0B070B0B0B0B0B0B0B0B0B0B0B0B0B0B0B0B0B0B0B0B0B0B0B0B0B0B0B0B0B
310
0B0B0B0B0B0B0B0B0B0B0B0B0B0B0B0B0B0B0B0B0B0B0B0B0B0B0B0B0B0B0B0B0B0B0B0B0B0B0B0B0B0B0B0B0B0B0B0B0B0B0B0B0B0B0B0B0B0B0B0B0B0B0B0B0B0B0B0B0B0B0B0B0B0B0B0B0B0B0B0B0B0B0B0B0B0B0B0B0B0B0B0B0B0B0B0B0B0B030B0B0B0B0B0B0B0B0B0B0B0B0B0B0B0B0B0B0B0B0B0B0B0B07070B0B
310
0B0B0B070B0B0B0B0B0B0B0B0B0B0B0B0B0B0B0B0B0B0B0B070B0B0B0B0B0B0B0B0B0B0B0B0B0B0B0B0B0B0B0B0B0B0B0B0B0B0B0B0B0B0B0B0B0B0B0B0B0B0B0B0B0B0B0B0B0B0B0B0B0B0B0B0B0B0B0B0B0B0B0B0B0B0B0B0B0B0B0B0B0B0B0B0B0B0B0B0B0B0B0B0B0B0B0B0B0B0B0B0B0B0B0B0B0B0B0B0B0B0B0B0B0B
310
0B0B0B0B0B0B0B0B0B0B0B0B0B0B0B0B0B0B0B0B0B0B0B0B0B030B0B0B0B0B0B0B0B0B0B0B0B0B0B0B0B0B0B0B0B0B0B070B0B0B0B0B0B0B0B070B0B0B0B0B0B0B0B0B0B0B0B0B0B0B0B0B0B0B070B0B0B0B0B0B0B0B0B0B0B0B0B0B0B0B0B0B0B0B0B0B0B0B0B0B0B0B0B0B0B0B0B0B0B0B0B0B0B0B0B0B0B0B0B0B0B0B0B
310
0B0B0B0B0B0B0B0B0B0B0B0B0B0B0B0B0B0B0B0B0B0B0B0B0B0B0B0B0B0B0B0B0B0B0B0B0B0B0B0B0B0B0B0B0B0B0B0B0B0B0B0B0B0B0B0B0B0B0B0B0B0B0B0B0B0B0B0B0B0B0B0B0B0B0B0B0B0B0B030B0B0B0B0B0B0B0B0B0B0B0B0B0B0B0B0B0B0B07070B0B0B0B0B0B0B0B0B0B070B0B0B0B0B0B0B0B0B0B0B0B0B0B0B
310
0B0B0B0B070B0B0B0B0B0B0B0B0B0B0B0B0B0B0B0B0B0B0B0B0B0B0B0B0B0B0B0B0B0B0B0B0B0B0B0B0B0B0B0B0B0B0B0B0B0B0B0B0B0B0B0B0B0B0B0B0B0B0B0B0B0B0B0B0B0B0B0B0B0B0B0B0B0B0B0B0B0B0B0B0B0B0B0B0B0B0B0B0B0B0B0B0B0B0B0B0B0B0B0B0B0B0B0B0B0B0B0B0B0B0B0B0B0B0B0B0B0B0B0B0B0B
310
0B0B0B0B0B030B0B0B0B0B0B0B0B0B0B0B0B0B0B0B0B0B0B070B0B0B0B0B0B0B0B0B0B0B0B0B0B0B0B0B0B0B0B0B0B0B0B0B0B0B0B0B0B0B0B0B070B0B0B0B0B0B0B0B0B0B0B0B0B0B0B0B0B0B0B0B0B0B0B0B0B0B0B0B0B0B0B0B0B0B0B0B0B0B0B0B0B0B0B0B0B0B0B0B0B0B0B0B0B0B0B0B0B0B0B0B0B0B0B0B0B0B0B0B
310
0B0B0B0B0B0B0B0B0B0B0B0B0B0B0B0B0B0B0B0B0B0B0B0B0B0B0B0B0B0B0B0B0B0B0B0B0B0B0B0B0B0B0B0B0B0B0B0B0B0B0B0B0B0B0B0B0B0B0B030B0B0B0B0B0B0B0B0B0B0B0B0B0B0B0B0B070B0B0B0B0B0B0B0B0B0B0B0B0B0B0B0B0B0B0B0B0B0B0B0B0B0B0B0B0B0B0B0B0B0B070B0B0B0B0B0B0B0B0B0B0B0B0B0B
310
0B0B0B0B0B0B0B0B0B0B0B0B0B0B0B0B0B0B0B0B0B0B0B0B0B0B0B0B0B0B0B0B0B0B0B0B0B0B0B0B0B0B0B0B0B0B0B0B0B0B0B0B0B0B0B0B0B0B0B0B0B0B0B0B0B0B0B0B0B0B0B0B0B0B0B0B0B0B0B0B0B0B0B0B0B0B0B0B0B0B0B0B0B0B0B0B0B0B0B0B0B0B0B0B0B0B0B0B0B0B0B0B030B0B0B0B0B0B0B0B0B0B0B0B0B0B
310
0B0B0B0B070B0B0B0B0B0B0B0B0B0B0B0B0B0B0B0B0B0B0B0B0B0B0B0B0B0B0B0B0B0B0B0B0B070B0B0B0B0B0B0B0B0B0B0B0B0B0B0B0B0B0B0B0B0B0B0B0B0B0B0B0B0B0B0B0B0B0B0B0B0B0B0B0B0B0B0B0B0B0B0B0B0B0B0B0B0B0B0B0B0B0B0B0B0B0B0B0B0B0B0B0B0B0B0B0B0B0B0B0B0B0B0B0B0B0B0B0B0B0B0B0B
310
0B0B0B0B0B0B0B0B0B0B0B0B0B0B0B0B0B0B0B0B0B0B0B0B0B0B0B0B0B0B0B0B0B0B0B0B0B0B0B030B0B0B0B0B0B0B0B0B0B0B0B0B0B0B0B0B0B070B0B0B0B0B0B0B0B0B0B0B0B0B0B0B010B0B0B0B0B0B0B0B0B0B0B0B0B0B0B0B0B070B0B0B0B0B0B0B0B0B0B0B0B0B0B0B0B0B0B0B0B0B0B0B0B0B0B0B0B0B0B0B0B0B0B
310
0B0B0B0B0B0B0B0B0B0B0B0B0B0B0B0B0B0B0B0B0B0B0B0B0B0B0B0B0B0B0B0B0B0B0B0B0B0B0B0B0B0B0B0B0B0B0B0B0B0B0B0B0B0B0B0B0B0B0B0B0B0B0B0B0B0B0B0B0B0B0B0B0B0B0B0B0B0B0B0B0B0B0B0B0B0B0B0B0B0B0B0B030B0B0B0B0B0B0B0B0B0B0B0B0B0B0B0B0B0B0B070B0B0B0B0B0B0B0B0B0B0B0B0B0B
310
07010B0B0B0B0B0B0B0B0B0B0B0B0B0B0B0B01010B0B0B0B0B0B0B0B0B0B0B0B0B0B0B0B0B0B0B0B0B0B0B0B0B0B0B0B0B0B0B0B0B0B0B0B0B0B0B0B0B0B0B0B0B0B0B0B0B0B0B0B0B0B0B0B0B0B0B0B0B0B0B0B0B0B0B0B0B0B0B0B0B0B0B0B0B0B0B0B0B0B0B0B0B0B0B0B0B0B0B0B0B0B0B0B0B0B0B0B0B0B0B0B0B0B0B
310
0B0B0B0B0B0B0B0B0B0B0B0B0B0B0B0B0B0B0B030B0B0B070B0B0B0B0B0B0B0B0B0B0B0B0B0B0B070B0B0B0B0B0B0B0B0B0B0B0B0B0B07010B0B0B0B0B0B0B0B0B0B0B0B0B0B01010101010B0B0B0B0B0B0B0B0B0B0B0B0B0B0B0B0B0B0B0B0B0B0B0B0B0B0B0B0B0B0B0B0B0B0B0B0B0B0B0B0B0B0B0B0B0B0B0B0B0B0B0B
310
0B0B0B0B0B0B0B0B0B0B0B0B0B0B0B0B0B0B0B0B0B0B0B0B0B0B0B0B0B0B0B0B0B0B0B0B0B0B0B0B0B0B0B0B0B0B0B0B0B0B0B0B0B0B0B0B0B0B0B0B0B0B0B0B0B0B0B0B0B0B0B0B0B030B0B070B0B0B0B0B0B0B0B0B0B0B0B0B0B0B070B0B0B0B0B0B0B0B0B0B0B0B0B0B0B07010B0B0B0B0B0B0B0B0B0B0B0B0101010101
310
010B0B0B0B0B0B0B0B0B0B0B0B0B0B0B0B0B0B0B0B0B0B0B0B0B0B0B0B0B0B0B0B0B0B0B0B0B0B0B0B0B0B0B0B0B0B0B0B0B0B0B0B0B0B0B0B0B0B0B0B0B0B0B0B0B0B0B0B0B0B0B0B0B0B0B0B0B0B0B0B0B0B0B0B0B0B0B0B0B0B0B0B0B0B0B0B0B0B0B0B0B0B0B0B0B0B0B0B0B0B0B0B0B0B0B0B0B0B0B0B0B0B0B0B0B03
310
0B0B0B0B0B0B0B0B0B0B0B0B0B0B0B0B0B0B0B070B0B0B0B0B0B0B0B0B0B0B0B0B0B0B07010B0B0B0B0B0B0B0B0B0B0101010101010101010B0B0B0B0B0B0B0B0B0B0B0B0B0B0B0B0B0B0B0B0B0B0B0B0B0B0B0B0B0B0B0B0B0B0B0B0B0B0B0B0B0B0B0B0B0B0B0B0B0B0B0B0B0B0B0B0B0B0B0B0B0B0B0B0B0B0B0B0B0B0B
310
0B0B0B0B0B0B0B0B0B0B0B0B0B0B0B0B0B0B0B0B0B0B0B0B0B0B0B0B0B0B0B0B0B0B0B0B0B0B0B0B0B0B0B0B0B0B0B0B0B0B0B0B0B070B0B070B0B0B0B0B0B0B0B0B0B0B0B0B0B0B0B070B0B0B0B0B0B0B0B0B0B0B0B0B0B0701010B0B0B0B0B0B0B0B0B0101010101010101010B0B0B0B0B0B0B0B0B0B0B0B0B0B0B0B0B0B
310
0B0B0B0B0B0B0B0B0B0B0B0B0B0B0B0B0B0B0B0B0B0B0B0B0B0B0B0B0B0B0B0B0B0B0B0B0B0B0B0B0B0B0B0B0B0B0B0B0B0B0B0B0B0B0B0B0B0B0B0B0B0B0B0B0B0B0B0B0B0B0B0B0B0B0B0B0B0B0B0B0B0B0B0B0B0B0B0B0B0B0B0B0B0B0B0B0B0B0B0B0B0B0B0B0B0B030B0B0B070B0B0B0B0B0B0B0B0B0B0B0B0B0B0B0B
310
070B0B0B0B0B0B0B0B0B0B0B0B0B0B0701010B0B0B0B0B0B0B0B0B0101010101010101010B0B0B0B0B0B0B0B0B0B0B0B0B0B0B0B0B0B0B0B0B0B0B0B0B0B0B0B0B0B0B0B0B0B0B0B0B0B0B0B0B0B0B0B0B0B0B0B0B0B0B0B0B0B0B0B0B0B0B0B0B0B0B0B0B0B0B0B0B0B0B0B0B0B0B0B0B0B0B0B0B0B0B0B0B0B0B0B0B0B0B
310
0B0B0B0B0B0B0B0B0B0B0B0B0B0B0B0B0B0B0B0B0B0B0B0B0B0B0B0B0B0B0B0B0B030B0B070B0B0B0B0B0B0B0B0B0B0B0B0B0B0B0B0B070B0B0B0B0B0B0B0B0B0B0B0B0B0B0701010B0B0B0B0B0B0B0B0B01010101010101010B0B0B0B0B0B0B0B0B0B0B0B0B0B0B0B0B0B0B0B0B0B0B0B0B0B0B0B0B0B0B0B0B0B0B0B0B0B
310
0B0B0B0B0B0B0B0B0B0B0B0B0B0B0B0B0B0B0B0B0B0B0B0B0B0B0B0B0B0B0B0B0B0B0B0B0B0B0B0B0B0B0B0B0B0B0B0B0B0B0B0B0B0B0B0B0B0B0B0B0B0B0B0B0B0B0B0B0B0B0B0B0B0B0B0B0B0B0B0B0B0B0B0B0B0B030B0B0B070B0B0B0B0B0B0B0B0B0B0B0B0B0B0B0B0B070B0B0B0B0B0B0B0B0B0B0B0B0B0B0701010B
310
0B0B0B0B0B0B0B0B0B0101010101010B0B0B0B0B0B0B0B0B0B0B0B0B0B0B0B0B0B0B0B0B0B0B0B0B0B0B0B0B0B0B0B0B0B0B0B0B0B0B0B0B0B0B0B0B0B0B0B0B0B0B0B0B0B0B0B0B0B0B0B0B0B0B0B0B0B0B0B0B0B0B0B0B0B0B0B0B0B0B0B0B0B0B0B0B0B0B0B0B0B0B0B0B0B0B0B0B0B0B0B0B0B0B0B0B0B0B0B0B0B0B0B
310
0B0B0B0B0B0B0B0B0B0B0B0B0B030B0B0B0B0B0B0B0B0B0B0B0B0B0B0B0B0B0B0707070B0B0B0B0B0B0B0B0B0B0B0B0B0B0B0701010B0B0B0B0B0B0B0B0B010101010101010B0B0B0B0B0B0B0B0B0B0B0B0B0B0B0B0B0B0B0B0B0B0B0B0B0B0B0B0B0B0B0B0B0B0B0B0B0B0B0B0B0B0B0B0B0B0B0B0B0B0B0B0B0B0B0B0B0B
310
0B0B0B0B0B0B0B0B0B0B0B0B0B0B0B0B0B0B0B0B0B0B0B0B0B0B0B0B0B0B0B0B0B0B0B0B0B0B0B0B0B0B0B0B0B0B0B0B0B0B0B0B0B0B0B0B0B0B0B0B0B0B0B0B0B0B030B0B0B070B0B0B0B0B0B0B0B0B0B070707070B0B0B0B0B0B0B0B0B0B0B0B0B0B0B0B0B0B0B0701010B0B0B0B0B0B0B0B0B01010101010B070B0B0B0B
310
0B0B0B0B0B0B0B0B0B0B0B0B0B0B0B0B0B0B0B0B0B0B0B0B0B0B0B0B0B0B0B0B0B0B0B0B0B0B0B0B0B0B0B0B0B0B0B0B0B0B0B0B0B0B0B0B0B0B0B0B0B0B0B0B0B0B0B0B0B0B0B0B0B0B0B0B0B0B0B0B0B0B0B0B0B0B0B0B0B0B0B0B0B0B0B0B0B0B0B0B0B0B0B0B0B0B0B0B0B0B0B0B0B0B0B0B0B0B0B0B030B0B070B0B0B
310
0B0B07070707070B0B0B0B0B0B0B0B0B0B0B0B0B0B0B0B0B0B0B0B0B0B0B0B070B010B0B0B0B0B0B0B0B0B0B0B0B0B0B070B0B0B0B0B0B0B0B0B0B0B0B0B0B0B0B0B0B0B0B0B0B0B0B0B0B0B0B0B0B0B0B0B0B0B0B0B0B0B0B0B0B0B0B0B0B0B0B0B0B0B0B0B0B0B0B0B0B0B0B0B0B0B0B0B0B0B0B0B0B0B0B0B0B0B0B0B0B
310
0B0B0B0B0B0B0B0B0B0B0B0B0B0B0B0B0B0B0B0B0B0B0B0B0B0B0B0B0B0B0B0B0B0B0B0B0B0B0B0B0B0B0B0B0B0B0B030B0B070B0707070B0B0B0B0B0B0B0B0B0B0B0B0B0B0B0B0B0B0B0B0B0B0B0B0B0B0B0B0B0B070B010B0B0B0B0B0B0B0B0B0B0B0B0B0B070B0B0B0B0B0B0B0B0B0B0B0B0B0B0B0B0B0B0B0B0B0B0B0B
310
0B0B0B0B0B0B0B0B0B0B0B0B0B0B0B0B0B0B0B0B0B0B0B0B0B0B0B0B0B0B0B0B0B0B0B0B0B0B0B0B0B0B0B0B0B0B0B0B0B0B0B0B0B0B0B0B0B0B0B0B0B0B0B0B0B0B0B0B0B0B0B0B0B0B0B0B0B0B0B0B0B0B0B0B0B0B0B0B0B0B0B0B0B0B0B0B0B0B0B0B030B0B0B070B0B0B0B0B0B0B0B0B0B0B0B0B0B0B0B0B0B0B070B0B
310
0B0B0B0B0B0B0B0B0B0B0B0B070B010B0B0B0B0B0B0B0B0B0B0B0B0B0B070B0B0B0B0B0B0B0B0B0B0B0B0B0B0B0B0B0B0B0B0B0B0B0B0B0B0B0B0B0B0B0B0B0B0B0B0B0B0B0B0B0B0B0B0B0B0B0B0B0B0B0B0B0B0B0B0B0B0B0B0B0B0B0B0B0B0B0B0B0B0B0B0B0B0B0B0B0B0B0B0B0B0B0B0B0B0B0B0B0B0B0B0B0B0B0B0B
310
0B0B0B0B0B0B0B0B0B0B0B0B0B0B0B0B0B0B0B0B0B0B0B0B0B0B0B030B0B070B0B0B0B0B0B0B0B0B0B0B0B0B0B0B0B0B0B0B070B0B0B0B0B0B0B0B0B0B0B0B0B0B0B070B010B0B0B0B0B0B0B0B0B0B0B0B0B0B070B0B0B0B0B0B0B0B0B0B0B0B0B0B0B0B0B0B0B0B0B0B0B0B0B0B0B0B0B0B0B0B0B0B0B0B0B0B0B0B0B0B0B
310
0B0B0B0B0B0B0B0B0B0B0B0B0B0B0B0B0B0B0B0B0B0B0B0B0B0B0B0B0B0B0B0B0B0B0B0B0B0B0B0B0B0B0B0B0B0B0B0B0B0B0B0B0B0B0B0B0B0B0B0B0B0B0B0B0B0B0B0B0B0B0B0B0B0B0B0B0B0B0B0B030B0B0B070B0B0B0B0B0B0B0B0B0B0B0B0B0B0B0B0B0B070B0B0B0B0B0B0B0B0B0B0B0B0B0B0B0B070B010B0B0B0B
310
0B0B0B0B0B0B0B0B0B070B0B0B0B0B0B0B0B0B0B0B0B0B0B0B0B0B0B0B0B0B0B0B0B0B0B0B0B0B0B0B0B0B0B0B0B0B0B0B0B0B0B0B0B0B0B0B0B0B0B0B0B0B0B0B0B0B0B0B0B0B0B0B0B0B0B0B0B0B0B0B0B0B0B0B0B0B0B0B0B0B0B0B0B0B0B0B0B0B0B0B0B0B0B0B0B0B0B0B0B0B0B0B0B0B0B0B0B0B0B0B0B0B0B0B0B0B
310
0B0B0B0B0B0B0B030B0B0B0B0B0B0B0B0B0B0B0B0B0B0B0B0B0B0B0B0B070B0B0B0B0B0B0B0B0B0B0B0B0B0B0B0B0B070B010B0B0B0B0B040B0B0B0B0B0B0B070B0B0B0B0B0B0B0B0B0B0B0B0B0B0B0B0B0B0B0B0B0B0B0B0B0B0B0B0B0B0B0B0B0B0B0B0B0B0B0B0B0B0B0B0B0B0B0B0B0B0B0B0B0B0B0B0B0B0B0B0B0B0B
310
0B0B0B0B0B0B0B0B0B0B0B0B0B0B0B0B0B0B0B0B0B0B0B0B0B0B0B0B0B0B0B0B0B0B0B0B0B0B0B0B0B0B0B0B0B0B0B0B0B0B0B0B0B0B0B0B0B0B0B0B030B0B0B070B0B0B0B0B0B0B0B0B0B0B0B0B0B0B0B070B0B0B0B0B0B0B0B0B0B0B0B0B0B0B0B0B0B0B070B010B0B0405040B0B0B0B0B0B0B0B070B0B0B0B0B0B0B0B0B
310
0B0B0B0B0B0B0B0B0B0B0B0B0B0B0B0B0B0B0B0B0B0B0B0B0B0B0B0B0B0B0B0B0B0B0B0B0B0B0B0B0B0B0B0B0B0B0B0B0B0B0B0B0B0B0B0B0B0B0B0B0B0B0B0B0B0B0B0B0B0B0B0B0B0B0B0B0B0B0B0B0B0B0B0B0B0B0B0B0B0B0B0B0B0B0B0B0B0B0B0B0B0B0B0B0B0B0B0B0B0B0B0B0B0B030B0B0B070B0B0B0B0B0B0B0B
310
0B0B0B0B0B0B0B070B0B0B0B0B0B0B0B0B0B0B0B0B0B0B0B0B0B0B0B070B01040B0B0B040B0B0B0B0B0B0B0B070B0B0B0B0B0B0B0B0B0B0B0B0B0B0B0B0B0B0B0B0B0B0B0B0B0B0B0B0B0B0B0B0B0B0B0B0B0B0B0B0B0B0B0B0B0B0B0B0B0B0B0B0B0B0B0B0B0B0B0B0B0B0B0B0B0B0B0B0B0B0B0B0B0B0B0B0B0B0B0B0B0B
310
0B0B0B0B0B0B0B0B0B0B0B0B0B0B0B0B0B0B0B0B0B0B0B0B0B0B0B0B0B0B0B0B0B0B0B0B0B0B0B0B0B030B0B0B070B0B0B0B0B0B0B0B0B0B0B0B0B0B070B0B0B0B0B0B0B0B0B0B0B0B0B0B0B0B0B0B0B0B0B0701040B04040B0B0B0B0B0B0B0B0B070B0B0B0B0B0B0B0B0B0B0B0B0B0B0B0B0B0B0B0B0B0B0B0B0B0B0B0B0B
310
0B0B0B0B0B0B0B0B0B0B0B0B0B0B0B0B0B0B0B0B0B0B0B0B0B0B0B0B0B0B0B0B0B0B0B0B0B0B0B0B0B0B0B0B0B0B0B0B0B0B0B0B0B0B0B0B0B0B0B0B0B0B0B0B0B0B0B0B0B0B0B0B0B0B0B0B0B0B0B0B0B0B0B0B0B0B0B0B0B0B0B0B0B0B030B0B0B070B0B0B0B0B0B0B0B0B0B0B0B0707070B0B0B0B0B0B0B0B0B0B0B0B0B
310
0B0B0B0B0B0B0B0B0B0701040B0B0B0B0B0B0B0B0B0B0B0B070B0B0B0B0B0B0B0B0B0B0B0B0B0B0B0B0B0B0B0B0B0B0B0B0B0B0B0B0B0B0B0B0B0B0B0B0B0B0B0B0B0B0B0B0B0B0B0B0B0B0B0B0B0B0B0B0B0B0B0B0B0B0B0B0B0B0B0B0B0B0B0B0B0B0B0B0B0B0B0B0B0B0B0B0B0B0B0B0B0B0B0B0B0B0B0B0B0B0B0B0B0B
310
0B0B0B0B0B0B0B0B0B0B0B0B0B0B0B0B0B0B0B0B0B030B0B0B070B0B0B0B0B0707070707070B0B0B070707040707070B0B0B0B0B0B0B0B040B0B0B0B0B0B070B010B0B0B0B0B0B0B0B0B0B0B0404070B0B0B0B0B0B0B0B0B0B0B0B0B0B0B0B0B0B0B0B0B0B0B0B0B0B0B0B0B0B0B0B0B0B0B0B0B0B0B0B0B0B0B0B0B0B0B0B
310
0B0B0B0B0B0B0B0B0B0B0B0B0B0B0B0B0B0B0B0B0B0B0B0B0B0B0B0B0B0B0B0B0B0B0B0B0B0B0B0B0B0B0B0B0B0B0B0B0B0B0B0B0B0B0B0B0B0B0B0B0B0B0B0B0B0B0B0B0B0B0B0B0B0B030B0B0B0B070B0707070B0B0B0B0B0B0B0B0B0B0B04040B02020B0B0B0B0B0B0B04040402020B0B0B0B070B010B0B0B0B0B040504
310
040505040B070B0B0B0B0B0B0B0B0B0B0B0B0B0B0B0B0B0B0B0B0B0B0B0B0B0B0B0B0B0B0B0B0B0B0B0B0B0B0B0B0B0B0B0B0B0B0B0B0B0B0B0B0B0B0B0B0B0B0B0B0B0B0B0B0B0B0B0B0B0B0B0B0B0B0B0B0B0B0B0B0B0B0B0B0B0B0B0B0B0B0B0B0B0B0B0B0B0B0B0B0B0B0B0B0B0B0B0B0B0B0B0B0B0B0B0B0B0B0B0B0B
310
0B030B0B0B070B0B0B0B0B0B0B0B0B0B0B0B0B0B0B0B040202020B0B0B0B0B0B0B0B020202020B0B0B0B0B0701010B0B0B04050B04040B0B0404070B0B0B0B0B0B0B0B0B0B0B0B0B0B0B0B0B0B0B0B0B0B0B0B0B0B0B0B0B0B0B0B0B0B0B0B0B0B0B0B0B0B0B0B0B0B0B0B0B0B0B0B0B0B0B0B0B0B0B0B0B0B0B0B0B0B0B0B
310
0B0B0B0B0B0B0B0B0B0B0B0B0B0B0B0B0B0B0B0B0B0B0B0B0B0B0B0B0B0B0B0B0B0B0B0B0B0B0B0B0B0B0B0B0B0B0B0B0B0B0B0B0B0B030B0B0B0B070B0B0B0B0B0B0B0B0B0B0B0B0B0B0B02020B0B0B0B0B0B0B0B020202020B0B0B0B0B0B0B0B0701010B0B040404040B04040B0B0B070B0B0B0B0B0B0B0B0B0B0B0B0B0B
310
0B0B0B0B0B0B0B0B0B0B0B0B0B0B0B0B0B0B0B0B0B0B0B0B0B0B0B0B0B0B0B0B0B0B0B0B0B0B0B0B0B0B0B0B0B0B0B0B0B0B0B0B0B0B0B0B0B0B0B0B0B0B0B0B0B0B0B0B0B0B0B0B0B0B0B0B0B0B0B0B0B0B0B0B0B0B0B0B0B0B0B0B0B0B0B0B0B0B0B0B0B0B0B0B0B0B0B0B030B0B0B070B0B0B0B0B0B0B0B0B0B0B020202
310
02020B0B0B0B0B0B0B0B0B02020B0B0B0B0B0B0B0B0B0B0B0701010B0B0B0B0B0B0B040B0B0B0B070B0B0B0B0B0B0B0B0B0B0B0B0B0B0B0B0B0B0B0B0B0B0B0B0B0B0B0B0B0B0B0B0B0B0B0B0B0B0B0B0B0B0B0B0B0B0B0B0B0B0B0B0B0B0B0B0B0B0B0B0B0B0B0B0B0B0B0B0B0B0B0B0B0B0B0B0B0B0B0B0B0B0B0B0B0B0B
310
0B0B0B0B0B0B0B0B0B0B0B0B0B0B0B0B0B0B0B0B0B0B0B0B0B0B0B0B0B0B0B0B0B0B0B030B0B0B070B0B0B0B0B0B0B0B0B02020202020B0B0B040B0B0B0B0B0B0B0B0B0B0B0B0B0B0B0B0B0B0B0B0701010B0B0B0B0404040B0B0B0B0B070B0B0B0B0B0B0B0B0B0B0B0B0B0B0B0B0B0B0B0B0B0B0B0B0B0B0B0B0B0B0B0B0B
310
0B0B0B0B0B0B0B0B0B0B0B0B0B0B0B0B0B0B0B0B0B0B0B0B0B0B0B0B0B0B0B0B0B0B0B0B0B0B0B0B0B0B0B0B0B0B0B0B0B0B0B0B0B0B0B0B0B0B0B0B0B0B0B0B0B0B0B0B0B0B0B0B0B0B0B0B0B0B0B0B0B0B0B0B0B0B0B0B0B030B0B0B070B0B020B0B0B0B0B02020B0B0B0B0B04040B02020B0B0B0B0B0B0B0B0B0B0B0B0B
310
0702020B0B0701010B040405050B040B0B0B0B040B0B0B0B0B0B0B0B0B0B0B0B0B0B0B0B0B0B0B0B0B0B0B0B0B0B0B0B0B0B0B0B0B0B0B0B0B0B0B0B0B0B0B0B0B0B0B0B0B0B0B0B0B0B0B0B0B0B0B0B0B0B0B0B0B0B0B0B0B0B0B0B0B0B0B0B0B0B0B0B0B0B0B0B0B0B0B0B0B0B0B0B0B0B0B0B0B0B0B0B0B0B0B0B0B0B0B
310
0B0B0B0B0B0B0B0B0B0B0B0B0B0B0B0B030B0B0B07020B0B0B0B0B0B0B0B0B0B0B0B0B04020202020B0B0B0B0B0B0B0B0B0B0B0B0B020B0B050B0B0701010B040B04040B0B0B0B040B040B0B0B0B0B0B0B0B0B0B0B0B0B0B0B0B0B0B0B0B0B0B0B0B0B0B0B0B0B0B0B0B0B0B0B0B0B0B0B0B0B0B0B0B0B0B0B0B0B0B0B0B0B
310
0B0B0B0B0B0B0B0B0B0B0B0B0B0B0B0B0B0B0B0B0B0B0B0B0B0B0B0B0B0B0B0B0B0B0B0B0B0B0B0B0B0B0B0B0B0B0B0B0B0B0B0B0B0B0B0B0B0B0B0B0B0B0B0B0B0B0B0B0B0B030B0B0B070B0B0B0B0B0B0B0B0B0B0B02020202020B0B0B0B0B0B0B0B0B0B0B0B0B0B020B07050B040B0B0701010B040B0B0B0B0B04050B04
310
070B0B0B0B0B0B0B0B0B0B0B0B0B0B0B0B0B0B0B0B0B0B0B0B0B0B0B0B0B0B0B0B0B0B0B0B0B0B0B0B0B0B0B0B0B0B0B0B0B0B0B0B0B0B0B0B0B0B0B0B0B0B0B0B0B0B0B0B0B0B0B0B0B0B0B0B0B0B0B0B0B0B0B0B0B0B0B0B0B0B0B0B0B0B0B0B0B0B0B0B0B0B0B0B0B0B0B0B0B0B0B0B0B0B0B0B0B0B0B0B0B0B0B030B0B
310
070B0B0B0B0B0B0B0B0B0B0B02020B0B0B0B0B0B0B0B0B0B0B0B0B0B0B0B040B0B040B040B0B040B0701010B0B0B0B0B040B050B0B040B0B0B0B0B0B0B0B0B0B0B0B0B0B0B0B0B0B0B0B0B0B0B0B0B0B0B0B0B0B0B0B0B0B0B0B0B0B0B0B0B0B0B0B0B0B0B0B0B0B0B0B0B0B0B0B0B0B0B0B0B0B0B0B0B0B0B0B0B0B0B0B0B
310
0B0B0B0B0B0B0B0B0B0B0B0B0B0B0B0B0B0B0B0B0B0B0B0B0B0B0B0B0B0B0B0B0B0B0B0B0B0B0B0B0B0B0B0B0B0B0B0B0B0B0B030B0B07070B0B0B0B0B0B0B0B0B0B0B0B0B0B0B0B0B0B0B0B0B0B0B0B0B0405050B0B0B040B0B0405040B07010B0B0B0B0B0B040B04040B070B0B0B0B0B0B0B0B0B0B0B0B0B0B0B0B0B0B0B
310
0B0B0B0B0B0B0B0B0B0B0B0B0B0B0B0B0B0B0B0B0B0B0B0B0B0B0B0B0B0B0B0B0B0B0B0B0B0B0B0B0B0B0B0B0B0B0B0B0B0B0B0B0B0B0B0B0B0B0B0B0B0B0B0B0B0B0B0B0B0B0B0B0B0B0B0B0B0B0B0B0B0B0B0B0B0B0B0B0B0B0B0B0B0B0B0B0B0B0B0B0B0B0B0B0B030B0B070B0B0B0B0B0B0B0B0B0B0B0B0B0B0B0B0B0B
310
0B0B0B0B0B0B0B040B0B040B0B0B0B0405040B0B0B07010B0B0B0B0B04040B0B0B0B070B0B0B0B0B0B0B0B0B0B0B0B0B0B0B0B0B0B0B0B0B0B0B0B0B0B0B0B0B0B0B0B0B0B0B0B0B0B0B0B0B0B0B0B0B0B0B0B0B0B0B0B0B0B0B0B0B0B0B0B0B0B0B0B0B0B0B0B0B0B0B0B0B0B0B0B0B0B0B0B0B0B0B0B0B0B0B0B0B0B0B0B
310
0B0B0B0B0B0B0B0B0B0B0B0B0B0B0B0B0B0B0B0B0B0B0B0B0B0B0B0B0B0B0B0B030B0B070B0B0B0B0B0B0B0B0B0B0B0B0B0B0B0B0B0B0B02020B0B0B0B04040B0B0B0B0B0B040B0B0B0B07010B0B0B0B0505040B0B0B0B0B070B0B0B0B0B0B0B0B0B0B0B0B0B0B0B0B0B0B0B0B0B0B0B0B0B0B0B0B0B0B0B0B0B0B0B0B0B0B
310
0B0B0B0B0B0B0B0B0B0B0B0B0B0B0B0B0B0B0B0B0B0B0B0B0B0B0B0B0B0B0B0B0B0B0B0B0B0B0B0B0B0B0B0B0B0B0B0B0B0B0B0B0B0B0B0B0B0B0B0B0B0B0B0B0B0B0B0B0B0B0B0B0B0B0B0B0B0B0B0B0B0B0B0B0B0B030B0B070B0B0B0B0B0B0B0B0B02020B0B0B0B0B0B070B0B0B0B0B0B020B0B0B0B0B0B0B0B0B040B0B
310
0B07010B0B0B04040B0B0B0B0B0B040B0B0B0B0B0B0B0B0B0B0B0B0B0B0B0B0B0B0B0B0B0B0B0B0B0B0B0B0B0B0B0B0B0B0B0B0B0B0B0B0B0B0B0B0B0B0B0B0B0B0B0B0B0B0B0B0B0B0B0B0B0B0B0B0B0B0B0B0B0B0B0B0B0B0B0B0B0B0B0B0B0B0B0B0B0B0B0B0B0B0B0B0B0B0B0B0B0B0B0B0B0B0B0B0B0B0B0B0B0B0B0B
310
0B0B0B0B0B0B0B0B0B0B0B0B0B030B0B070B0B0B02020B0B0B0B020B0B0B0B0B0B070B0B0B0B0702020B0B0B0B0B0B0B0404050B0B0B07010B0B0B0B040B0B0B0B040404070B0B0B0B0B0B0B0B0B0B0B0B0B0B0B0B0B0B0B0B0B0B0B0B0B0B0B0B0B0B0B0B0B0B0B0B0B0B0B0B0B0B0B0B0B0B0B0B0B0B0B0B0B0B0B0B0B0B
310
0B0B0B0B0B0B0B0B0B0B0B0B0B0B0B0B0B0B0B0B0B0B0B0B0B0B0B0B0B0B0B0B0B0B0B0B0B0B0B0B0B0B0B0B0B0B0B0B0B0B0B0B0B0B0B0B0B0B0B0B0B0B0B0B0B0B0B030B07070B0B0B020B0B0B070B0B0B0B0B0B0B070B0B0B040B070B0B0B0B0B0B0B0B05050B040B0B07010B0B0B0B0B0B0B0B040B050B04070B0B0B0B
310
0B0B0B0B0B0B0B0B0B0B0B0B0B0B0B0B0B0B0B0B0B0B0B0B0B0B0B0B0B0B0B0B0B0B0B0B0B0B0B0B0B0B0B0B0B0B0B0B0B0B0B0B0B0B0B0B0B0B0B0B0B0B0B0B0B0B0B0B0B0B0B0B0B0B0B0B0B0B0B0B0B0B0B0B0B0B0B0B0B0B0B0B0B0B0B0B0B0B0B0B0B0B0B0B0B0B0B0B0B0B0B0B0B0B0B0B0B0B0B0B0B030B07070B0B
310
0B0B0B070B070B0B0B0B0B0B0B0B0B04050B0B070B0B0B0B0B0B0B0B04040B0B0B07010B0B0B0B0B0B0B0B0B040B040B0B070B0B0B0B0B0B0B0B0B0B0B0B0B0B0B0B0B0B0B0B0B0B0B0B0B0B0B0B0B0B0B0B0B0B0B0B0B0B0B0B0B0B0B0B0B0B0B0B0B0B0B0B0B0B0B0B0B0B0B0B0B0B0B0B0B0B0B0B0B0B0B0B0B0B0B0B0B
310
0B0B0B0B0B0B0B0B0B0B0B0B0B0B0B0B0B0B0B0B0B0B0B0B0B0B0B0B0B0B0B0B0B0B0B0B0B0B0B0B0B0B0B0B0B0B0B0B030B070B0B0B0B070B0B0B070B0B0B040B0B0B04050B040B0B0B0B0B0B0B0B0B0B0B0B0B0B0B07010B0B0B0B0B0B0B0B0B0B04040B0B070B0B0B0B0B0B0B0B0B0B0B0B0B0B0B0B0B0B0B0B0B0B0B0B
310
0B0B0B0B0B0B0B0B0B0B0B0B0B0B0B0B0B0B0B0B0B0B0B0B0B0B0B0B0B0B0B0B0B0B0B0B0B0B0B0B0B0B0B0B0B0B0B0B0B0B0B0B0B0B0B0B0B0B0B0B0B0B0B0B0B0B0B0B0B0B0B0B0B0B0B0B0B0B0B0B0B0B0B0B0B0B0B0B0B0B0B0B0B0B0B0B0B0B0B0B0B0B030B070B0B070B0B0B0B0B070B040B05040B0B04040B0B0B0B
310
0B0B0B0B0B0B0B0B040B0B0B070101070B0B0B0B0B0B0B04040B040B0B070B0B0B0B0B0B0B0B0B0B0B0B0B0B0B0B0B0B0B0B0B0B0B0B0B0B0B0B0B0B0B0B0B0B0B0B0B0B0B0B0B0B0B0B0B0B0B0B0B0B0B0B0B0B0B0B0B0B0B0B0B0B0B0B0B0B0B0B0B0B0B0B0B0B0B0B0B0B0B0B0B0B0B0B0B0B0B0B0B0B0B0B0B0B0B0B0B
310
0B0B0B0B0B0B0B0B0B0B0B0B0B0B0B0B0B0B0B0B0B0B0B0B0B0B0B0B030B0B07070B0B0B0B0B0B0B070505040B0B0B0B0B0B0B0B0B0B0B0B040B0B0B040B05040B0B070101070B0B0B0B0B040B0B050B0B0B0B070B0B0B0B0B0B0B0B0B0B0B0B0B0B0B0B0B0B0B0B0B0B0B0B0B0B0B0B0B0B0B0B0B0B0B0B0B0B0B0B0B0B0B
310
0B0B0B0B0B0B0B0B0B0B0B0B0B0B0B0B0B0B0B0B0B0B0B0B0B0B0B0B0B0B0B0B0B0B0B0B0B0B0B0B0B0B0B0B0B0B0B0B0B0B0B0B0B0B0B0B0B0B0B0B0B0B0B0B0B0B0B0B0B0B0B0B0B0B0B0B0B0B0B0B0B0B030B07070B0B0B0B0B0B0B0B07040B0B0B0B0B0B0B0B0B0B0B0B050505040B04050B0B040B0B0701070B0B0B0B
310
0B0B0405040B0B0B0B04070B0B0B0B0B0B0B0B0B0B0B0B0B0B0B0B0B0B0B0B0B0B0B0B0B0B0B0B0B0B0B0B0B0B0B0B0B0B0B0B0B0B0B0B0B0B0B0B0B0B0B0B0B0B0B0B0B0B0B0B0B0B0B0B0B0B0B0B0B0B0B0B0B0B0B0B0B0B0B0B0B0B0B0B0B0B0B0B0B0B0B0B0B0B0B0B0B0B0B0B0B0B0B0B0B0B0B0B0B0B0B0B0B0B0B0B
310
0B0B0B0B0B0B0B0B030B0B070B0B0B0B0B0B0B0B0B070B0B0B0B0B0B0B0B0B0B0B0B040B040B0B0B040B040B0B0B070101070B0B0B0B0B0B040B0B0B0B0405040B0B0B0B0B0B0B0B0B0B0B0B0B0B0B0B0B0B0B0B0B0B0B0B0B0B0B0B0B0B0B0B0B0B0B0B0B0B0B0B0B0B0B0B0B0B0B0B0B0B0B0B0B0B0B0B0B0B0B0B0B0B0B
310
0B0B0B0B0B0B0B0B0B0B0B0B0B0B0B0B0B0B0B0B0B0B0B0B0B0B0B0B0B0B0B0B0B0B0B0B0B0B0B0B0B0B0B0B0B0B0B0B0B0B0B0B0B0B0B0B0B0B0B0B0B0B030B07070B0B0B0B0B0B0B0B0B070B0B0B0B0B0B0B0B0B0B0B0B040B0B0B0B0B040B0B0B0B0B070101070B0B04050B0B0B0B0B07050B0B040B0B0B0B0B0B0B0B0B
310
0B0B0B0B0B0B0B0B0B0B0B0B0B0B0B0B0B0B0B0B0B0B0B0B0B0B0B0B0B0B0B0B0B0B0B0B0B0B0B0B0B0B0B0B0B0B0B0B0B0B0B0B0B0B0B0B0B0B0B0B0B0B0B0B0B0B0B0B0B0B0B0B0B0B0B0B0B0B0B0B0B0B0B0B0B0B0B0B0B0B0B0B0B0B0B0B0B0B0B0B0B0B0B0B0B0B0B0B0B0B0B0B0B0B0B030B0B070B0B0B0B0B0B0B0B
310
0B0B070B0B070B0B0B0B0B0B0B0B0B07070707070707070B0B0B0B070B070B0B05040B0B0B0707040B040504070B0B0B0B0B0B0B0B0B0B0B0B0B0B0B0B0B0B0B0B0B0B0B0B0B0B0B0B0B0B0B0B0B0B0B0B0B0B0B0B0B0B0B0B0B0B0B0B0B0B0B0B0B0B0B0B0B0B0B0B0B0B0B0B0B0B0B0B0B0B0B0B0B0B0B0B0B0B0B0B0B0B
310
0B0B0B0B0B0B0B0B0B0B0B0B0B0B0B0B0B0B0B0B0B0B0B0B0B0B0B0B0B0B0B0B0B0B0B0B0B0B0B0B0B030B0B0B070B0B0B0B0B0B0B0B0B0B0707070B0B0B0B070B0B0B0B0B0B0B0B0B0B0B0B0707040405070B070B0B04040B0B0B070B0405040B0B070B0B0B0B0B0B0B0B0B0B0B0B0B0B0B0B0B0B0B0B0B0B0B0B0B0B0B0B
310
0B0B0B0B0B0B0B0B0B0B0B0B0B0B0B0B0B0B0B0B0B0B0B0B0B0B0B0B0B0B0B0B0B0B0B0B0B0B0B0B0B0B0B0B0B0B0B0B0B0B0B0B0B0B0B0B0B0B0B0B0B0B0B0B0B0B0B0B0B0B0B0B0B0B0B0B0B0B0B0B0B0B0B0B0B0B0B0B0B0B0B0B0B0B0B030B0B070B0B0B0B0B0B0B0B070707070B0B0B0B0B0B07070B0B0B0B0B0B0B0B
310
0B0B0B0B0B050B070101070B0B0B0B0B0B0B070B040B0B0B070B0B0B0B0B0B0B0B0B0B0B0B0B0B0B0B0B0B0B0B0B0B0B0B0B0B0B0B0B0B0B0B0B0B0B0B0B0B0B0B0B0B0B0B0B0B0B0B0B0B0B0B0B0B0B0B0B0B0B0B0B0B0B0B0B0B0B0B0B0B0B0B0B0B0B0B0B0B0B0B0B0B0B0B0B0B0B0B0B0B0B0B0B0B0B0B0B0B0B0B0B0B
310
0B0B0B0B0B0B0B0B0B0B0B0B0B0B0B0B0B0B0B0B0B030B0B0B070B0B0B0B0B0B070B070B0B0B0B0B0B0B040B0B070B0B0B0B0B0B0B0B0B0B0B0B040B0B0707070B0B0B0B0B0B0B070B0B0B0B0B0B070B0B0B0B0B0B0B0B0B0B0B0B0B0B0B0B0B0B0B0B0B0B0B0B0B0B0B0B0B0B0B0B0B0B0B0B0B0B0B0B0B0B0B0B0B0B0B0B
310
0B0B0B0B0B0B0B0B0B0B0B0B0B0B0B0B0B0B0B0B0B0B0B0B0B0B0B0B0B0B0B0B0B0B0B0B0B0B0B0B0B0B0B0B0B0B0B0B0B0B0B0B0B0B0B0B0B0B0B0B0B0B0B0B0B0B0B0B0B0B0B0B0B0B030B0B0B0702020B0B0B070B0B0B0B0B0B0B0B0B040B05040B070B0B0B0B0B0B0B0B0B0B0B0704040B070B070B0B0B0B0B0B0B040B
310
0B0B0B0B04070B0B0B0B0B0B0B0B0B0B0B0B0B0B0B0B0B0B0B0B0B0B0B0B0B0B0B0B0B0B0B0B0B0B0B0B0B0B0B0B0B0B0B0B0B0B0B0B02020202020202020202020202020B0B0B0B0B0B0B0B0B0B0B0B0B0B0B0B0B0B0B0B0B0B0B0B0B0B0B0B0B0B0B0B0B0B0B0B0B0B0B0B0B0B0B0B0B0B0B0B0B0B0B0B0B0B0B0B0B0B0B
310
030B0B0B0B020B0B0B070B070B0B0B0B0B0B0B0B05050B040B0B07070B0B0B0B0B0B0B0B070B0B0B0B0B070B070B0B0B0B0B040B050B0B0B040504070B0B0B0B0B0B0B0B0B0B0B0B0B0B0B0B0B0B0B0B0B0B0B0B0B0B0B0B0B0B0B0B0B0B0B0B0B0B0B0B0B0B0B0B0B0B0B0B0B0B0B0B0B0B0B0B0B0B0B0B0B0B0B0B0B0B0B
310
0B0B0B0B0B0B0B0B0B0B0B0B0B0B0B0B0B0B0B0B0B0B0B0B0B0B0B0B0B0B0B0B0B0B0B0B0B0B0B0B0B0B0B0B0B0B0B0B0B0B0B0B0B0B030B0B0B070B07050B0B070B0B0B0B0B0B0B0B0B04040B0B0B070B070B0B0B0B0B0B0B070B0B0B0B040701070B0B0B0B0B0505040B0B04050B0B040B0B0B0B0B0B0B0B0B0B0B0B0B0B
310
0B0B0B0B0B0B0B0B0B0B0B0B0B0B0B0B0B0B0B0B0B0B0B0B0B0B0B0B0B0B0B0B0B0B0B0B0B0B0B0B0B0B0B0B0B0B0B0B0B0B0B0B0B0B0B0B0B0B0B0B0B0B0B0B0B0B0B0B0B0B0B0B0B0B0B0B0B0B0B0B0B0B0B0B0B0B0B0B0B0B0B0B0B0B0B0B0B0B0B0B0B0B0B0B0B0B0B030B0B0B0B07050B04040B070B0B0B0B0B0B0B0B
310
0B040B0B070B0B0B070B0B0B0B0B070B0B0B04050505070B070B0B0B0B0B040B040B040B04040B070B0B0B0B0B0B0B0B0B0B0B0B0B0B0B0B0B0B0B0B0B0B0B0B0B0B0B0B0B0B0B0B0B0B0B0B0B0B0B0B0B0B0B0B0B0B0B0B0B0B0B0B0B020B0B0B0B0B0B0B0B0B0B0B0B0B0B0B0B0B0B0B0B0B0B0B0B0B0B0B0B0B0B0B0B0B
310
0B0B0B0B0B0B0B0B0B0B0B0B0B0B0B0B0B0B0B0B0B0B0B0B0B0B0B0B0B0B0B0B0B030B0B0B0B070B0B040B0B0B070B0B0B0B0707070B0B0B0B070B0B0B0B070B0B0B0B070B0B0B0B040B040B070B010B0B0B0B0B040B0B0B040B0B0B0B070B0B0B0B0B0B0B0B0B0B0B0B0B0B0B0B0B0B0B0B0B0B0B0B0B0B0B0B0B0B0B0B0B
310
0B0B0B0B0B0B0B0B0B0B0B0B0B0B0B0B0B0202020B0B0B0B0B0B0B0B0B0B0B010B0B0B0B0B0B0B0B0B0B0B0B0B0B0B0B0B0B0B0B0B0B0B0B0B0B0B0B0B0B0B0B0B0B0B0B0B0B0B0B0B0B0B0B0B0B0B0B0B0B0B0B0B0B0B030B0B0B0B07040B0B020B07070707070B0B0B0B0B0B070B0B0B0B0B0B070B0B070B0B0B0B0B0B04
310
0B0B0B07010B0B0B0B0B0B0B0B0B0B0B0B0B0B0B070B0B0B0B0B0B0B0B0B0B0B0B0B0B0B0B0B0B0B0B0B0B0B0B0B0B0B0B0B0B0B0B0B0B0B0B0B0B0B0B0B0B0B0B0B0B0B0B0B020B0B020B0B0B0B0B0B0B0B0B0B010B0B0B0B0B0B0B0B0B0B0B0B0B0B0B0B0B0B0B0B0B0B0B0B0B0B0B0B0B0B0B0B0B0B0B0B0B0B0B0B0B0B
310
0B0B0B0B0B0B0B0B0B0B0B0B0B030B0B0B0B070B0B02020B0B070B0B0B0B0B0B0B0B070B0B0B0B0B0B0B0B0707070B0B0B0B0B0B0B0B0B0B0B01010B0B0B0B0B0B0B0B0B0B0B0B0B0B070B0B0B0B0B0B0B0B0B0B0B0B0B0B0B0B0B0B0B0B0B0B0B0B0B0B0B0B0B0B0B0B0B0B0B0B0B0B0B0B0B0B0B0B0B0B0B0B0B0B02020B
310
0B0B0B0B0B0B0B0B0B010B0B0B0B0B0B0B0B0B0B0B0B0B0B0B0B0B0B0B0B0B0B0B0B0B0B0B0B0B0B0B0B0B0B0B0B0B0B0B0B0B0B0B0B0B0B0B0B0B0B0B0B0B0B0B0B0B030B0B0B0B070B0B020B040B070B0B0B0B0B0B070B0B0B0B0B0B0B0B0B0B0B0B0B0B0B0B0B0B0B0B0B0B0B01010B0B0B0B0B0B0B0B0B0B0B0B0B0B04
310
070B0B0B0B0B0B0B0B0B0B0B0B0B0B0B0B0B0B0B0B0B0B0B0B0B0B0B0B0B0B0B0B0B0B0B0B0B0B0B0B0B0B0B0B0B0B0B0B0B020B0B0B0B0B0B0B0B0B0B0B010B0B0B0B0B0B0B0B0B0B0B0B0B0B0B0B0B0B0B0B0B0B0B0B0B0B0B0B0B0B0B0B0B0B0B0B0B0B0B0B0B0B0B0B0B0B0B0B0B0B0B0B0B0B0B0B0B0B030B0B0B070B
310
0B0405050B0B070B0B0B0B0B070B0B0B0B0B0B0B0B0B0B0B0B0B0B0B0B0B0B0B0B0B0B0B0B01010B0B0B0B0B0B0B0B0B0B0B0B04050B070B0B0B0B0B0B0B0B0B0B0B0B0B0B0B0B0B0B0B0B0B0B0B0B0B0B0B0B0B0B0B0B0B0B0B0B0B0B0B0B0B0B0B0B0B020B0B0B0B0B0B0B0B0B0B0B0B0B010B0B0B0B0B0B0B0B0B0B0B0B
310
0B0B0B0B0B0B0B0B0B0B0B0B0B0B0B0B0B0B0B0B0B0B0B0B0B0B0B0B0B0B0B0B0B0B0B0B0B0B0B0B0B0B0B0B0B0B0B030B0B0B0B070B040B0B0407070B0B0B0B070B0B0B0B0B0B0B0B0B0B0B0B0B0B0B040B0B0B0B0B0B0B0B0405010B0B0B0B0B0B0B0B0B0B0B04050B040B070B0B0B0B0B0B0B0B0B0B0B0B0B0B0B0B0B0B
310
0B0B0B0B0B0B0B0B0B0B0B0B0B0B0B0B0B0B0B0B0B0B0B0B0B02020B0B0B0B0B0B0B0B0B0B0B0B0B010B0B0B0B0B0B0B0B0B0B0B0B0B0B0B0B0B0B0B0B0B0B0B0B0B0B0B0B0B0B0B0B0B0B0B0B0B0B0B0B0B0B0B0B0B0B0B0B0B0B0B0B0B0B0B0B0B0B0B0B030B0B0B070B0B04040B070B07070707070B0B0B0B0B0B0B0B0B
310
0B0B0B0B0405040B0B0B0B0B0B0B04050B01010B0B0B0B0B0B0B070B0B040B040B0B070B0B0B0B0B0B0B0B0B0B0B0B0B0B0B0B0B0B0B0B0B0B0B0B0B0B0B0B0B0B0B0B0B0B0B0B0B0B0B0B0B02020B0B020B0B0B0B0B0B0B0B0B0B0B0B010B0B0B0B0B0B0B0B0B0B0B0B0B0B0B0B0B0B0B0B0B0B0B0B0B0B0B0B0B0B0B0B0B
310
0B0B0B0B0B0B0B0B0B0B0B0B0B0B0B0B0B0B0B0B0B0B0B0B0B0B0B0B030B0B0B070B0B0B0B070B0B0B07070B070B0B0B0B0B0B0B0B0B0B0B04050B0B040B0B0B0B0B0B040B040B010B0B0B0B0B0B0B0B070B0B040B0B0B0B070B0B0B0B0B0B0B0B0B0B0B0B0B0B0B0B0B0B0B0B0B0B0B0B0B0B0B0B0B0B0B0B0B0B0B0B0B0B
310
0B020B0B0B020B0B0B0B0B0B0B0B0B0B0B0B010B0B0B0B0B0B0B0B0B0B0B0B0B0B0B0B0B0B0B0B0B0B0B0B0B0B0B0B0B0B0B0B0B0B0B0B0B0B0B0B0B0B0B0B0B0B0B0B0B0B0B0B0B0B0B0B0B0B0B0B0B0B0B030B0B070B0B0B0B0B0707070B0B0B0507070B0B0B0B0B0B0B0B0B040B0B04040B0B0B0B0B0B0B040B0B01010B
310
0B0B0B0B0B0B070B0B0B0B0B0B0B0B070B0B0B0B0B0B0B0B0B0B0B0B0B0B0B0B0B0B0B0B0B0B0B0B0B0B0B0B0B0B0B0B0B0B0B0B0B0B020B02020B0B0B0B0B0B0B0B0B0B0B0B0B010B0B0B0B0B0B0B0B0B0B0B0B0B0B0B0B0B0B0B0B0B0B0B0B0B0B0B0B0B0B0B0B0B0B0B0B0B0B0B0B0B0B0B0B0B0B0B0B0B0B0B0B0B0B0B
310
0B0B0B0B0B0B0B0B030B0B0B070B0B0B0B070B0B0B04050B040B070B0B07070B0B0B0B0B04040B0B0B0B070B0B0B0B0B0B040B05010B0B0B0B0B0B0B070B0B0B0B0B0B0B0B070B0B0B0B0B0B0B0B0B0B0B0B0B0B0B0B0B0B0B0B0B0B0B0B0B0B0B0B0B0B0B0B0B0B0B0B0B0B020B0B0B0B0B0B0B0B0B0B0B0B0B0B0B010B0B
310
0B0B0B0B0B0B0B0B0B0B0B0B0B0B0B0B0B0B0B0B0B0B0B0B0B0B0B0B0B0B0B0B0B0B0B0B0B0B0B0B0B0B0B0B0B0B0B0B0B0B0B0B0B0B0B0B0B0B0B0B0B0B030B0B070B0B0B07070B0B0B0B040B0B040B07070B070B0B0B0B0B0B0B0B0B0B0B070B0B000B0B0B05050B01010B0B0B0B0B0B0B0B0B0B0B0B0B0B0B040B0B0B0B
310
0B0B0B0B0B0B0B0B0B0B0B0B0B0B0B0B0B0B0B0B0B0B0B0B0B0B0B0B0B0B0B0B0B0B0B0B0B02020202020B0B0B0B0B0B0B0B010B0B0B0B0B0B0B0B0B0B0B0B0B0B0B0B0B0B0B0B0B0B0B0B0B0B0B0B0B0B0B0B0B0B0B0B0B0B0B0B0B0B0B0B0B0B0B0B0B0B0B0B0B0B0B0B0B0B0B0B0B0B0B0B030B0B0B070B0B0B0B0B0B0B
310
0B0B04040B0B0B0B0B070B0B0B0B0B0B0B0B0B0B0B0B070B000B0B0B0B04040B010B0B0B0B0B0B0B0B0B0B0B0B0B040405070B0B0B0B0B0B0B0B0B0B0B0B0B0B0B0B0B0B0B0B0B0B0B0B0B0B0B0B0B0B0B0B0B0B0B0B0B0B0B0B0B0B0B0B0B0B0B0B0B0B0B0B010B0B0B0B0B0B0B0B0B0B0B0B0B0B0B0B0B0B0B0B0B0B0B0B
310
0B0B0B0B0B0B0B0B0B0B0B0B0B0B0B0B0B0B0B0B0B0B0B0B0B0B0B0B0B0B0B0B0B0B0B0B0B0B0B0B0B0B030B0B070B0B0B0B0B0B0B0B0B0B0B0B0B040707070B0B0B0B0B0B0B0B0B0B0B07040B0B0B0B0B0B0B0B0B05010B0B0B0B0B0B0B0B0B0B0B0405050B04070B0B0B0B0B0B0B0B0B0B0B0B0B0B0B0B0B0B0B0B0B0B0B
310
0B0B0B0B0B0B0B0B0B0B0B0B0B0B0B0B0B0B0B0B0B0B0B0B0B0B0B0B010B0B0B0B0B0B0B0B0B0B0B0B0B0B0B0B0B0B0B0B0B0B0B0B0B0B0B0B0B0B0B0B0B0B0B0B0B0B0B0B0B0B0B0B0B0B0B0B0B0B0B0B0B0B0B0B0B0B0B0B0B0B0B0B0B0B030B0B070B0B0B0B0B0B0B070B0B0B0505050B0B0B0B0B0B0B0B0B0B0B0B0B04
310
04020B0B0B0B0B0B0405050B010B0B0B0B0B0B0B0B0B0B0B050404040B0B070B0B0B0B0B0B0B0B0B0B0B0B0B0B0B0B0B0B0B0B0B0B0B0B0B0B0B0B0B0B0B0B0B0B0B0B0B0B0B0B0B0B0B0B0B0B0B0B0B0B010B0B0B0B0B0B0B0B0B0B0B0B0B0B0B0B0B0B0B0B0B0B0B0B0B0B0B0B0B0B0B0B0B0B0B0B0B0B0B0B0B0B0B0B0B
310
0B0B0B0B0B0B0B0B0B0B0B0B0B0B0B0B0B0B0B0B0B0B030B0B070B0B0B0B0B0B070B0B0B040B040B0B0B0B0B0B0B0B0B0B0B040B0202020B0B0B0B0B0405040B040B010B0B0B0B0B0B0B0B04050B040B0B0B0B070B0B0B0B0B0B0B0B0B0B0B0B0B0B0B0B0B0B0B0B0B0B0B0B0B0B0B0B0B0B0B0B0B0B0B0B0B0B0B0B0B0B0B
310
0B0B0B0B0B0B0B010B0B0B0B0B0B0B0B0B0B0B0B0B0B0B0B0B0B0B0B0B0B0B0B0B0B0B0B0B0B0B0B0B0B0B0B0B0B0B0B0B0B0B0B0B0B0B0B0B0B0B0B0B0B0B0B0B0B0B0B0B0B0B0B0B0B0B030B0B070B0B0B0B0B0B0B070B0B0B040B0B0B0B0B0B0B0B0B0B0404020B0B070B0B0B0B0B04050B07040B0B01010B0B0B0B0B0B
310
0B0B04040B0B0B0B0B0B070B0B0B0B0B0B0B0B0B0B0B0B0B0B0B0B0B0B0B0B0B0B0B0B0B0B0B0B0B0B0B0B0B0B0B0B0B0B0B0B0B0B0B0B0B0B0B0B0B010B0B0B0B0B0B0B0B0B0B0B0B0B0B0B0B0B0B0B0B0B0B0B0B0B0B0B0B0B0B0B0B0B0B0B0B0B0B0B0B0B0B0B0B0B0B0B0B0B0B0B0B0B0B0B0B0B0B0B0B0B0B0B0B0B0B
310
0B030B0B070B0B0B0B0B0B0B070B0B0B0B0B0B0B0B0B0B0B0B0B040B02020B0B0B0B0B0B0B0B040B070B0B0B040B01010B0B0B0B0B0B0B0B0B0B0B0B0B0B0B0B070B0B0B0B0B0B0B0B0B0B0B0B0B0B0B0B0B0B0B0B0B0B0B0B0B0B0B0B0B0B0B0B0B0B0B0B0B0B0B0B0B0B0B0B0B0B0B0B010B0B0B0B0B0B0B0B0B0B0B0B0B
310
0B0B0B0B0B0B0B0B0B0B0B0B0B0B0B0B0B0B0B0B0B0B0B0B0B0B0B0B0B0B0B0B0B0B0B0B0B0B0B0B0B0B0B0B0B0B0B0B0B0B0B0B0B0B0B030B0B070B0B0B0B0B0B070B0B0B0B0B0B0B0B0B0B0B04040B0B0B0B0B0B0B0B0B0B0B0B0B04070B0B0B04050501010B0B0B0B0B0B0B0B0B0B0B0B0B0B0B0B070B0B0B0B0B0B0B0B
310
0B0B0B0B0B0B0B0B0B0B0B0B0B0B0B0B0B0B0B0B0B0B0B0B0B0B0B0B0B0B0B0B0B0B0B0B0B0B0B010B0B0B0B0B0B0B0B0B0B0B0B0B0B0B0B0B0B0B0B0B0B0B0B0B0B0B0B0B0B0B0B0B0B0B0B0B0B0B0B0B0B0B0B0B0B0B0B0B0B0B0B0B0B0B0B0B0B0B0B0B0B0B0B0B0B0B0B030B0B070B0B0B0B0B0B0B070B0B0B0B0B0B0B
310
0B040B02020B0B0B0B0B0B070B0B0B0B040B0B0B0B0B0B04040B0401010B0B0B0B0B0B040405040B0B0B0B0B070B0B0B0B0B0B0B0B0B0B0B0B0B0B0B0B0B0B0B0B0B0B0B0B0B0B0B0B0B0B0B0B0B0B0B0B0B0B0B0B0B0B0B0B0B0B0B0B010B0B0B0B0B0B0B0B0B0B0B0B0B0B0B0B0B0B0B0B0B0B0B0B0B0B0B0B0B0B0B0B0B
310
0B0B0B0B0B0B0B0B0B0B0B0B0B0B0B0B0B0B0B0B0B0B0B0B0B0B0B0B0B0B0B0B0B0B0B030B070B0B0B0B0B0B0B0707070B0B070704040B0B0B0B0B0B0B0B0B0B070B0B0405050B0B0B0B0B050504040B0B01010B0B0B0B0B05050B040B0B0B0B0B0B070B0B0B0B0B0B0B0B0B0B0B0B0B0B0B0B0B0B0B0B0B0B0B0B0B0B0B0B
310
0B0B0B0B0B0B0B0B0B0B0B0B0B0B0B0B0B0B0B010B0B0B0B0B0B0B0B0B0B0B0B0B0B0B0B0B0B0B0B0B0B0B0B0B0B0B0B0B0B0B0B0B0B0B0B0B0B0B0B0B0B0B0B0B0B0B0B0B0B0B0B0B0B0B0B0B0B0B0B0B0B0B0B0B0B0B0B030B0B070B0B0B0B0B0B0B0B0B0B0B070B02020B0B0B0B0B0B0B0B07070B070B040B0B040B0B0B
310
040B0B040B0B0B0405010B0B0B0B040404040B0B0B0B0B0B0B070B0B0B0B0B0B0B0B0B0B0B0B0B0B0B0B0B0B0B0B0B0B0B0B0B0B0B0B0B0B0B0B0B0B0B0B0B0B0B0B0B0B0B0B0B0B010B0B0B0B0B0B0B0B0B0B0B0B0B0B0B0B0B0B0B0B0B0B0B0B0B0B0B0B0B0B0B0B0B0B0B0B0B0B0B0B0B0B0B0B0B0B0B0B0B0B0B0B0B0B
310
0B0B0B0B0B0B0B0B0B0B0B0B0B0B030B0B070B0B0B0B0B0B0B0B0B0B0B0B070B0B0B0B0B0B0B0B0B070B0B0B0B0B0B04040B0B0B0B040B040B0B0B05050401010B0B0B0B0B0B0B0B0B0B0B0B0B0B0B070B0B0B0B0B0B0B0B0B0B0B0B0B0B0B0B0B0B0B0B0B0B0B0B0B0B0B0B0B0B0B0B0B0B0B0B0B0B0B0B0B0B0B0B0B010B
310
0B0B0B0B0B0B0B0B0B0B0B0B0B0B0B0B0B0B0B0B0B0B0B0B0B0B0B0B0B0B0B0B0B0B0B0B0B0B0B0B0B0B0B0B0B0B0B0B0B0B0B0B0B0B0B0B0B0B0B0B0B0B0B0B0B0B0B0B030B0B070B0B0B0B0B0B0B0B0B0B0B070B0B0B0B0B0B0B07070B0B0B0B0B0B0B0B0B0B0B0B0B0B040B0B0B070B0404040B0B0B0B0B0B0B0B0B0B0B
310
0B0B0B0B0B070B0B0B0B0B0B0B0B0B0B0B0B0B0B0B0B0B0B0B0B0B0B0B0B0B0B0B0B0B0B0B0B0B0B0B0B0B0B0B0B0B0B0B0B0B0B010B0B0B0B0B0B0B0B0B0B0B0B0B0B0B0B0B0B0B0B0B0B0B0B0B0B0B0B0B0B0B0B0B0B0B0B0B0B0B0B0B0B0B0B0B0B0B0B0B0B0B0B0B0B0B0B0B0B0B0B0B0B0B0B0B0B0B0B030B0B070B0B
310
0B0B0B0B0B0B0B0B0B0B0B0B0B0B0B0B07070B0B0B0B0B0B0B0B0B0B0B0B0B0B0B0B0B07070B0B0B0B0B0B0B0B0B0B0B0B0B0B060B0B0B0B0B0B0B070B0B0B0B0B0B0B0B0B0B0B0B0B0B0B0B0B0B0B0B0B0B0B0B0B0B0B0B0B0B0A0A0A0A0B0B0B0B0B0B0B0B0B0B0B010B0B0B0B0B0B0B0B0B0B0B0B0B0B0B0B0B0B0B0B0B
310
0B0B0B0B0B0B0B0B0B0B0B0B0B0B0B0B0B0B0B0B0B0B0B0B0B0B0B0B0B0B0B0B0B0B0B0B0B0B0B0B0B0B0B0B0B0B0B030B0B070B0B0B0B0B0B0B0B0B0B0B0B0B0B0B0B0B0B0B0B0707070B0B0B0B0B0B0B0B0B0B0B0B0B070B0B0B0B0B0B0B0B0B0B0B0B0B0B060606060B0B0B0B0B0B0B070B0B0B0B0B0B0B0B0B0B0B0B0B
310
0B0B0B0B0B0B0B0B0B0B0B0A0A0A0A0A0B0B0B0B0A0A0B0B0B0B0B0B0B0B0B010B0B0B0B0B0B0B0B0B0B0B0B0B0B0B0B0B0B0B0B0B0B0B0B0B0B0B0B0B0B0B0B0B0B0B0B0B0B0B0B0B0B0B0B0B0B0B0B0B0B0B0B0B0B0B0B0B0B0B0B0B0B0B0B0B0B0B0B0B030B0B070B0B0B0B0B0B0B0B0B0B0B0B0B0B0B0B0B0B0B0B0B0B
310
070B0B0B0B0B0B0B0B0B0B0B070B0B0B0B0B0B0B0B0B0B0B0B0B0B0B0B06060B0B0B0B0B0B0B0B0B070B0B0B0B0B0B0B0B0B0B0B0B0B0B0B0B0B0B0B0B0A0A0A0B0B0B0B0B0B0B0B0B0B0B0A0B0B0B0B0B0B0B0B010B0B0B0B0B0B0B0B0B0B0B0B0B0B0B0B0B0B0B0B0B0B0B0B0B0B0B0B0B0B0B0B0B0B0B0B0B0B0B0B0B0B
310
0B0B0B0B0B0B0B0B0B0B0B0B0B0B0B0B0B0B0B0B0B0B0B0B0B0B0B030B0B070B0B0B0B0B0B0B0B0B0B0B0B0B0B0B0B0B0B0B0B0B0B0B070B0B0B0B0B0B0B0B07070B0B0B0B0B0B0B0B0B0B0B0B0B0B0B0B0B0B0B0B0B0B0B0B0B0B0B0B070B0B0B0B0B0B0B0B0B0B0B0B0B0B0B0B0B0A0A0A0B0B0B0B0B0B0B0B0B0B0B0B0B
310
0B0B0A0B0B0B0B0B0B0B0B010B0B0B0B0B0B0B0B0B0B0B0B0B0B0B0B0B0B0B0B0B0B0B0B0B0B0B0B0B0B0B0B0B0B0B0B0B0B0B0B0B0B0B0B0B0B0B0B0B0B0B0B0B0B0B0B0B0B0B0B0B0B0B0B0B0B0B0B0B030B0B0B0B0B0B0B0B0B0B0B0B0B0B0B0B0B0B0B0B0B0B0B0B0B0B0B0B0B0B0B0B0B070B0B0B0B0B0B0B0B0B0B0B
310
0B0B0B0B0B0B0B0B0B0B0B0B0B0B0B0B0B0B0B0B070B0B0B0B0B0B0B0B0B0B0B0B0B0B0A0A0B0B0B0B0B0B0B0B0B0B0B0B0B0B0B0B0B0B0B0A0B0B0B0B0B0B0B010B0B0B0B0B0B0B0B0B0B0B0B0B0B0B0B0B0B0B0B0B0B0B0B0B0B0B0B0B0B0B0B0B0B0B0B0B0B0B0B0B0B0B0B0B0B0B0B0B0B0B0B0B0B0B0B0B0B0B0B0B0B
310
0B0B0B0B0B0B0B030B0B0B0B0B0B0B0B0B0B0B0B0B0B0B0B0B0B0B0B0B0B0B0B0B0B0B0B0B0B0B0B070B0B0B0B0B0B0B0B0B0B0B0B0B0B0B0B0B0B0B0B0B0B0B0B0B0B0B0B0B0B0B0B0B070B0B0B0B0B0B0B0B0B0B0A0A0A0B0B0B0B0B0B0B0B0B020B0B0B0B0B0B0B0B0B0B0B0B0A0B0B0B0B020B010B0B0B0B0B0B0B0B0B
310
0B0B0B0B0B0B0B0B0B0B0B0B0B0B0B0B0B0B0B0B0B0B0B0B0B0B0B0B0B0B0B0B0B0B0B0B0B0B0B0B0B0B0B0B0B0B0B0B0B0B0B0B0B0B0B0B0B0B0B0B030B0B0B0B0B0B0B0B0B0B0B0B0B0B0B0B0B0B0B0B0B0B0B0B0B0B0B0B0B0B07070B0B0B0B0B0B0B0B0B0B0B0B0B0B0B0B0B0B0B0B0B0B0B0B0B0B0B020B0B0B0B0B0B
310
0B070B0B0B0B0B0B0A0A0A0B0B0B0B0B0B0B0B0B0B0B020B020B0B0B0B0B0B0B0B0B0B0B0B0A0B02020B02010B0B0B0B0B0B0B0B0B0B0B0B0B0B0B0B0B0B0B0B0B0B0B0B0B0B0B0B0B0B0B0B0B0B0B0B0B0B0B0B0B0B0B0B0B0B0B0B0B0B0B0B0B0B0B0B0B0B0B0B0B0B0B0B0B0B0B0B0B0B030B0B0B0B0B0B0B0B0B0B0B0B
310
0B0B0B070B0B0B0B0B0B0B0B0B0B0B0B070B0B0B0B0B0B0B0B0B0B0B0B0B0B0B0B0B0B0B0B0B0B0B0B0B0B0B0B02020B0B0B0B0B0B0B070B0B0B0A0A0A0B0B0B0B0B0B0B0B0B0B0B0B02020B0B0B020B0B0B0B0B0B0B0B0B0B0B0B020B0B0B0B02010B0B0B0B0B0B0B0B0B0B0B0B0B0B0B0B0B0B0B0B0B0B0B0B0B0B0B0B0B
310
0B0B0B0B0B0B0B0B0B0B0B0B0B0B0B0B0B0B0B0B0B0B0B0B0B0B0B0B0B0B0B0B0B0B0B0B0B0B0B0B030B0B0B0B0B0B0B0B0B0B0B0B0B0707070B0B0B0B0B0B070B0B0B0B0B0B0B0B0B0B0B0B0B0B0B0B0B0B0B0B0B0B0B0B0B0B0B0B0B0B0B0B0B0B0B020B0B0B0B0B0B0B0B070A0A0B0B0B0B0B0B0B0B0B0B0B0B0B0B020B
310
0B0B0B020B0B0B0B0B0B0B0B0B0B0B0B0B0B020B0B020B010B0B0B0B0B0B0B0B0B0B0B0B0B0B0B0B0B0B0B0B0B0B0B0B0B0B0B0B0B0B0B0B0B0B0B0B0B0B0B0B0B0B0B0B0B0B0B0B0B0B0B0B0B0B0B0B0B0B0B0B0B0B0B0B0B0B0B0B0B0B030B0B0B0B0B0B0B0B0B0B0B0B0B0B0B070B0B0B07070B0B0B0B0B0B0B0B0B0B0B
310
0B0B0B0B0B0B0B0B0B0B0B0B0B0B0B0B0B0B0B0B0B0B0B0B0B0B0B0B0B0B0B0A0A0A0B0B0B0B0B0B0B0B0B0B0B0B0B0B0B0B020B0B0B02020B0B0B0B0B0B0B0B0B0B0B0B02020202020B020B010B0B0B0B0B0B0B0B0B0B0B0B0B0B0B0B0B0B0B0B0B0B0B0B0B0B0B0B0B0B0B0B0B0B0B0B0B0B0B0B0B0B0B0B0B0B0B0B0B0B
310
0B0B0B0B0B0B0B0B0B0B0B0B0B0B0B0B0B0B0B0B030B0B0B0B040B0B0B0B0B0B0B0B0B0B070B07070B0B0B0B0B0B0B0B0B0B0B0B0B0B0B0B0B0B0B0B0B0B0B0B0B0B0B0B0B0B0B0B0B0B0B0B0B0B0B0B0B0A0A0A0B0B0B0B0B0B0B0B0B0B0B0B0B0B0B0B0B0B0B0B020B020B020B0B0B0B0B0B0B0B0B0B0B0B0B0B0B0B0B02
310
0B0B010B0B0B0B0B0B0B0B0B0B0B0B0B0B0B0B0B0B0B0B0B0B0B0B0B0B0B0B0B0B0B0B0B0B0B0B0B0B0B0B0B0B0B0B0B0B0B0B0B0B0B0B0B0B0B0B0B0B0B0B0B0B0B0B0B0B0B0B0B0B0B030B040405040B0B0B0B0B0B0B0B0B07070B0B0B0B0B0B0B0B0B0B0B0B0B0B0B0B0B0B0B0B0B0B0B0B0B0B0B0B0B0B0B0B0B0B0B0B
310
0B0B0B0A0A0A0A0B0B0B0B0B0B0B0B0B0B0B0B0B0B0B0B0B0B0B0B0B0B0B0B020B020B020B0B0B0B0B0B0B0B0B0B0B0B0B0B0B0B0B0A0B010B0B0B0B0B0B0B0B0B0B0B0B0B0B0B0B0B0B0B0B0B0B0B0B0B0B0B0B0B0B0B0B0B0B0B0B0B0B0B0B0B0B0B0B0B0B0B0B0B0B0B0B0B0B0B0B0B0B0B0B0B0B0B0B0B0B0B0B0B0B0B
310
030B0B050B040B0B0B0B0B0B0B07070B0B0B0B0B0B0B0B0B0B0B0B0B0B0B0B0B0B0B0B0B0B0B0B0B0B0B0B0B0B0B0B0B0B0B0B0B0B0A0A0A0B0B0B0B0B0B0B0B0B0B0B0B0B0B0B0B0B0B0B02020B0B0B0B0B0B0B0B020B0B0B020B0B0B0B0B0B0B0B0B0B0B0B0B0B0B0B0B0A010B0B0B0B0B0B0B0B0B0B0B0B0B0B0B0B0B0B
310
0B0B0B0B0B0B0B0B0B0B0B0B0B0B0B0B0B0B0B0B0B0B0B0B0B0B0B0B0B0B0B0B0B0B0B0B0B0B0B0B0B0B0B0B0B0B0B0B0B0B0B0B0B0B030B040B0B040B0B0B0B07070B0B0B0B0B0B0B0B0B0B0B0B0B0B0B0B0B0B0B0B0B0B0B0B0B0B0B0B0B0B0B0B0B0B0B0B0B0A0A0A0B0B0B0B0B0B0B0B0B0B0B0B0B0B0B0B0B0B0B0B0B
310
0B0B0B02020202020202020B020B0B020B0B0B0B0B0B0B0B0B0B0B0B0B0B0B0B0B010A0B0B0B0B0B0B0B0B0B0B0B0B0B0B0B0B0B0B0B0B0B0B0B0B0B0B0B0B0B0B0B0B0B0B0B0B0B0B0B0B0B0B0B0B0B0B0B0B0B0B0B0B0B0B0B0B0B0B0B0B0B0B0B0B0B0B0B0B0B0B0B0B030B0B04040B0B0B0B0B0B0B0B0B0B0B0B0B0B0B
310
0B0B0B0B0B0B0B0B0B0B0B0B0B0B0B0B0B0B0B0B0B0B0B0B0B0B0A0A0A0B0B0B0B0B0B0B0B0B0B0B0B0B0B0B0B0B0B0B0B0B0B0B0B0B0B0B0B0B0B0B0B0B0B0B0B0B020B0B020B0B0B0B0B0B0B0B0B0B0B0B0B0B0B0B010B0B0B0B0B0B0B0B0B0B0B0B0B0B0B0B0B0B0B0B0B0B0B0B0B0B0B0B0B0B0B0B0B0B0B0B0B0B0B0B
310
0B0B0B0B0B0B0B0B0B0B0B0B0B0B0B0B0B0B0B0B0B0B0B0B0B0B0B0B0B0B0B0A0B0B030B0B0B0B0B0B0B0B0B0B0B0B0B0B0B0B0B0B0B0B0B0B0B0B0B0B0B0B0B0B0B0B0B0B0B0B0B0B0B0B0B0A0A0A0B0B0B0B0B0B0B0B0B0B0B0B0B0B0B0B0B0B0B0B0B0B0B0B0B0B0B0B0B0B0B0B0B0B0B0B0B0B0B0B020B0B0B020B0B0B
310
0B0B0B0B0B0B0B0B0B0B0B0B09090B0B0B0B0B0B0B0B0B0B0B0B0B0B0B0B0B0B0B0B0B0B0B0B0B0B0B0B0B0B0B0B0B0B0B0B0B0B0B0B0B0B0B0B0B0B0B0B0B0B0B0B0B0B0B0B0B0B0B0B0B0B0B0B0B0B0B0B0B0B0B0A0B030B0B0B0B0B0B0B0B0B0B0B0B0B0B0B0B0B0B0B0B0B0B0B0B0B0B0B0B0B0B0B0B0B0B0B0B0B0A0A
310
0A0A0B0B0B0B0B0B0B0B0B0B0B0B0B0B0B0B0B0B0B0B0B0B0B0B0B0B0B0B0B0B0B0B0B0B0B0B0B0B0B0B0B0B0B0B020B020B0B0B0B0B0B0B0B0B0B0B0B0B0B0909010B0B0B0B0B0B0B0B0B0B0B0B0B0B0B0B0B0B0B0B0B0B0B0B0B0B0B0B0B0B0B0B0B0B0B0B0B0B0B0B0B0B0B0B0B0B0B0B0B0B0B0B0B0B0B0B0B0B0B0B0B
310
0B0B0B0B0B0B0B0B0B0B0B0B0A0B030B0B0B0B0B0B0B0B0B0B0B0B0B0B0B0B0B0B0B0B0B0B0B0B0B0B0B0B0B0B0B0B0B0A0A0A030B0B0B0B0B0B0B0B0B0B0B0B0B0B0B0B0B0B0B0B0B0B0B0B0B0B0B0B0B0B0B0B0B0B0B0B0B0B0B0B0B0B0B0B0B0B0B0B020B0B0B0B0B0B0B0B0B0B0B0B0B0B090B0B010B0B0B0B0B0B0B0B
310
0B0B0B0B0B0B0B0B0B0B0B0B0B0B0B0B0B0B0B0B0B0B0B0B0B0B0B0B0B0B0B0B0B0B0B0B0B0B0B0B0B0B0B0B0B0B0B0B0B0B0B0B0B0B0B0B0B0B0B0B0B0B0B0B0B0B0A030B0B0B0B0B0B0B0B0B0B0B0B0B0B0B0B0B0B0B0B0B0B0B0B0B0B0B0B0B0B0A0A0A0B0B0B0B0B0B0B0B0B0B0B0B0B0B0B0B0B0B0B0B0B0B0B0B0B0B
310
0B0B0B0B0B0B0B0B0B0B0B0B0B0B0B0B0B0B0B0B0B0B0B0B0B0B0B0B0B0B0B0B0B0B0B0B0B0B0B09090B0B0B010B0B0B0B0B0B0B0B0B0B0B0B0B0B0B0B0B0B0B0B0B0B0B0B0B0B0B0B0B0B0B0B0B0B0B0B0B0B0B0B0B0B0B0B0B0B0B0B0B0B0B0B0B0B0B0B0B0B0B0B0B0B0B0B0B0B0B0B0B0B0B0B0B0B0B0A030B0B0B0B0B
310
0B0B0B0B0B0B0B0B0B0B0B0B0B0B0B0B0B0B0B0B0B0A0A0A0B0B0B0B0B0B0B0B0B0B0B0B0B0B0B0B0B0B0B0B0B0B0B0B0B0B0B0B0B0B0B0B0B0B0B0B0B0B0B0B0B0B0B0B0B0B0B0B0B0B0B0B0B0B0B0B0B0B0B0B0B0B0B0B0B0909090B0B0B0B0B010B0B0B0B0B0B0B0B0B0B0B0B0B0B0B0B0B0B0B0B0B0B0B0B0B0B0B0B0B
310
0B0B0B0B0B0B0B0B0B0B0B0B0B0B0B0B0B0B0B0B0B0B0B0B0B0B0B0B0B0B0B0B0B0B0B0B0B0B0B0B0B0B0B0B0B0B0B0A030B0B0B0B0B0B0B0B0B0B0B0B0B0B0B0B0B0B0B0B0B0B0A0A0A0B0B0B0B0B0B0B0B0B0B0B0B0B0B0B0B0B0B0B0B0B0B0B0B0B0B0B0B0B0B0B0B0B0B0B0B0B0B0B0B0B0B0B0B0B0B0B0B0B0B0B0B0B
310
0B0B0B0B0B0B0B0B0B0B0B090909090B0B0B0B0B0B0B0B0B010B0B0B0B0B0B0B0B0B0B0B0B0B0B0B0B0B0B0B0B0B0B0B0B0B0B0B0B0B0B0B0B0B0B0B0B0B0B0B0B0B0B0B0B0B0B0B0B0B0B0B0B0B0B0B0B0B0B0B0B0B0B0B0B0B0B0B0B0B0B0B0B0B0B0B0B0A030B0B0B0B0B0B0B0B0B0B0B0B0B0B0B0B0B0A0A0A0A0B0B0B
310
0B0B0B0B0B0B0B0B0B0B0B0B0B0B0B0B0B0B0B0B0B0B0B0B0B0B0B0B0B0B0B0B0B0B0B0B0B0B0B0B0B0B0B0B0B0B0B0B0B0B0B0B0B0B0B0B0B0B0B0B0B0B09090B0B0B0B0B020B0B0B0B0B0B0B010B0B0B0B0B0B0B0B0B0B0B0B0B0B0B0B0B0B0B0B0B0B0B0B0B0B0B0B0B0B0B0B0B0B0B0B0B0B0B0B0B0B0B0B0B0B0B0B0B
310
0B0B0B0B0B0B0B0B0B0B0B0B0B0B0B0B0B0B0B0B0B0B0B0B0B0B0B0B0A0B0B0B0B0B0B0B0B0B0B0B0B0B0B0A0A0A030B0B0B0B0B0B0B0B0B0B0B0B0B0B0B0B0B0B0B0B0B0B0B0B0B0B0B0B0B0B0B0B0B0B0B0B0B0B0B0B0B0B0B0B0B0B0B0B0B0B0B0B0B0B0B0B0B0B0B0B0B0B0B0B0B0B09090B0B0B0B0B0B020B020B0B0B
310
0B0B0B0B0B0B0B0B0B0B0B0B0B0B0B0B0B0B0B0B0B0B0B0B0B0B0B0B0B0B0B0B0B0B0B0B0B0B0B0B0B0B0B0B0B0B0B0B0B0B0B0B0B0B0B0B0B0B0B0B0B0B0B0B0B0B0B0B0B0B0B0B0B0B0B0B0B0B0B0B0B0B0A0B0B0B0B0B0B0B0B0B0B0A0A0A030B0B0B0B0B0B0B0B0B0B0B0B0B0B0B0B0B0B0B0B0B0B0B0B0B0B0B0B0B0B
310
0B0B0B0B0B0B0B0B0B0B0B0B0B0B0B0B0B0B0B0B0B0B0B0B0B0B0B0B0B0B0B0B0B0B0B0B0B09090B0B0B0B0B0B0B020B0B020B0B0B0B0B0B0B0B0B0B0B0B0B0B0B0B0B0B0B0B0B0B0B0B0B0B0B0B0B0B0B0B0B0B0B0B0B0B0B0B0B0B0B0B0B0B0B0B0B0B0B0B0B0B0B0B0B0B0B0B0B0B0B0B0B0B0B0B0B0B0B0B0B0B0B0B0B
310
0B0B0B0B0B0B0B0B0B0A0B0B0B0B0B0B0A0A0A0B0B0B0B0B0B0B0B0B0B0B0B0B0B0B0B0B0B0B0B0B0B0B0B0B0B0B0B0B0B0B0B0B0B0B0B0B0B0B0B0B0B0B0B0B0B0B0B0B0B0B0B0B0B0B0B0B0B0B0B0B0B0B0B0B0B0B0B0B0B090B0B0B0B0B0B0B0B020B0B0B0B020B0B0B0B0B010B0B0B0B0B0B0B0B0B0B0B0B0B0B0B0B0B
310
0B0B0B0B0B0B0B0B0B0B0B0B0B0B0B0B0B0B0B0B0B0B0B0B0B0B0B0B0B0B0B0B0B0B0B0B0B0B0B0B0B0B0B0B0B0B0B0B0B0B0B0B0B0B0B0B0B0B0B0B0B0B0B0A0B0B0A0A0A0B0B0B0B0B0B0B0B0B0B0B0B0B0B0B0B0B0B0B0B0B0B0B0B0B0B0B0B0B0B0B0B0B0B0B0B0B0B0B0B0B0B0B0B0B0B0B0B0B0B0B0B0B0B0B0B0B0B
310
0B0B0B0B0B0B0B0B0B0B0B0B0B0B090B0B0B0B0B0B0B0B020B0B0B0B020B020B0B0B0B010B0B0B0B0B0B0B0B0B0B0B0B0B0B0B0B0B0B0B0B0B0B0B0B0B0B0B0B0B0B0B0B0B0B0B0B0B0B0B0B0B0B0B0B0B0B0B0B0B0B0B0B0B0B0B0B0B0B0B0B0B0B0B0B0B0B0B0B0B0B0B0B0B0B0B0B0B0B0B0B0B0A0A0B0B0B0B0B0B0B0B
310
0B0B0B0B0B0B0B0B0B0B0B0B0B0B0B0B0B0B0B0B0B0B0B0B0B0B0B0B0B0B0B0B0B0B0B0B0B0B0B0B0B0B0B0B0B0B0B0B0B0B0B0B0B0B0B0B0B0B0B0B0B0B0B0B0B0B0B090B0B0B0B0B0B0B020B0B0B0B020B0B020B0B0B010B0B0B0B0B0B0B0B0B0B0B0B0B0B0B0B0B0B0B0B0B0B0B0B0B0B0B0B0B0B0B0B0B0B0B0B0B0B0B
310
0B0B0B0B0B0B0B0B0B0B0B0B0B0B0B0B0B0B0B0B0B0B0B0B0B0B0B0B0B0B0B0B0B0B0B0B0B0B0B0B0B0B0B0B0B0B0B0B0B0B0B0B0B0B0B0B0B0B0B0B0B0B0B0B0B0B0B0B0B0B0B0B0B0B0B0B0B0B0B0B0B0B0B0B0B0B0B0B0B0B0B0B0B0B0B0B0B0B0B0B0B0B0B0B0B0B0B0B0B0B0B0B0B0B0B0B0B0B0B090B0B0B0B0B0B0B
310
020B0B0B0B020B0B0B0B020B0B010B0B0B0B0B0B0B0B0B0B0B0B0B0B0B0B0B0B0B0B0B0B0B0B0B0B0B0B0B0B0B0B0B0B0B0B0B0B0B0B0B0B0B0B0B0B0B0B0B0B0B0B0B0B0B0B0B0B0B0B0B0B0B0B0B0B0B0B0B0B0B0B0B0B0B0B0B0B0B0B0B0B0B0B0B0B0B0B0B0B0B0B0B0B0B0B0B0B0B0B0B0B0B0B0B0B0B0B0B0B0B0B0B
310
0B0B0B0B0B0B0B0B0B0B0B0B0B0B0B0B0B0B0B0B0B0B0B0B0B0B0B0B0B0B0B0B0B0B0B0B0B0B0B0B0B0B0B0B0902020B0B0B0B0B0B0B020B0B020B0B0B0B0B0B02010B0B0B0B0B0B0B0B0B0B0B0B0B0B0B0B0B0B0B0B0B0B0B0B0B0B0B0B0B0B0B0B0B0B0B0B0B0B0B0B0B0B0B0B0B0B0B0B0B0B0B0B0B0B0B0B0B0B0B0B0B
310
0B0B0B0B0B0B0B0B0B0B0B0B0B0B0B0B0B0B0B0B0B0B0B0B0B0B0B0B0B0B0B0B0B0B0B0B0B0B0B0B0B0B0B0B0B0B0B0B0B0B0B0B0B0B0B0B0B0B0B0B0B0B0B0B0B0B0B0B0B0B0B0B0B0B0B0B0B0B0B0B0B0B0B0B0B0B0B0B0B0B0B0B0B0B0B0B090B0B0B02020202020202020B020B0B0B0B0B0B020B010B0B0B0B0B0B0B0B
310
0B0B0B0B0B0B0B0B0B0B0B0B0B0B0B0B0B0B0B0B0B0B0B0B0B0B0B0B0B0B0B0B0B0B0B0B0B0B0B0B0B0B0B0B0B0B0B0B0B0B0B0B0B0B0B0B0B0B0B0B0B0B0B0B0B0B0B0B0B0B0B0B0B0B0B0B0B0B0B0B0B0B0B0B0B0B0B0B0B0B0B0B0B0B0B0B0B0B0B0B0B0B0B0B0B0B0B0B0B0B0B0B0B0B0B0B0B0B0B0B0B0B0B0B0B0B0B
310
0B0B0B0B0B0B0B0B0B0B0B0B0B0B0B0B0B0B0B0B0B0B090B0B0B0B0B0B0B0B0B0B0B020B0B0B0B0B0B020B010B0B0B0B0B0B0B0B0B0B0B0B0B0B0B0B0B0B0B0B0B0B0B0B0B0B0B0B0B0B0B0B0B0B0B0B0B0B0B0B0B0B0B0B0B0B0B0B0B0B0B0B0B0B0B0B0B0B0B0B0B0B0B0B0B0B0B0B0B0B0B0B0B0B0B0B0B0B0B0B0B0B0B
310
0B0B0B0B0B0B0B0B0B0B0B0B0B0B0B0B0B0B0B0B0B0B0B0B0B0B0B0B0B0B0B0B0B0B0B0B0B0B0B0B0B0B0B0B0B0B0B0B0B0B0B0B0B0B0B0B0B0B0B0B0B0B0B0B0B0B0B0B0B0B0B0B0B0B090B0B0B0B0B0B0B0B0B0B0B0B0B020B0B0B02020B0B010B0B0B0B0B0B0B0B0B0B0B0B0B0B0B0B0B0B0B0B0B0B0B0B0B0B0B0B0B0B
310
0B0B0B0B0B0B0B0B0B0B0B0B0B0B0B0B0B0B0B0B0B0B0B0B0B0B0B0B0B0B0B0B0B0B0B0B0B0B0B0B0B0B0B0B0B0B0B0B0B0B0B0B0B0B0B0B0B0B0B0B0B0B0B0B0B0B0B0B0B0B0B0B0B0B0B0B0B0B0B0B0B0B0B0B0B0B0B0B0B0B0B0B0B0B0B0B0B0B0B0B0B0B0B0B0B0B0B0B0B0B0B0B0B0B0B0B0B0B0B0B0B0B0B0B0B0B09
310
0B0B0B0B0B0B0B0B0B0B0B0B0B0B0B020B020B0B0B010B0B0B0B0000000000000000000000000000000000000000000000000000000000000000000000000000000000000000000000000000000000000000000000000000000000000000000000000000000000000000000000000000000000000000000000000000000000
310
00000000000000000000000000000000000000000000000000000000000000000000000000000000000000000000000000000000000000000000000000000000000000000000000000000000000908
  0
ENDSEC
  0
EOF
