  0
SECTION
  2
HEADER
  9
$ACADVER
  1
AC1015
  9
$ACADMAINTVER
 70
     6
  9
$DWGCODEPAGE
  3
ANSI_1252
  9
$INSBASE
 10
0.0
 20
0.0
 30
0.0
  9
$EXTMIN
 10
525864.7648
 20
1918652.371
 30
0.0
  9
$EXTMAX
 10
525993.5825
 20
1918822.6128
 30
0.0
  9
$LIMMIN
 10
525502.201659
 20
1918310.519909
  9
$LIMMAX
 10
526356.145641
 20
1919164.463891
  9
$ORTHOMODE
 70
     0
  9
$REGENMODE
 70
     1
  9
$FILLMODE
 70
     1
  9
$QTEXTMODE
 70
     0
  9
$MIRRTEXT
 70
     1
  9
$LTSCALE
 40
1.0
  9
$ATTMODE
 70
     1
  9
$TEXTSIZE
 40
1.0
  9
$TRACEWID
 40
0.05
  9
$TEXTSTYLE
  7
Standard
  9
$CLAYER
  8
Contours2
  9
$CELTYPE
  6
ByLayer
  9
$CECOLOR
 62
   256
  9
$CELTSCALE
 40
1.0
  9
$DISPSILH
 70
     0
  9
$DIMSCALE
 40
1.0
  9
$DIMASZ
 40
0.18
  9
$DIMEXO
 40
0.0625
  9
$DIMDLI
 40
0.38
  9
$DIMRND
 40
0.0
  9
$DIMDLE
 40
0.0
  9
$DIMEXE
 40
0.18
  9
$DIMTP
 40
0.0
  9
$DIMTM
 40
0.0
  9
$DIMTXT
 40
0.18
  9
$DIMCEN
 40
0.09
  9
$DIMTSZ
 40
0.0
  9
$DIMTOL
 70
     0
  9
$DIMLIM
 70
     0
  9
$DIMTIH
 70
     1
  9
$DIMTOH
 70
     1
  9
$DIMSE1
 70
     0
  9
$DIMSE2
 70
     0
  9
$DIMTAD
 70
     0
  9
$DIMZIN
 70
     0
  9
$DIMBLK
  1

  9
$DIMASO
 70
     1
  9
$DIMSHO
 70
     1
  9
$DIMPOST
  1

  9
$DIMAPOST
  1

  9
$DIMALT
 70
     0
  9
$DIMALTD
 70
     2
  9
$DIMALTF
 40
25.4
  9
$DIMLFAC
 40
1.0
  9
$DIMTOFL
 70
     0
  9
$DIMTVP
 40
0.0
  9
$DIMTIX
 70
     0
  9
$DIMSOXD
 70
     0
  9
$DIMSAH
 70
     0
  9
$DIMBLK1
  1

  9
$DIMBLK2
  1

  9
$DIMSTYLE
  2
Standard
  9
$DIMCLRD
 70
     0
  9
$DIMCLRE
 70
     0
  9
$DIMCLRT
 70
     0
  9
$DIMTFAC
 40
1.0
  9
$DIMGAP
 40
0.09
  9
$DIMJUST
 70
     0
  9
$DIMSD1
 70
     0
  9
$DIMSD2
 70
     0
  9
$DIMTOLJ
 70
     1
  9
$DIMTZIN
 70
     0
  9
$DIMALTZ
 70
     0
  9
$DIMALTTZ
 70
     0
  9
$DIMUPT
 70
     0
  9
$DIMDEC
 70
     4
  9
$DIMTDEC
 70
     4
  9
$DIMALTU
 70
     2
  9
$DIMALTTD
 70
     2
  9
$DIMTXSTY
  7
Standard
  9
$DIMAUNIT
 70
     0
  9
$DIMADEC
 70
     0
  9
$DIMALTRND
 40
0.0
  9
$DIMAZIN
 70
     0
  9
$DIMDSEP
 70
    46
  9
$DIMATFIT
 70
     3
  9
$DIMFRAC
 70
     2
  9
$DIMLDRBLK
  1

  9
$DIMLUNIT
 70
     2
  9
$DIMLWD
 70
    -2
  9
$DIMLWE
 70
    -2
  9
$DIMTMOVE
 70
     0
  9
$LUNITS
 70
     2
  9
$LUPREC
 70
     4
  9
$SKETCHINC
 40
0.1
  9
$FILLETRAD
 40
0.5
  9
$AUNITS
 70
     0
  9
$AUPREC
 70
     0
  9
$MENU
  1
.
  9
$ELEVATION
 40
0.0
  9
$PELEVATION
 40
0.0
  9
$THICKNESS
 40
0.0
  9
$LIMCHECK
 70
     0
  9
$CHAMFERA
 40
0.5
  9
$CHAMFERB
 40
0.5
  9
$CHAMFERC
 40
1.0
  9
$CHAMFERD
 40
0.0
  9
$SKPOLY
 70
     0
  9
$TDCREATE
 40
2451789.537468704
  9
$TDUCREATE
 40
2451789.745802037
  9
$TDUPDATE
 40
2451789.537561297
  9
$TDUUPDATE
 40
2451789.74589463
  9
$TDINDWG
 40
0.0000927662
  9
$TDUSRTIMER
 40
0.0000925926
  9
$USRTIMER
 70
     1
  9
$ANGBASE
 50
0.0
  9
$ANGDIR
 70
     0
  9
$PDMODE
 70
     0
  9
$PDSIZE
 40
0.0
  9
$PLINEWID
 40
0.0
  9
$SPLFRAME
 70
     0
  9
$SPLINETYPE
 70
     6
  9
$SPLINESEGS
 70
     8
  9
$HANDSEED
  5
4497
  9
$SURFTAB1
 70
     6
  9
$SURFTAB2
 70
     6
  9
$SURFTYPE
 70
     6
  9
$SURFU
 70
     6
  9
$SURFV
 70
     6
  9
$UCSBASE
  2

  9
$UCSNAME
  2

  9
$UCSORG
 10
0.0
 20
0.0
 30
0.0
  9
$UCSXDIR
 10
1.0
 20
0.0
 30
0.0
  9
$UCSYDIR
 10
0.0
 20
1.0
 30
0.0
  9
$UCSORTHOREF
  2

  9
$UCSORTHOVIEW
 70
     0
  9
$UCSORGTOP
 10
0.0
 20
0.0
 30
0.0
  9
$UCSORGBOTTOM
 10
0.0
 20
0.0
 30
0.0
  9
$UCSORGLEFT
 10
0.0
 20
0.0
 30
0.0
  9
$UCSORGRIGHT
 10
0.0
 20
0.0
 30
0.0
  9
$UCSORGFRONT
 10
0.0
 20
0.0
 30
0.0
  9
$UCSORGBACK
 10
0.0
 20
0.0
 30
0.0
  9
$PUCSBASE
  2

  9
$PUCSNAME
  2

  9
$PUCSORG
 10
0.0
 20
0.0
 30
0.0
  9
$PUCSXDIR
 10
1.0
 20
0.0
 30
0.0
  9
$PUCSYDIR
 10
0.0
 20
1.0
 30
0.0
  9
$PUCSORTHOREF
  2

  9
$PUCSORTHOVIEW
 70
     0
  9
$PUCSORGTOP
 10
0.0
 20
0.0
 30
0.0
  9
$PUCSORGBOTTOM
 10
0.0
 20
0.0
 30
0.0
  9
$PUCSORGLEFT
 10
0.0
 20
0.0
 30
0.0
  9
$PUCSORGRIGHT
 10
0.0
 20
0.0
 30
0.0
  9
$PUCSORGFRONT
 10
0.0
 20
0.0
 30
0.0
  9
$PUCSORGBACK
 10
0.0
 20
0.0
 30
0.0
  9
$USERI1
 70
     0
  9
$USERI2
 70
     0
  9
$USERI3
 70
     0
  9
$USERI4
 70
     0
  9
$USERI5
 70
     0
  9
$USERR1
 40
0.0
  9
$USERR2
 40
0.0
  9
$USERR3
 40
0.0
  9
$USERR4
 40
0.0
  9
$USERR5
 40
0.0
  9
$WORLDVIEW
 70
     1
  9
$SHADEDGE
 70
     3
  9
$SHADEDIF
 70
    70
  9
$TILEMODE
 70
     1
  9
$MAXACTVP
 70
    64
  9
$PINSBASE
 10
0.0
 20
0.0
 30
0.0
  9
$PLIMCHECK
 70
     0
  9
$PEXTMIN
 10
1.000000E+20
 20
1.000000E+20
 30
1.000000E+20
  9
$PEXTMAX
 10
-1.000000E+20
 20
-1.000000E+20
 30
-1.000000E+20
  9
$PLIMMIN
 10
0.0
 20
0.0
  9
$PLIMMAX
 10
12.0
 20
9.0
  9
$UNITMODE
 70
     0
  9
$VISRETAIN
 70
     1
  9
$PLINEGEN
 70
     0
  9
$PSLTSCALE
 70
     1
  9
$TREEDEPTH
 70
  3020
  9
$CMLSTYLE
  2
STANDARD
  9
$CMLJUST
 70
     0
  9
$CMLSCALE
 40
1.0
  9
$PROXYGRAPHICS
 70
     1
  9
$MEASUREMENT
 70
     0
  9
$CELWEIGHT
370
    -1
  9
$ENDCAPS
280
     0
  9
$JOINSTYLE
280
     0
  9
$LWDISPLAY
290
     1
  9
$INSUNITS
 70
     0
  9
$HYPERLINKBASE
  1

  9
$STYLESHEET
  1

  9
$XEDIT
290
     1
  9
$CEPSNTYPE
380
     0
  9
$PSTYLEMODE
290
     1
  9
$FINGERPRINTGUID
  2
{FDEAD576-A652-11D2-9A35-0060089B3A3F}
  9
$VERSIONGUID
  2
{A257D680-BC79-11D2-9A46-0060089B3A3F}
  9
$EXTNAMES
290
     1
  9
$PSVPSCALE
 40
0.0
  9
$OLESTARTUP
290
     0
  0
ENDSEC
  0
SECTION
  2
CLASSES
  0
CLASS
  1
ACDBDICTIONARYWDFLT
  2
AcDbDictionaryWithDefault
  3
ObjectDBX Classes
 90
        0
280
     0
281
     0
  0
CLASS
  1
ACDBPLACEHOLDER
  2
AcDbPlaceHolder
  3
ObjectDBX Classes
 90
        0
280
     0
281
     0
  0
CLASS
  1
LAYOUT
  2
AcDbLayout
  3
ObjectDBX Classes
 90
        0
280
     0
281
     0
  0
ENDSEC
  0
SECTION
  2
TABLES
  0
TABLE
  2
VPORT
  5
3FE6
330
0
100
AcDbSymbolTable
 70
     1
  0
VPORT
  5
174
330
3FE6
100
AcDbSymbolTableRecord
100
AcDbViewportTableRecord
  2
*ACTIVE
 70
     0
 10
0.0
 20
0.0
 11
1.0
 21
1.0
 12
525929.1737
 22
1918739.84035
 13
0.0
 23
0.0
 14
0.5
 24
0.5
 15
0.5
 25
0.5
 16
0.0
 26
0.0
 36
1.0
 17
0.0
 27
0.0
 37
0.0
 40
172.166696
 41
1.576759
 42
50.0
 43
0.0
 44
0.0
 50
0.0
 51
0.0
 71
     0
 72
   100
 73
     1
 74
     3
 75
     0
 76
     0
 77
     0
 78
     0
281
     0
 65
     1
110
0.0
120
0.0
130
0.0
111
1.0
121
0.0
131
0.0
112
0.0
122
1.0
132
0.0
 79
     0
146
0.0
  0
ENDTAB
  0
TABLE
  2
LTYPE
  5
3FE2
330
0
100
AcDbSymbolTable
 70
     4
  0
LTYPE
  5
3FE3
330
3FE2
100
AcDbSymbolTableRecord
100
AcDbLinetypeTableRecord
  2
ByBlock
 70
     0
  3

 72
    65
 73
     0
 40
0.0
  0
LTYPE
  5
3FD4
330
3FE2
100
AcDbSymbolTableRecord
100
AcDbLinetypeTableRecord
  2
ByLayer
 70
     0
  3

 72
    65
 73
     0
 40
0.0
  0
LTYPE
  5
3FD2
330
3FE2
100
AcDbSymbolTableRecord
100
AcDbLinetypeTableRecord
  2
Continuous
 70
     0
  3
Solid line
 72
    65
 73
     0
 40
0.0
  0
LTYPE
  5
3FF1
330
3FE2
100
AcDbSymbolTableRecord
100
AcDbLinetypeTableRecord
  2
DGN Style 2
 70
     0
  3
Dgn Style 2
 72
    65
 73
     2
 40
2.718615
 49
1.631169
 74
     0
 49
-1.087446
 74
     0
  0
LTYPE
  5
3FF2
330
3FE2
100
AcDbSymbolTableRecord
100
AcDbLinetypeTableRecord
  2
{ Dashed Triple-Dot }
 70
     0
  3
dash triple-dot
 72
    65
 73
     8
 40
2.53
 49
1.5
 74
     0
 49
-0.25
 74
     0
 49
0.01
 74
     0
 49
-0.25
 74
     0
 49
0.01
 74
     0
 49
-0.25
 74
     0
 49
0.01
 74
     0
 49
-0.25
 74
     0
  0
LTYPE
  5
3FF6
330
3FE2
100
AcDbSymbolTableRecord
100
AcDbLinetypeTableRecord
  2
( Dashdot )
 70
     0
  3
Dash/dot stroke pattern
 72
    65
 73
     4
 40
1.001
 49
0.5
 74
     0
 49
-0.25
 74
     0
 49
0.001
 74
     0
 49
-0.25
 74
     0
  0
ENDTAB
  0
TABLE
  2
LAYER
  5
3FE0
330
0
100
AcDbSymbolTable
 70
    16
  0
LAYER
  5
3FD0
330
3FE0
100
AcDbSymbolTableRecord
100
AcDbLayerTableRecord
  2
0
 70
     0
 62
    92
  6
Continuous
370
    13
390
3FD1
  0
LAYER
  5
225
330
3FE0
100
AcDbSymbolTableRecord
100
AcDbLayerTableRecord
  2
Excavated STPs
 70
     0
 62
    94
  6
Continuous
370
    13
390
3FD1
  0
LAYER
  5
226
330
3FE0
100
AcDbSymbolTableRecord
100
AcDbLayerTableRecord
  2
Datum
 70
     0
 62
     7
  6
Continuous
370
    13
390
3FD1
  0
LAYER
  5
22A
330
3FE0
100
AcDbSymbolTableRecord
100
AcDbLayerTableRecord
  2
Gut
 70
     0
 62
    34
  6
DGN Style 2
370
    13
390
3FD1
  0
LAYER
  5
3BC
330
3FE0
100
AcDbSymbolTableRecord
100
AcDbLayerTableRecord
  2
Legend
 70
     0
 62
   250
  6
Continuous
370
    13
390
3FD1
  0
LAYER
  5
22F
330
3FE0
100
AcDbSymbolTableRecord
100
AcDbLayerTableRecord
  2
Cistern
 70
     0
 62
   174
  6
Continuous
370
    13
390
3FD1
  0
LAYER
  5
233
330
3FE0
100
AcDbSymbolTableRecord
100
AcDbLayerTableRecord
  2
Scale
 70
     0
 62
   250
  6
Continuous
370
    13
390
3FD1
  0
LAYER
  5
4AD
330
3FE0
100
AcDbSymbolTableRecord
100
AcDbLayerTableRecord
  2
EdgeofField
 70
     0
 62
    12
  6
Continuous
370
    13
390
3FD1
  0
LAYER
  5
249
330
3FE0
100
AcDbSymbolTableRecord
100
AcDbLayerTableRecord
  2
Coordinates
 70
     0
 62
   250
  6
Continuous
370
    13
390
3FD1
  0
LAYER
  5
289
330
3FE0
100
AcDbSymbolTableRecord
100
AcDbLayerTableRecord
  2
Transect Letters
 70
     0
 62
   250
  6
Continuous
370
    13
390
3FD1
  0
LAYER
  5
AE1
330
3FE0
100
AcDbSymbolTableRecord
100
AcDbLayerTableRecord
  2
Windmill
 70
     0
 62
   172
  6
Continuous
370
    30
390
3FD1
  0
LAYER
  5
348
330
3FE0
100
AcDbSymbolTableRecord
100
AcDbLayerTableRecord
  2
Slope edge
 70
     0
 62
    94
  6
{ Dashed Triple-Dot }
370
    30
390
3FD1
  0
LAYER
  5
AE2
330
3FE0
100
AcDbSymbolTableRecord
100
AcDbLayerTableRecord
  2
Structures
 70
     0
 62
    94
  6
Continuous
370
    30
390
3FD1
  0
LAYER
  5
AE3
330
3FE0
100
AcDbSymbolTableRecord
100
AcDbLayerTableRecord
  2
Modern Path
 70
     0
 62
    34
  6
Continuous
370
    30
390
3FD1
  0
LAYER
  5
AE4
330
3FE0
100
AcDbSymbolTableRecord
100
AcDbLayerTableRecord
  2
Topography_bank
 70
     0
 62
     9
  6
Continuous
370
    30
390
3FD1
  0
LAYER
  5
3F51
330
3FE0
100
AcDbSymbolTableRecord
100
AcDbLayerTableRecord
  2
Contours2
 70
     0
 62
     8
  6
Continuous
370
    30
390
3FD1
  0
ENDTAB
  0
TABLE
  2
STYLE
  5
3FE1
330
0
100
AcDbSymbolTable
 70
     1
  0
STYLE
  5
1E
330
3FE1
100
AcDbSymbolTableRecord
100
AcDbTextStyleTableRecord
  2
Standard
 70
     0
 40
0.0
 41
1.0
 50
0.0
 71
     0
 42
1.0
  3
txt.shx
  4

  0
ENDTAB
  0
TABLE
  2
VIEW
  5
3FE4
330
0
100
AcDbSymbolTable
 70
     0
  0
ENDTAB
  0
TABLE
  2
UCS
  5
3FE5
330
0
100
AcDbSymbolTable
 70
     0
  0
ENDTAB
  0
TABLE
  2
APPID
  5
3FE7
330
0
100
AcDbSymbolTable
 70
     1
  0
APPID
  5
3FEF
330
3FE7
100
AcDbSymbolTableRecord
100
AcDbRegAppTableRecord
  2
ACAD
 70
     0
  0
ENDTAB
  0
TABLE
  2
DIMSTYLE
  5
3FE8
330
0
100
AcDbSymbolTable
 70
     1
100
AcDbDimStyleTable
  0
DIMSTYLE
105
20
330
3FE8
100
AcDbSymbolTableRecord
100
AcDbDimStyleTableRecord
  2
Standard
 70
     0
 41
0.18
 44
0.18
140
0.18
141
0.09
147
0.09
276
     2
340
1E
  0
ENDTAB
  0
TABLE
  2
BLOCK_RECORD
  5
3FD7
330
0
100
AcDbSymbolTable
 70
     1
  0
BLOCK_RECORD
  5
3FD8
330
3FD7
100
AcDbSymbolTableRecord
100
AcDbBlockTableRecord
  2
*Model_Space
340
3FDB
  0
BLOCK_RECORD
  5
3FDC
330
3FD7
100
AcDbSymbolTableRecord
100
AcDbBlockTableRecord
  2
*Paper_Space
340
3FDF
  0
BLOCK_RECORD
  5
3F9
330
3FD7
100
AcDbSymbolTableRecord
100
AcDbBlockTableRecord
  2
POINT
340
0
  0
ENDTAB
  0
ENDSEC
  0
SECTION
  2
BLOCKS
  0
BLOCK
  5
3FD9
330
3FD8
100
AcDbEntity
  8
0
100
AcDbBlockBegin
  2
*Model_Space
 70
     0
 71
     0
 10
0.0
 20
0.0
 30
0.0
  3
*Model_Space
  1

  0
ENDBLK
  5
3FDA
330
3FD8
100
AcDbEntity
  8
0
100
AcDbBlockEnd
  0
BLOCK
  5
3FDD
330
3FDC
100
AcDbEntity
 67
     1
  8
0
100
AcDbBlockBegin
  2
*Paper_Space
 70
     0
 71
     0
 10
0.0
 20
0.0
 30
0.0
  3
*Paper_Space
  1

  0
ENDBLK
  5
3FDE
330
3FDC
100
AcDbEntity
 67
     1
  8
0
100
AcDbBlockEnd
  0
BLOCK
  5
3FF3
330
3F9
100
AcDbEntity
  8
0
100
AcDbBlockBegin
  2
POINT
 70
     0
 71
     0
 10
0.0
 20
0.0
 30
0.0
  3
POINT
  1

  0
POINT
  5
3FA
330
3F9
100
AcDbEntity
  8
0
100
AcDbPoint
 10
0.0
 20
0.0
 30
0.0
  0
ENDBLK
  5
3FF4
330
3F9
100
AcDbEntity
  8
0
100
AcDbBlockEnd
  0
ENDSEC
  0
SECTION
  2
ENTITIES
  0
SOLID
  5
228
330
3FD8
100
AcDbEntity
  8
Gut
  6
Continuous
 62
   132
100
AcDbTrace
 10
-525924.5686
 20
1918803.944418
 30
0.0
 11
-525925.0686
 21
1918803.944418
 31
0.0
 12
-525924.5686
 22
1918803.444418
 32
0.0
 13
-525925.0686
 23
1918803.444418
 33
0.0
210
0.0
220
0.0
230
-1.0
  0
HATCH
  5
232
330
3FD8
100
AcDbEntity
  8
Cistern
 62
    12
100
AcDbHatch
 10
0.0
 20
0.0
 30
0.0
210
0.0
220
0.0
230
1.0
  2
SOLID
 70
     1
 71
     0
 91
        1
 92
        1
 93
        1
 72
     2
 10
525932.5884205287
 20
1918741.096230184
 40
0.5107397675202411
 50
158.3852210265168
 51
518.3852210265168
 73
     1
 97
        0
 75
     0
 76
     1
 98
        0
  0
SPLINE
  5
3AC
330
3FD8
100
AcDbEntity
  8
Slope edge
100
AcDbSpline
210
0.0
220
0.0
230
1.0
 70
     8
 71
     3
 72
     8
 73
     4
 74
     0
 42
0.0000000001
 43
0.00000001
 40
0.0
 40
0.0
 40
0.0
 40
0.0
 40
1.0
 40
1.0
 40
1.0
 40
1.0
 10
525890.4170484057
 20
1918702.682256587
 30
0.0
 10
525890.415699888
 20
1918702.675840713
 30
0.0
 10
525890.4143504198
 20
1918702.669421851
 30
0.0
 10
525890.4129999999
 20
1918702.663
 30
0.0
  0
LWPOLYLINE
  5
3B0
330
3FD8
100
AcDbEntity
  8
Gut
  6
( Dashdot )
 62
    34
370
    13
100
AcDbPolyline
 90
        8
 70
   128
 43
0.0
 10
525890.413
 20
1918702.663
 10
525892.065
 20
1918710.519
 10
525892.45838
 20
1918714.765928
 10
525894.894
 20
1918721.767
 10
525896.794
 20
1918727.736
 10
525900.724
 20
1918736.052
 10
525902.556
 20
1918743.791
 10
525905.033
 20
1918750.557
  0
LWPOLYLINE
  5
3A9
330
3FD8
100
AcDbEntity
  8
Gut
  6
( Dashdot )
 62
    34
370
    13
100
AcDbPolyline
 90
        6
 70
   128
 43
0.0
 10
525910.873
 20
1918770.544
 10
525906.692
 20
1918762.736
 10
525905.75
 20
1918757.103
 10
525908.072
 20
1918754.767
 10
525907.402
 20
1918752.92
 10
525907.408506
 20
1918752.91747
  0
LWPOLYLINE
  5
4AE
330
3FD8
100
AcDbEntity
  8
EdgeofField
 62
    94
370
    13
100
AcDbPolyline
 90
      317
 70
   128
 43
0.0
 10
525922.469309
 20
1918805.413814
 10
525921.642791
 20
1918803.0788
 42
0.004578
 10
525921.636839
 20
1918803.061482
 10
525921.203162
 20
1918801.76107
 42
0.0055
 10
525921.196433
 20
1918801.740126
 10
525920.646564
 20
1918799.961878
 42
0.0076
 10
525920.638026
 20
1918799.932703
 10
525920.224677
 20
1918798.436211
 10
525920.224677
 20
1918798.436211
 10
525919.697799
 20
1918797.765897
 42
-0.050049
 10
525919.559333
 20
1918797.622002
 10
525918.03392
 20
1918796.325096
 42
0.003014
 10
525918.024782
 20
1918796.317231
 10
525916.218683
 20
1918794.743779
 42
0.028021
 10
525916.138491
 20
1918794.6656
 10
525914.933741
 20
1918793.351667
 42
0.010634
 10
525914.90567
 20
1918793.319714
 10
525913.156476
 20
1918791.24106
 42
-0.002516
 10
525913.149957
 20
1918791.233391
 10
525911.966201
 20
1918789.855078
 42
-0.003143
 10
525911.95795
 20
1918789.845593
 10
525909.736984
 20
1918787.324425
 42
0.001543
 10
525909.732919
 20
1918787.319782
 10
525907.893371
 20
1918785.205428
 42
0.005702
 10
525907.878599
 20
1918785.188053
 10
525905.984798
 20
1918782.908374
 42
0.003406
 10
525905.976165
 20
1918782.897836
 10
525904.421995
 20
1918780.974272
 42
0.001655
 10
525904.417851
 20
1918780.969108
 10
525901.747175
 20
1918777.61852
 42
0.000568
 10
525901.74576
 20
1918777.616741
 10
525900.583155
 20
1918776.151332
 42
-0.000373
 10
525900.582226
 20
1918776.150163
 10
525896.792685
 20
1918771.388247
 42
-0.00096
 10
525896.790288
 20
1918771.385247
 10
525895.046502
 20
1918769.211205
 42
-0.00055
 10
525895.045125
 20
1918769.209492
 10
525893.913037
 20
1918767.804416
 42
-0.000381
 10
525893.91208
 20
1918767.803229
 10
525892.936472
 20
1918766.596138
 42
-0.000291
 10
525892.935741
 20
1918766.595234
 10
525892.21735
 20
1918765.708499
 42
0.006926
 10
525892.200211
 20
1918765.686735
 10
525891.348401
 20
1918764.57364
 42
-0.017458
 10
525891.304065
 20
1918764.519713
 10
525890.725896
 20
1918763.864514
 42
-0.028263
 10
525890.646488
 20
1918763.78417
 10
525889.812924
 20
1918763.03104
 42
-0.023688
 10
525889.739731
 20
1918762.970953
 10
525888.771608
 20
1918762.25012
 42
0.039297
 10
525888.653467
 20
1918762.146801
 10
525888.481685
 20
1918761.970942
 42
0.057582
 10
525888.341181
 20
1918761.789393
 10
525888.257846
 20
1918761.651497
 42
0.040674
 10
525888.185403
 20
1918761.50612
 10
525888.118222
 20
1918761.338404
 42
0.024807
 10
525888.085957
 20
1918761.244631
 10
525887.505566
 20
1918759.239734
 42
-0.003236
 10
525887.501887
 20
1918759.227325
 10
525886.913049
 20
1918757.287599
 42
0.000325
 10
525886.912672
 20
1918757.286355
 10
525886.50964
 20
1918755.95247
 42
0.008724
 10
525886.500133
 20
1918755.918899
 10
525885.538167
 20
1918752.281316
 42
0.007896
 10
525885.530575
 20
1918752.250658
 10
525885.120909
 20
1918750.476652
 42
0.009621
 10
525885.112974
 20
1918750.439
 10
525884.899107
 20
1918749.317695
 42
0.005337
 10
525884.895331
 20
1918749.296683
 10
525884.589849
 20
1918747.485784
 42
0.004609
 10
525884.58695
 20
1918747.467579
 10
525884.375683
 20
1918746.057143
 42
0.004049
 10
525884.373414
 20
1918746.041106
 10
525884.017035
 20
1918743.366914
 42
0.002483
 10
525884.015772
 20
1918743.357064
 10
525883.794476
 20
1918741.560432
 42
0.000574
 10
525883.794198
 20
1918741.558153
 10
525883.455704
 20
1918738.757011
 42
-0.000673
 10
525883.455377
 20
1918738.754337
 10
525883.215654
 20
1918736.814446
 42
-0.001399
 10
525883.214953
 20
1918736.808895
 10
525882.940235
 20
1918734.68358
 42
-0.001502
 10
525882.939447
 20
1918734.677626
 10
525882.70772
 20
1918732.965836
 42
-0.001697
 10
525882.706787
 20
1918732.959114
 10
525882.36583
 20
1918730.562879
 42
-0.001625
 10
525882.364893
 20
1918730.556448
 10
525882.207944
 20
1918729.502561
 42
-0.002378
 10
525882.206498
 20
1918729.493159
 10
525881.777545
 20
1918726.789616
 42
-0.004717
 10
525881.774413
 20
1918726.771008
 10
525881.458425
 20
1918724.996476
 42
-0.00792
 10
525881.452378
 20
1918724.965379
 10
525881.141933
 20
1918723.493727
 42
-0.011617
 10
525881.131289
 20
1918723.448499
 10
525880.861128
 20
1918722.409427
 42
-0.01454
 10
525880.844867
 20
1918722.3536
 10
525880.560675
 20
1918721.474059
 42
-0.015801
 10
525880.539357
 20
1918721.414574
 10
525880.302446
 20
1918720.813986
 42
-0.013752
 10
525880.280866
 20
1918720.7634
 10
525880.073833
 20
1918720.31284
 42
-0.013923
 10
525880.049185
 20
1918720.262913
 10
525879.708505
 20
1918719.618652
 42
-0.014289
 10
525879.68036
 20
1918719.56892
 10
525879.306825
 20
1918718.95078
 42
-0.013881
 10
525879.276807
 20
1918718.904085
 10
525878.555298
 20
1918717.847388
 42
-0.00547
 10
525878.542763
 20
1918717.829453
 10
525878.110093
 20
1918717.224635
 42
0.005622
 10
525878.097215
 20
1918717.206198
 10
525877.664132
 20
1918716.57109
 42
0.014162
 10
525877.633561
 20
1918716.523411
 10
525877.258162
 20
1918715.899746
 42
0.021634
 10
525877.216803
 20
1918715.823779
 10
525876.884463
 20
1918715.145009
 42
0.020139
 10
525876.851994
 20
1918715.071322
 10
525876.6347
 20
1918714.518909
 42
0.011535
 10
525876.618807
 20
1918714.475599
 10
525876.490609
 20
1918714.099642
 42
0.007297
 10
525876.481594
 20
1918714.071883
 10
525876.355464
 20
1918713.66333
 42
0.007718
 10
525876.346815
 20
1918713.633696
 10
525876.186126
 20
1918713.049834
 42
0.011622
 10
525876.174837
 20
1918713.004744
 10
525875.945273
 20
1918711.988103
 42
0.013787
 10
525875.934616
 20
1918711.934006
 10
525875.848783
 20
1918711.424625
 42
0.014325
 10
525875.840886
 20
1918711.367883
 10
525875.791028
 20
1918710.914967
 42
0.023746
 10
525875.785131
 20
1918710.820219
 10
525875.773314
 20
1918710.014952
 42
0.019404
 10
525875.775186
 20
1918709.937389
 10
525875.81836
 20
1918709.252247
 42
0.006959
 10
525875.820497
 20
1918709.224494
 10
525875.895572
 20
1918708.399639
 42
0.004409
 10
525875.897326
 20
1918708.382092
 10
525875.979462
 20
1918707.627349
 42
0.003452
 10
525875.981051
 20
1918707.613632
 10
525876.065723
 20
1918706.924242
 42
0.007655
 10
525876.069921
 20
1918706.893911
 10
525876.164366
 20
1918706.280753
 42
0.018558
 10
525876.178377
 20
1918706.20788
 10
525876.234448
 20
1918705.965187
 42
0.046957
 10
525876.293562
 20
1918705.78734
 10
525876.375215
 20
1918705.601884
 10
525876.523217
 20
1918705.535975
 10
525876.926726
 20
1918705.894655
 10
525876.959773
 20
1918705.935332
 42
0.001533
 10
525876.963625
 20
1918705.940104
 10
525877.122469
 20
1918706.138097
 42
0.000153
 10
525877.122851
 20
1918706.138574
 10
525877.539707
 20
1918706.658821
 10
525878.071586
 20
1918707.32262
 10
525879.51381
 20
1918709.122553
 42
-0.000081
 10
525879.514013
 20
1918709.122807
 10
525881.349293
 20
1918711.411762
 42
-0.001535
 10
525881.353149
 20
1918711.416541
 10
525882.610272
 20
1918712.964842
 42
-0.007283
 10
525882.628961
 20
1918712.987186
 10
525884.211715
 20
1918714.824485
 42
-0.027148
 10
525884.286895
 20
1918714.902736
 10
525884.956627
 20
1918715.528059
 42
-0.051873
 10
525885.121681
 20
1918715.652875
 10
525885.459621
 20
1918715.857203
 42
-0.078586
 10
525885.748933
 20
1918715.975102
 10
525886.835841
 20
1918716.22973
 42
-0.019107
 10
525886.91084
 20
1918716.244302
 10
525889.570437
 20
1918716.656325
 42
-0.00008
 10
525889.570755
 20
1918716.656374
 10
525892.022408
 20
1918717.035375
 42
0.000138
 10
525892.022954
 20
1918717.035459
 10
525894.340017
 20
1918717.394964
 42
0.002585
 10
525894.350227
 20
1918717.396603
 10
525896.916518
 20
1918717.821996
 42
0.009206
 10
525896.952727
 20
1918717.828686
 10
525898.508069
 20
1918718.145738
 42
0.019225
 10
525898.582745
 20
1918718.163976
 10
525899.777183
 20
1918718.504833
 42
0.02694
 10
525899.878991
 20
1918718.539915
 10
525901.130747
 20
1918719.048198
 42
0.06225
 10
525901.347215
 20
1918719.169298
 10
525902.057891
 20
1918719.692262
 42
0.090507
 10
525902.304199
 20
1918719.953559
 10
525902.487627
 20
1918720.236388
 42
0.023798
 10
525902.535539
 20
1918720.31858
 10
525902.724831
 20
1918720.682014
 42
-0.062986
 10
525902.867765
 20
1918720.888278
 10
525903.143296
 20
1918721.195054
 42
-0.06564
 10
525903.341912
 20
1918721.36505
 10
525903.676747
 20
1918721.582905
 42
-0.023842
 10
525903.759026
 20
1918721.631019
 10
525904.948456
 20
1918722.252472
 42
-0.004017
 10
525904.962755
 20
1918722.259797
 10
525907.610963
 20
1918723.589717
 42
0.003478
 10
525907.623352
 20
1918723.596047
 10
525909.4393
 20
1918724.53987
 42
0.010278
 10
525909.475378
 20
1918724.559574
 10
525910.771246
 20
1918725.302273
 42
0.033787
 10
525910.88357
 20
1918725.377151
 10
525911.25476
 20
1918725.66258
 42
0.09615
 10
525911.507056
 20
1918725.94818
 10
525911.658142
 20
1918726.204951
 42
0.054929
 10
525911.747884
 20
1918726.404778
 10
525912.915136
 20
1918730.019367
 42
0.002349
 10
525912.917981
 20
1918730.028322
 10
525913.398425
 20
1918731.565332
 10
525914.23551
 20
1918734.244645
 10
525915.016404
 20
1918736.745328
 42
0.000084
 10
525915.016504
 20
1918736.74565
 10
525915.761965
 20
1918739.135696
 42
0.000802
 10
525915.762914
 20
1918739.138758
 10
525916.313853
 20
1918740.925275
 42
0.000278
 10
525916.314181
 20
1918740.926339
 10
525916.566394
 20
1918741.747432
 42
0.012445
 10
525916.579821
 20
1918741.795362
 10
525916.995743
 20
1918743.436283
 42
0.03929
 10
525917.022244
 20
1918743.590947
 10
525917.053083
 20
1918743.928296
 42
0.005848
 10
525917.05494
 20
1918743.951613
 10
525917.075352
 20
1918744.252358
 10
525916.813101
 20
1918744.711786
 42
0.046191
 10
525916.707328
 20
1918744.8628
 10
525916.503466
 20
1918745.103208
 42
0.038295
 10
525916.395909
 20
1918745.21196
 10
525915.476413
 20
1918746.009305
 42
0.028469
 10
525915.386347
 20
1918746.078837
 10
525914.630475
 20
1918746.596539
 42
0.007476
 10
525914.605554
 20
1918746.613066
 10
525912.904117
 20
1918747.705124
 42
-0.000741
 10
525912.901625
 20
1918747.706729
 10
525911.099079
 20
1918748.871242
 42
-0.005099
 10
525911.082063
 20
1918748.882483
 10
525909.521814
 20
1918749.936172
 42
-0.015856
 10
525909.470418
 20
1918749.973307
 10
525907.96724
 20
1918751.133676
 42
-0.038865
 10
525907.852097
 20
1918751.23778
 10
525906.351324
 20
1918752.823081
 42
-0.009396
 10
525906.326005
 20
1918752.850854
 10
525905.460275
 20
1918753.83707
 42
-0.005791
 10
525905.445196
 20
1918753.854654
 10
525904.534619
 20
1918754.941749
 42
0.008565
 10
525904.512175
 20
1918754.967629
 10
525904.192829
 20
1918755.323381
 42
0.037545
 10
525904.084561
 20
1918755.427156
 10
525904.022937
 20
1918755.47793
 10
525903.906756
 20
1918755.53578
 10
525903.861712
 20
1918755.544989
 42
-0.015808
 10
525903.800207
 20
1918755.559602
 10
525903.585771
 20
1918755.617769
 10
525903.55846
 20
1918755.686594
 42
-0.058519
 10
525903.498296
 20
1918755.911979
 10
525903.485307
 20
1918756.001589
 42
-0.017519
 10
525903.477692
 20
1918756.071227
 10
525903.448745
 20
1918756.462311
 42
0.005213
 10
525903.446989
 20
1918756.48309
 10
525903.187717
 20
1918759.211677
 42
0.022984
 10
525903.174831
 20
1918759.302657
 10
525902.912408
 20
1918760.69221
 42
-0.003226
 10
525902.910095
 20
1918760.704905
 10
525902.851969
 20
1918761.036069
 42
-0.032822
 10
525902.837816
 20
1918761.166449
 10
525902.833422
 20
1918761.269736
 42
-0.09282
 10
525902.885736
 20
1918761.634108
 10
525902.88992
 20
1918761.646415
 42
-0.002333
 10
525902.892965
 20
1918761.655236
 10
525903.004487
 20
1918761.9735
 42
-0.048534
 10
525903.085936
 20
1918762.149222
 10
525903.246041
 20
1918762.421838
 42
-0.010353
 10
525903.267746
 20
1918762.457103
 10
525903.935591
 20
1918763.493471
 42
-0.001327
 10
525903.938478
 20
1918763.497925
 10
525905.123977
 20
1918765.316326
 42
0.010822
 10
525905.146824
 20
1918765.353086
 10
525905.455506
 20
1918765.874579
 42
0.013644
 10
525905.482009
 20
1918765.922275
 10
525905.667798
 20
1918766.279243
 42
0.016206
 10
525905.695839
 20
1918766.337667
 10
525906.063634
 20
1918767.172292
 42
0.007291
 10
525906.075003
 20
1918767.199147
 10
525906.312497
 20
1918767.78371
 42
-0.001723
 10
525906.315113
 20
1918767.790086
 10
525906.985815
 20
1918769.408858
 42
-0.013181
 10
525907.00727
 20
1918769.457009
 10
525908.126129
 20
1918771.799981
 42
-0.009132
 10
525908.142469
 20
1918771.832649
 10
525909.917522
 20
1918775.225243
 42
0.005883
 10
525909.928185
 20
1918775.246221
 10
525911.423122
 20
1918778.274874
 42
0.003843
 10
525911.42982
 20
1918778.288711
 10
525912.921758
 20
1918781.432136
 42
-0.001143
 10
525912.923728
 20
1918781.436263
 10
525914.559423
 20
1918784.842281
 42
-0.011083
 10
525914.579493
 20
1918784.881804
 10
525916.924936
 20
1918789.257509
 42
-0.005477
 10
525916.935497
 20
1918789.276704
 10
525918.316976
 20
1918791.723714
 42
-0.001957
 10
525918.320852
 20
1918791.730516
 10
525918.947829
 20
1918792.821047
 42
-0.003886
 10
525918.95568
 20
1918792.834461
 10
525919.387185
 20
1918793.558708
 42
-0.009829
 10
525919.407966
 20
1918793.592079
 10
525919.986236
 20
1918794.481212
 42
-0.018697
 10
525920.029312
 20
1918794.542318
 10
525920.848484
 20
1918795.616719
 42
-0.012428
 10
525920.879593
 20
1918795.655484
 10
525921.69347
 20
1918796.619543
 42
-0.001173
 10
525921.696504
 20
1918796.62312
 10
525923.297956
 20
1918798.502132
 42
0.01438
 10
525923.333984
 20
1918798.546953
 10
525925.222648
 20
1918801.040133
 42
0.011159
 10
525925.248797
 20
1918801.076301
 10
525925.894449
 20
1918802.012656
 42
-0.000851
 10
525925.896386
 20
1918802.015456
 10
525926.447699
 20
1918802.809199
 42
-0.022149
 10
525926.501386
 20
1918802.879621
 10
525927.373614
 20
1918803.924343
  0
LWPOLYLINE
  5
3B3
330
3FD8
100
AcDbEntity
  8
Slope edge
 62
    48
370
    13
100
AcDbPolyline
 90
       14
 70
   128
 43
0.0
 10
525907.980947
 20
1918752.694887
 10
525914.207
 20
1918750.274
 10
525918.236
 20
1918748.328
 10
525921.265
 20
1918746.027
 10
525925.184
 20
1918742.814
 10
525923.816
 20
1918738.393
 10
525921.253
 20
1918731.393
 10
525917.459
 20
1918725.48
 10
525911.907
 20
1918720.203
 10
525907.382
 20
1918714.444
 10
525903.419
 20
1918709.679
 10
525898.954
 20
1918706.599
 10
525894.599
 20
1918703.753
 10
525891.596485
 20
1918702.97117
  0
LWPOLYLINE
  5
38AB
330
3FD8
100
AcDbEntity
  8
Gut
  6
Continuous
 62
   250
370
     0
100
AcDbPolyline
 90
        2
 70
   128
 43
0.0
 10
525942.57965
 20
1918666.05952
 10
525941.770929
 20
1918666.486249
  0
LWPOLYLINE
  5
38AC
330
3FD8
100
AcDbEntity
  8
Gut
  6
Continuous
 62
   250
370
     0
100
AcDbPolyline
 90
        2
 70
   128
 43
0.0
 10
525940.959378
 20
1918666.914472
 10
525940.150657
 20
1918667.341201
  0
LWPOLYLINE
  5
38AD
330
3FD8
100
AcDbEntity
  8
Gut
  6
Continuous
 62
   250
370
     0
100
AcDbPolyline
 90
        2
 70
   128
 43
0.0
 10
525939.339106
 20
1918667.769424
 10
525938.530385
 20
1918668.196153
  0
LWPOLYLINE
  5
38AE
330
3FD8
100
AcDbEntity
  8
Gut
  6
Continuous
 62
   250
370
     0
100
AcDbPolyline
 90
        2
 70
   128
 43
0.0
 10
525937.718834
 20
1918668.624376
 10
525936.910113
 20
1918669.051105
  0
LWPOLYLINE
  5
38AF
330
3FD8
100
AcDbEntity
  8
Gut
  6
Continuous
 62
   250
370
     0
100
AcDbPolyline
 90
        2
 70
   128
 43
0.0
 10
525936.098562
 20
1918669.479328
 10
525935.289841
 20
1918669.906057
  0
LWPOLYLINE
  5
38B0
330
3FD8
100
AcDbEntity
  8
Gut
  6
Continuous
 62
   250
370
     0
100
AcDbPolyline
 90
        2
 70
   128
 43
0.0
 10
525934.47829
 20
1918670.33428
 10
525933.669569
 20
1918670.761009
  0
LWPOLYLINE
  5
38B1
330
3FD8
100
AcDbEntity
  8
Gut
  6
Continuous
 62
   250
370
     0
100
AcDbPolyline
 90
        2
 70
   128
 43
0.0
 10
525943.388371
 20
1918665.63279
 10
525942.57965
 20
1918666.05952
  0
LWPOLYLINE
  5
38B2
330
3FD8
100
AcDbEntity
  8
Gut
  6
Continuous
 62
   250
370
     0
100
AcDbPolyline
 90
        2
 70
   128
 43
0.0
 10
525941.768099
 20
1918666.487742
 10
525940.959378
 20
1918666.914472
  0
LWPOLYLINE
  5
38B3
330
3FD8
100
AcDbEntity
  8
Gut
  6
Continuous
 62
   250
370
     0
100
AcDbPolyline
 90
        2
 70
   128
 43
0.0
 10
525940.147827
 20
1918667.342694
 10
525939.339106
 20
1918667.769424
  0
LWPOLYLINE
  5
38B4
330
3FD8
100
AcDbEntity
  8
Gut
  6
Continuous
 62
   250
370
     0
100
AcDbPolyline
 90
        2
 70
   128
 43
0.0
 10
525938.527555
 20
1918668.197646
 10
525937.718834
 20
1918668.624376
  0
LWPOLYLINE
  5
38B5
330
3FD8
100
AcDbEntity
  8
Gut
  6
Continuous
 62
   250
370
     0
100
AcDbPolyline
 90
        2
 70
   128
 43
0.0
 10
525936.907283
 20
1918669.052598
 10
525936.098562
 20
1918669.479328
  0
LWPOLYLINE
  5
38B6
330
3FD8
100
AcDbEntity
  8
Gut
  6
Continuous
 62
   250
370
     0
100
AcDbPolyline
 90
        2
 70
   128
 43
0.0
 10
525935.287011
 20
1918669.90755
 10
525934.47829
 20
1918670.33428
  0
LWPOLYLINE
  5
38B7
330
3FD8
100
AcDbEntity
  8
Gut
  6
Continuous
 62
   250
370
     0
100
AcDbPolyline
 90
        2
 70
   128
 43
0.0
 10
525933.666739
 20
1918670.762502
 10
525932.99143
 20
1918671.118835
  0
SOLID
  5
38B8
330
3FD8
100
AcDbEntity
  8
Gut
  6
Continuous
 62
   250
370
     0
100
AcDbTrace
 10
525942.406112
 20
1918666.151089
 30
0.0
 11
525942.753188
 21
1918665.967951
 31
0.0
 12
525943.266893
 22
1918667.361957
 32
0.0
 13
525943.266893
 23
1918667.361957
 33
0.0
  0
SOLID
  5
38B9
330
3FD8
100
AcDbEntity
  8
Gut
  6
Continuous
 62
   250
370
     0
100
AcDbTrace
 10
525940.78584
 20
1918667.006041
 30
0.0
 11
525941.132916
 21
1918666.822903
 31
0.0
 12
525941.646621
 22
1918668.216909
 32
0.0
 13
525941.646621
 23
1918668.216909
 33
0.0
  0
SOLID
  5
38BA
330
3FD8
100
AcDbEntity
  8
Gut
  6
Continuous
 62
   250
370
     0
100
AcDbTrace
 10
525939.165568
 20
1918667.860993
 30
0.0
 11
525939.512644
 21
1918667.677855
 31
0.0
 12
525940.026349
 22
1918669.071861
 32
0.0
 13
525940.026349
 23
1918669.071861
 33
0.0
  0
SOLID
  5
38BB
330
3FD8
100
AcDbEntity
  8
Gut
  6
Continuous
 62
   250
370
     0
100
AcDbTrace
 10
525937.545296
 20
1918668.715945
 30
0.0
 11
525937.892372
 21
1918668.532807
 31
0.0
 12
525938.406077
 22
1918669.926813
 32
0.0
 13
525938.406077
 23
1918669.926813
 33
0.0
  0
SOLID
  5
38BC
330
3FD8
100
AcDbEntity
  8
Gut
  6
Continuous
 62
   250
370
     0
100
AcDbTrace
 10
525935.925024
 20
1918669.570897
 30
0.0
 11
525936.2721
 21
1918669.387759
 31
0.0
 12
525936.785806
 22
1918670.781765
 32
0.0
 13
525936.785806
 23
1918670.781765
 33
0.0
  0
SOLID
  5
38BD
330
3FD8
100
AcDbEntity
  8
Gut
  6
Continuous
 62
   250
370
     0
100
AcDbTrace
 10
525934.304752
 20
1918670.425849
 30
0.0
 11
525934.651828
 21
1918670.242711
 31
0.0
 12
525935.165534
 22
1918671.636717
 32
0.0
 13
525935.165534
 23
1918671.636717
 33
0.0
  0
LINE
  5
3C36
330
3FD8
100
AcDbEntity
  8
Gut
 62
    30
100
AcDbLine
 10
525957.805814
 20
1918774.201848
 30
0.0
 11
525963.407015
 21
1918774.201848
 31
0.0
  0
LINE
  5
3C37
330
3FD8
100
AcDbEntity
  8
Gut
 62
    30
100
AcDbLine
 10
525957.805814
 20
1918773.042489
 30
0.0
 11
525963.407015
 21
1918773.042489
 31
0.0
  0
LWPOLYLINE
  5
3C72
330
3FD8
100
AcDbEntity
  8
Gut
  6
Continuous
 62
   250
370
     0
100
AcDbPolyline
 90
        2
 70
   128
 43
0.0
 10
525963.452142
 20
1918767.000623
 10
525962.803482
 20
1918767.019311
  0
LWPOLYLINE
  5
3C73
330
3FD8
100
AcDbEntity
  8
Gut
  6
Continuous
 62
   250
370
     0
100
AcDbPolyline
 90
        2
 70
   128
 43
0.0
 10
525962.152552
 20
1918767.038064
 10
525961.503892
 20
1918767.056752
  0
LWPOLYLINE
  5
3C74
330
3FD8
100
AcDbEntity
  8
Gut
  6
Continuous
 62
   250
370
     0
100
AcDbPolyline
 90
        2
 70
   128
 43
0.0
 10
525960.852962
 20
1918767.075506
 10
525960.204302
 20
1918767.094194
  0
LWPOLYLINE
  5
3C75
330
3FD8
100
AcDbEntity
  8
Gut
  6
Continuous
 62
   250
370
     0
100
AcDbPolyline
 90
        2
 70
   128
 43
0.0
 10
525959.553372
 20
1918767.112947
 10
525958.904713
 20
1918767.131636
  0
LWPOLYLINE
  5
3C76
330
3FD8
100
AcDbEntity
  8
Gut
  6
Continuous
 62
   250
370
     0
100
AcDbPolyline
 90
        2
 70
   128
 43
0.0
 10
525958.253783
 20
1918767.150389
 10
525957.605123
 20
1918767.169077
  0
LWPOLYLINE
  5
3C77
330
3FD8
100
AcDbEntity
  8
Gut
  6
Continuous
 62
   250
370
     0
100
AcDbPolyline
 90
        2
 70
   128
 43
0.0
 10
525957.46603
 20
1918767.187831
 10
525956.81737
 20
1918767.206519
  0
LWPOLYLINE
  5
3C79
330
3FD8
100
AcDbEntity
  8
Gut
  6
Continuous
 62
   250
370
     0
100
AcDbPolyline
 90
        2
 70
   128
 43
0.0
 10
525962.801212
 20
1918767.019376
 10
525962.152552
 20
1918767.038064
  0
LWPOLYLINE
  5
3C7A
330
3FD8
100
AcDbEntity
  8
Gut
  6
Continuous
 62
   250
370
     0
100
AcDbPolyline
 90
        2
 70
   128
 43
0.0
 10
525961.501622
 20
1918767.056818
 10
525960.852962
 20
1918767.075506
  0
LWPOLYLINE
  5
3C7B
330
3FD8
100
AcDbEntity
  8
Gut
  6
Continuous
 62
   250
370
     0
100
AcDbPolyline
 90
        2
 70
   128
 43
0.0
 10
525960.202032
 20
1918767.094259
 10
525959.553372
 20
1918767.112947
  0
LWPOLYLINE
  5
3C7C
330
3FD8
100
AcDbEntity
  8
Gut
  6
Continuous
 62
   250
370
     0
100
AcDbPolyline
 90
        2
 70
   128
 43
0.0
 10
525958.902443
 20
1918767.131701
 10
525958.253783
 20
1918767.150389
  0
LWPOLYLINE
  5
3C7D
330
3FD8
100
AcDbEntity
  8
Gut
  6
Continuous
 62
   250
370
     0
100
AcDbPolyline
 90
        2
 70
   128
 43
0.0
 10
525957.602853
 20
1918767.169142
 10
525956.954193
 20
1918767.187831
  0
SOLID
  5
3C7F
330
3FD8
100
AcDbEntity
  8
Gut
  6
Continuous
 62
   250
370
     0
100
AcDbTrace
 10
525963.31295
 20
1918767.004633
 30
0.0
 11
525963.591333
 21
1918766.996613
 31
0.0
 12
525963.482239
 22
1918768.045283
 32
0.0
 13
525963.482239
 23
1918768.045283
 33
0.0
  0
SOLID
  5
3C80
330
3FD8
100
AcDbEntity
  8
Gut
  6
Continuous
 62
   250
370
     0
100
AcDbTrace
 10
525962.01336
 20
1918767.042074
 30
0.0
 11
525962.291744
 21
1918767.034054
 31
0.0
 12
525962.182649
 22
1918768.082725
 32
0.0
 13
525962.182649
 23
1918768.082725
 33
0.0
  0
SOLID
  5
3C81
330
3FD8
100
AcDbEntity
  8
Gut
  6
Continuous
 62
   250
370
     0
100
AcDbTrace
 10
525960.713771
 20
1918767.079516
 30
0.0
 11
525960.992154
 21
1918767.071496
 31
0.0
 12
525960.883059
 22
1918768.120167
 32
0.0
 13
525960.883059
 23
1918768.120167
 33
0.0
  0
SOLID
  5
3C82
330
3FD8
100
AcDbEntity
  8
Gut
  6
Continuous
 62
   250
370
     0
100
AcDbTrace
 10
525959.414181
 20
1918767.116958
 30
0.0
 11
525959.692564
 21
1918767.108937
 31
0.0
 12
525959.583469
 22
1918768.157608
 32
0.0
 13
525959.583469
 23
1918768.157608
 33
0.0
  0
SOLID
  5
3C83
330
3FD8
100
AcDbEntity
  8
Gut
  6
Continuous
 62
   250
370
     0
100
AcDbTrace
 10
525958.114591
 20
1918767.154399
 30
0.0
 11
525958.392974
 21
1918767.146379
 31
0.0
 12
525958.28388
 22
1918768.19505
 32
0.0
 13
525958.28388
 23
1918768.19505
 33
0.0
  0
SOLID
  5
3C84
330
3FD8
100
AcDbEntity
  8
Gut
  6
Continuous
 62
   250
370
     0
100
AcDbTrace
 10
525956.815001
 20
1918767.191841
 30
0.0
 11
525957.093385
 21
1918767.18382
 31
0.0
 12
525956.98429
 22
1918768.232491
 32
0.0
 13
525956.98429
 23
1918768.232491
 33
0.0
  0
SPLINE
  5
3F55
330
3FD8
100
AcDbEntity
  8
Contours2
370
    13
100
AcDbSpline
210
0.0
220
0.0
230
1.0
 70
     8
 71
     3
 72
    20
 73
    16
 74
     0
 42
0.0000000001
 43
0.00000001
 40
0.0
 40
0.0
 40
0.0
 40
0.0
 40
0.2327718535327126
 40
0.2327718535327126
 40
0.2327718535327126
 40
0.4587380243515019
 40
0.4587380243515019
 40
0.4587380243515019
 40
0.5132485256601939
 40
0.5132485256601939
 40
0.5132485256601939
 40
0.7334707596781208
 40
0.7334707596781208
 40
0.7334707596781208
 40
1.0
 40
1.0
 40
1.0
 40
1.0
 10
525927.6122808887
 20
1918799.608401205
 30
0.0
 10
525926.8048743529
 20
1918798.999484516
 30
0.0
 10
525925.9974678169
 20
1918798.390567827
 30
0.0
 10
525925.1900612811
 20
1918797.781651138
 30
0.0
 10
525924.4062613482
 20
1918797.190537691
 30
0.0
 10
525923.7026583804
 20
1918796.501431631
 30
0.0
 10
525922.9441390485
 20
1918795.876487024
 30
0.0
 10
525922.761159141
 20
1918795.725729751
 30
0.0
 10
525922.369976954
 20
1918795.416894864
 30
0.0
 10
525922.2765063732
 20
1918795.633535915
 30
0.0
 10
525921.8988855549
 20
1918796.508765
 30
0.0
 10
525921.6007162473
 20
1918797.423968029
 30
0.0
 10
525921.285944095
 20
1918798.327462516
 30
0.0
 10
525920.9049835483
 20
1918799.420938387
 30
0.0
 10
525920.5240230016
 20
1918800.514414258
 30
0.0
 10
525920.1430624548
 20
1918801.607890128
 30
0.0
  0
SPLINE
  5
3F56
330
3FD8
100
AcDbEntity
  8
Contours2
370
    13
100
AcDbSpline
210
0.0
220
0.0
230
1.0
 70
     8
 71
     3
 72
    23
 73
    19
 74
     0
 42
0.0000000001
 43
0.00000001
 40
0.0
 40
0.0
 40
0.0
 40
0.0
 40
0.1403621292414685
 40
0.1403621292414685
 40
0.1403621292414685
 40
0.3734618102903008
 40
0.3734618102903008
 40
0.3734618102903008
 40
0.5272638190536322
 40
0.5272638190536322
 40
0.5272638190536322
 40
0.5937397689763372
 40
0.5937397689763372
 40
0.5937397689763372
 40
0.785879702145878
 40
0.785879702145878
 40
0.785879702145878
 40
1.0
 40
1.0
 40
1.0
 40
1.0
 10
525928.3640371581
 20
1918793.683152165
 30
0.0
 10
525927.6094895123
 20
1918793.043086772
 30
0.0
 10
525926.8549418664
 20
1918792.403021379
 30
0.0
 10
525926.1003942204
 20
1918791.762955986
 30
0.0
 10
525924.8473153698
 20
1918790.699998051
 30
0.0
 10
525923.5942365191
 20
1918789.637040117
 30
0.0
 10
525922.3411576684
 20
1918788.574082183
 30
0.0
 10
525921.5143609799
 20
1918787.87272959
 30
0.0
 10
525920.6373351446
 20
1918787.111645922
 30
0.0
 10
525919.7862982922
 20
1918786.561102408
 30
0.0
 10
525919.4184651043
 20
1918786.323147759
 30
0.0
 10
525919.0020722838
 20
1918787.018606278
 30
0.0
 10
525918.6952972114
 20
1918787.447711591
 30
0.0
 10
525917.8086044756
 20
1918788.687983694
 30
0.0
 10
525917.5915213712
 20
1918789.922072467
 30
0.0
 10
525917.0802094049
 20
1918791.17630929
 30
0.0
 10
525916.5104045303
 20
1918792.574027909
 30
0.0
 10
525915.9405996559
 20
1918793.971746529
 30
0.0
 10
525915.3707947814
 20
1918795.369465148
 30
0.0
  0
SPLINE
  5
3F57
330
3FD8
100
AcDbEntity
  8
Contours2
370
    13
100
AcDbSpline
210
0.0
220
0.0
230
1.0
 70
     8
 71
     3
 72
    23
 73
    19
 74
     0
 42
0.0000000001
 43
0.00000001
 40
0.0
 40
0.0
 40
0.0
 40
0.0
 40
0.3005668659401105
 40
0.3005668659401105
 40
0.3005668659401105
 40
0.4695888552197339
 40
0.4695888552197339
 40
0.4695888552197339
 40
0.5460379781350031
 40
0.5460379781350031
 40
0.5460379781350031
 40
0.6562499142594986
 40
0.6562499142594986
 40
0.6562499142594986
 40
0.8458645660055426
 40
0.8458645660055426
 40
0.8458645660055426
 40
1.0
 40
1.0
 40
1.0
 40
1.0
 10
525929.1201191827
 20
1918787.533609514
 30
0.0
 10
525925.4320567566
 20
1918784.67898526
 30
0.0
 10
525921.7439943297
 20
1918781.824361006
 30
0.0
 10
525918.055931904
 20
1918778.969736751
 30
0.0
 10
525915.9819719355
 20
1918777.364455781
 30
0.0
 10
525914.6470057799
 20
1918774.980150911
 30
0.0
 10
525912.9527877664
 20
1918772.981243417
 30
0.0
 10
525912.186488176
 20
1918772.077131915
 30
0.0
 10
525911.2007537242
 20
1918769.475354315
 30
0.0
 10
525910.7020401154
 20
1918770.224733131
 30
0.0
 10
525909.9830757858
 20
1918771.305065868
 30
0.0
 10
525911.1179771291
 20
1918773.619679754
 30
0.0
 10
525911.2473370036
 20
1918775.326000647
 30
0.0
 10
525911.4698948171
 20
1918778.261648576
 30
0.0
 10
525912.3060135947
 20
1918781.229441577
 30
0.0
 10
525911.8317485469
 20
1918784.133131736
 30
0.0
 10
525911.4462242833
 20
1918786.493505993
 30
0.0
 10
525911.0607000194
 20
1918788.85388025
 30
0.0
 10
525910.6751757556
 20
1918791.214254508
 30
0.0
  0
SPLINE
  5
3F5B
330
3FD8
100
AcDbEntity
  8
Contours2
370
    13
100
AcDbSpline
210
0.0
220
0.0
230
1.0
 70
     8
 71
     3
 72
    41
 73
    37
 74
     0
 42
0.0000000001
 43
0.00000001
 40
0.0
 40
0.0
 40
0.0
 40
0.0
 40
0.1584382574388645
 40
0.1584382574388645
 40
0.1584382574388645
 40
0.2456981934232657
 40
0.2456981934232657
 40
0.2456981934232657
 40
0.3003806032408287
 40
0.3003806032408287
 40
0.3003806032408287
 40
0.3590728882836048
 40
0.3590728882836048
 40
0.3590728882836048
 40
0.498857867833801
 40
0.498857867833801
 40
0.498857867833801
 40
0.6163726644962703
 40
0.6163726644962703
 40
0.6163726644962703
 40
0.6818154115276673
 40
0.6818154115276673
 40
0.6818154115276673
 40
0.7369422045626449
 40
0.7369422045626449
 40
0.7369422045626449
 40
0.7925562429966074
 40
0.7925562429966074
 40
0.7925562429966074
 40
0.8473933387306233
 40
0.8473933387306233
 40
0.8473933387306233
 40
0.9210361379015477
 40
0.9210361379015477
 40
0.9210361379015477
 40
1.0
 40
1.0
 40
1.0
 40
1.0
 10
525929.0516745917
 20
1918768.22089266
 30
0.0
 10
525925.9414900809
 20
1918765.584552245
 30
0.0
 10
525922.8313055701
 20
1918762.948211831
 30
0.0
 10
525919.7211210593
 20
1918760.311871416
 30
0.0
 10
525918.0081856502
 20
1918758.859905839
 30
0.0
 10
525918.8448791781
 20
1918755.906801824
 30
0.0
 10
525918.4927831964
 20
1918753.688250665
 30
0.0
 10
525918.2721383317
 20
1918752.297970895
 30
0.0
 10
525918.5353509277
 20
1918750.822602694
 30
0.0
 10
525917.9155668209
 20
1918749.506361833
 30
0.0
 10
525917.2503337853
 20
1918748.093600691
 30
0.0
 10
525916.1522123267
 20
1918747.057150378
 30
0.0
 10
525915.2292894451
 20
1918745.857415423
 30
0.0
 10
525913.0312023197
 20
1918743.000056472
 30
0.0
 10
525911.0467324881
 20
1918739.997461349
 30
0.0
 10
525908.5845102862
 20
1918737.354224595
 30
0.0
 10
525906.5145629833
 20
1918735.132101512
 30
0.0
 10
525904.1696250917
 20
1918733.226734145
 30
0.0
 10
525901.9343327688
 20
1918731.183240862
 30
0.0
 10
525900.689522122
 20
1918730.045241071
 30
0.0
 10
525899.4367361491
 20
1918728.942721657
 30
0.0
 10
525898.1492829765
 20
1918727.836812356
 30
0.0
 10
525897.0647752533
 20
1918726.905231151
 30
0.0
 10
525895.255616631
 20
1918725.616237927
 30
0.0
 10
525894.146353416
 20
1918726.391558081
 30
0.0
 10
525893.0272858327
 20
1918727.173731004
 30
0.0
 10
525892.0072909975
 20
1918728.316621825
 30
0.0
 10
525890.9063840272
 20
1918729.208718442
 30
0.0
 10
525889.820857016
 20
1918730.088352235
 30
0.0
 10
525888.6090943202
 20
1918730.852099035
 30
0.0
 10
525887.5722163767
 20
1918731.817485974
 30
0.0
 10
525886.1797539723
 20
1918733.113940416
 30
0.0
 10
525885.6841299408
 20
1918735.136965552
 30
0.0
 10
525884.4202192046
 20
1918736.549031747
 30
0.0
 10
525883.0649845557
 20
1918738.063126832
 30
0.0
 10
525881.7097499069
 20
1918739.577221916
 30
0.0
 10
525880.3545152579
 20
1918741.091317001
 30
0.0
  0
SPLINE
  5
3F5C
330
3FD8
100
AcDbEntity
  8
Contours2
370
    13
100
AcDbSpline
210
0.0
220
0.0
230
1.0
 70
     8
 71
     3
 72
    41
 73
    37
 74
     0
 42
0.0000000001
 43
0.00000001
 40
0.0
 40
0.0
 40
0.0
 40
0.0
 40
0.1490881491892036
 40
0.1490881491892036
 40
0.1490881491892036
 40
0.1881191759567589
 40
0.1881191759567589
 40
0.1881191759567589
 40
0.259011175266315
 40
0.259011175266315
 40
0.259011175266315
 40
0.422063541678237
 40
0.422063541678237
 40
0.422063541678237
 40
0.5321905868766523
 40
0.5321905868766523
 40
0.5321905868766523
 40
0.604834463483921
 40
0.604834463483921
 40
0.604834463483921
 40
0.6784758864432702
 40
0.6784758864432702
 40
0.6784758864432702
 40
0.7049831810448803
 40
0.7049831810448803
 40
0.7049831810448803
 40
0.7545826661170079
 40
0.7545826661170079
 40
0.7545826661170079
 40
0.8224244973160397
 40
0.8224244973160397
 40
0.8224244973160397
 40
0.9127788319913495
 40
0.9127788319913495
 40
0.9127788319913495
 40
1.0
 40
1.0
 40
1.0
 40
1.0
 10
525928.7680085148
 20
1918763.06815563
 30
0.0
 10
525926.0129156598
 20
1918759.890754389
 30
0.0
 10
525923.2578228049
 20
1918756.713353148
 30
0.0
 10
525920.50272995
 20
1918753.535951907
 30
0.0
 10
525919.7814512732
 20
1918752.704113605
 30
0.0
 10
525920.7164745913
 20
1918751.251650405
 30
0.0
 10
525920.3002045264
 20
1918750.239170982
 30
0.0
 10
525919.5441337902
 20
1918748.400206021
 30
0.0
 10
525918.7297868468
 20
1918746.554108569
 30
0.0
 10
525917.5652962205
 20
1918744.89960207
 30
0.0
 10
525914.8869551648
 20
1918741.094219198
 30
0.0
 10
525912.1910608655
 20
1918737.432678419
 30
0.0
 10
525909.2628266994
 20
1918733.878635681
 30
0.0
 10
525907.2850708197
 20
1918731.478203024
 30
0.0
 10
525904.9584296248
 20
1918729.378268044
 30
0.0
 10
525903.0915984751
 20
1918726.895170327
 30
0.0
 10
525901.860167527
 20
1918725.257227133
 30
0.0
 10
525900.8351324992
 20
1918723.479123859
 30
0.0
 10
525899.6757861723
 20
1918721.784033062
 30
0.0
 10
525898.5005196912
 20
1918720.065665263
 30
0.0
 10
525897.4248843571
 20
1918718.416667135
 30
0.0
 10
525895.9342601625
 20
1918716.800308192
 30
0.0
 10
525895.3977086799
 20
1918716.218498377
 30
0.0
 10
525894.4542481708
 20
1918716.063079896
 30
0.0
 10
525893.7701900507
 20
1918716.209849613
 30
0.0
 10
525892.4902053889
 20
1918716.484479766
 30
0.0
 10
525891.1719398933
 20
1918717.154626956
 30
0.0
 10
525890.1168862497
 20
1918718.276518495
 30
0.0
 10
525888.6737912038
 20
1918719.811033949
 30
0.0
 10
525887.8640425983
 20
1918721.377480988
 30
0.0
 10
525886.9846663444
 20
1918723.087911451
 30
0.0
 10
525885.8134795568
 20
1918725.365927886
 30
0.0
 10
525885.8652214241
 20
1918728.327045647
 30
0.0
 10
525884.106493891
 20
1918730.171757096
 30
0.0
 10
525882.4087527677
 20
1918731.952500518
 30
0.0
 10
525880.7110116442
 20
1918733.733243941
 30
0.0
 10
525879.013270521
 20
1918735.513987364
 30
0.0
  0
SPLINE
  5
3F5D
330
3FD8
100
AcDbEntity
  8
Contours2
370
    13
100
AcDbSpline
210
0.0
220
0.0
230
1.0
 70
     8
 71
     3
 72
    38
 73
    34
 74
     0
 42
0.0000000001
 43
0.00000001
 40
0.0
 40
0.0
 40
0.0
 40
0.0
 40
0.1104304877733001
 40
0.1104304877733001
 40
0.1104304877733001
 40
0.1916938633228449
 40
0.1916938633228449
 40
0.1916938633228449
 40
0.3259129453619477
 40
0.3259129453619477
 40
0.3259129453619477
 40
0.424838509611605
 40
0.424838509611605
 40
0.424838509611605
 40
0.5635211310813165
 40
0.5635211310813165
 40
0.5635211310813165
 40
0.6687818160972173
 40
0.6687818160972173
 40
0.6687818160972173
 40
0.7126341346763165
 40
0.7126341346763165
 40
0.7126341346763165
 40
0.7592827542514763
 40
0.7592827542514763
 40
0.7592827542514763
 40
0.841981058352718
 40
0.841981058352718
 40
0.841981058352718
 40
0.9728713987274383
 40
0.9728713987274383
 40
0.9728713987274383
 40
1.0
 40
1.0
 40
1.0
 40
1.0
 10
525929.7619750962
 20
1918758.579770802
 30
0.0
 10
525927.4103489623
 20
1918756.272878274
 30
0.0
 10
525925.0587228282
 20
1918753.965985747
 30
0.0
 10
525922.7070966945
 20
1918751.659093218
 30
0.0
 10
525920.9765865654
 20
1918749.961501569
 30
0.0
 10
525920.8329248483
 20
1918747.148895675
 30
0.0
 10
525919.4640257416
 20
1918745.149804838
 30
0.0
 10
525917.2030763255
 20
1918741.847995932
 30
0.0
 10
525914.932034982
 20
1918738.548357145
 30
0.0
 10
525912.6131468802
 20
1918735.283548338
 30
0.0
 10
525910.9040209465
 20
1918732.87723585
 30
0.0
 10
525909.1582081823
 20
1918730.497183438
 30
0.0
 10
525907.450611317
 20
1918728.091539545
 30
0.0
 10
525905.056750726
 20
1918724.719094779
 30
0.0
 10
525903.2312578171
 20
1918720.994819807
 30
0.0
 10
525900.9095986449
 20
1918717.544106007
 30
0.0
 10
525899.147449702
 20
1918714.924999918
 30
0.0
 10
525896.9925984317
 20
1918712.806331354
 30
0.0
 10
525894.561082991
 20
1918710.584729637
 30
0.0
 10
525893.548097091
 20
1918709.659195224
 30
0.0
 10
525892.3683017575
 20
1918708.996245356
 30
0.0
 10
525891.18957759
 20
1918708.576202743
 30
0.0
 10
525889.9356905195
 20
1918708.129375559
 30
0.0
 10
525888.2389483589
 20
1918708.362474192
 30
0.0
 10
525887.0856114089
 20
1918709.341365172
 30
0.0
 10
525885.0409847793
 20
1918711.076735365
 30
0.0
 10
525883.6512036262
 20
1918712.951879347
 30
0.0
 10
525882.4880779712
 20
1918715.140959957
 30
0.0
 10
525880.6471464729
 20
1918718.605716692
 30
0.0
 10
525878.778429019
 20
1918722.019673644
 30
0.0
 10
525877.1653854501
 20
1918725.575462582
 30
0.0
 10
525876.8310627209
 20
1918726.312442714
 30
0.0
 10
525876.4967399918
 20
1918727.049422846
 30
0.0
 10
525876.1624172626
 20
1918727.786402978
 30
0.0
  0
SPLINE
  5
3F5E
330
3FD8
100
AcDbEntity
  8
Contours2
370
    13
100
AcDbSpline
210
0.0
220
0.0
230
1.0
 70
     8
 71
     3
 72
    35
 73
    31
 74
     0
 42
0.0000000001
 43
0.00000001
 40
0.0
 40
0.0
 40
0.0
 40
0.0
 40
0.1743132214004057
 40
0.1743132214004057
 40
0.1743132214004057
 40
0.2510326387460306
 40
0.2510326387460306
 40
0.2510326387460306
 40
0.4374041152991207
 40
0.4374041152991207
 40
0.4374041152991207
 40
0.5708958220984763
 40
0.5708958220984763
 40
0.5708958220984763
 40
0.6345758094523215
 40
0.6345758094523215
 40
0.6345758094523215
 40
0.6815110484490022
 40
0.6815110484490022
 40
0.6815110484490022
 40
0.7347367696011159
 40
0.7347367696011159
 40
0.7347367696011159
 40
0.7823137041869137
 40
0.7823137041869137
 40
0.7823137041869137
 40
0.8131880446903868
 40
0.8131880446903868
 40
0.8131880446903868
 40
1.0
 40
1.0
 40
1.0
 40
1.0
 10
525929.7279126714
 20
1918755.127955472
 30
0.0
 10
525926.3282839897
 20
1918750.846670719
 30
0.0
 10
525922.928655307
 20
1918746.565385967
 30
0.0
 10
525919.5290266258
 20
1918742.284101214
 30
0.0
 10
525918.0327687429
 20
1918740.399805409
 30
0.0
 10
525916.9654260755
 20
1918738.21167207
 30
0.0
 10
525915.7178288439
 20
1918736.153930217
 30
0.0
 10
525912.68708974
 20
1918731.155138506
 30
0.0
 10
525909.8682559679
 20
1918726.033208372
 30
0.0
 10
525906.73210739
 20
1918721.09604515
 30
0.0
 10
525904.4857881882
 20
1918717.559718897
 30
0.0
 10
525901.961745557
 20
1918714.218613993
 30
0.0
 10
525899.5403700684
 20
1918710.798983519
 30
0.0
 10
525898.3852933659
 20
1918709.167705962
 30
0.0
 10
525897.1966370415
 20
1918707.579326887
 30
0.0
 10
525895.9703501734
 20
1918705.987248352
 30
0.0
 10
525895.0665172798
 20
1918704.813809261
 30
0.0
 10
525893.9748473198
 20
1918703.829434557
 30
0.0
 10
525892.532928945
 20
1918703.215012076
 30
0.0
 10
525890.8977578671
 20
1918702.518241795
 30
0.0
 10
525889.2374833846
 20
1918702.55750417
 30
0.0
 10
525887.581051048
 20
1918702.468265441
 30
0.0
 10
525886.1004140324
 20
1918702.388497519
 30
0.0
 10
525884.5920220969
 20
1918702.176420514
 30
0.0
 10
525883.117100896
 20
1918702.801717232
 30
0.0
 10
525882.1599728303
 20
1918703.20749419
 30
0.0
 10
525881.4940286767
 20
1918704.000092101
 30
0.0
 10
525881.0854736982
 20
1918704.877974605
 30
0.0
 10
525878.6134223728
 20
1918710.189794855
 30
0.0
 10
525876.1413710475
 20
1918715.501615105
 30
0.0
 10
525873.6693197222
 20
1918720.813435355
 30
0.0
  0
SPLINE
  5
3F5F
330
3FD8
100
AcDbEntity
  8
Contours2
370
    13
100
AcDbSpline
210
0.0
220
0.0
230
1.0
 70
     8
 71
     3
 72
    44
 73
    40
 74
     0
 42
0.0000000001
 43
0.00000001
 40
0.0
 40
0.0
 40
0.0
 40
0.0
 40
0.1250383666909777
 40
0.1250383666909777
 40
0.1250383666909777
 40
0.250522646403148
 40
0.250522646403148
 40
0.250522646403148
 40
0.3739853543657051
 40
0.3739853543657051
 40
0.3739853543657051
 40
0.5608650858409452
 40
0.5608650858409452
 40
0.5608650858409452
 40
0.6177809217832131
 40
0.6177809217832131
 40
0.6177809217832131
 40
0.6708785201452088
 40
0.6708785201452088
 40
0.6708785201452088
 40
0.7226514312365122
 40
0.7226514312365122
 40
0.7226514312365122
 40
0.7652007679431251
 40
0.7652007679431251
 40
0.7652007679431251
 40
0.8071026868324794
 40
0.8071026868324794
 40
0.8071026868324794
 40
0.8523660917429855
 40
0.8523660917429855
 40
0.8523660917429855
 40
0.8926685516361601
 40
0.8926685516361601
 40
0.8926685516361601
 40
0.9459249385966941
 40
0.9459249385966941
 40
0.9459249385966941
 40
1.0
 40
1.0
 40
1.0
 40
1.0
 10
525929.7257878303
 20
1918752.154093048
 30
0.0
 10
525927.2458328266
 20
1918749.061928985
 30
0.0
 10
525924.7658778228
 20
1918745.969764922
 30
0.0
 10
525922.2859228194
 20
1918742.877600858
 30
0.0
 10
525919.797123777
 20
1918739.774409489
 30
0.0
 10
525918.416814805
 20
1918735.923794029
 30
0.0
 10
525916.3605174865
 20
1918732.518796499
 30
0.0
 10
525914.3373474455
 20
1918729.168654023
 30
0.0
 10
525912.3110206215
 20
1918725.820229943
 30
0.0
 10
525910.2821996074
 20
1918722.473021021
 30
0.0
 10
525907.2112680478
 20
1918717.406507294
 30
0.0
 10
525904.1147430838
 20
1918712.360561714
 30
0.0
 10
525900.9973582745
 20
1918707.31857349
 30
0.0
 10
525900.0479318119
 20
1918705.782992439
 30
0.0
 10
525898.8025982672
 20
1918704.478460148
 30
0.0
 10
525897.500485594
 20
1918703.186952106
 30
0.0
 10
525896.2857260355
 20
1918701.98208576
 30
0.0
 10
525894.9679786161
 20
1918700.985343448
 30
0.0
 10
525893.4797449507
 20
1918700.131971319
 30
0.0
 10
525892.0286399737
 20
1918699.299889252
 30
0.0
 10
525890.5565584569
 20
1918698.730988815
 30
0.0
 10
525888.9594972623
 20
1918698.180004234
 30
0.0
 10
525887.6469596227
 20
1918697.727180006
 30
0.0
 10
525886.3289004935
 20
1918697.418871384
 30
0.0
 10
525885.010172559
 20
1918697.298436649
 30
0.0
 10
525883.7115099893
 20
1918697.179834412
 30
0.0
 10
525882.3953977408
 20
1918697.486901703
 30
0.0
 10
525881.0954057219
 20
1918698.043033837
 30
0.0
 10
525879.6911248037
 20
1918698.643780405
 30
0.0
 10
525878.5850494705
 20
1918699.389417092
 30
0.0
 10
525877.5597571977
 20
1918700.498447635
 30
0.0
 10
525876.646838676
 20
1918701.485926573
 30
0.0
 10
525875.9662736757
 20
1918702.516836121
 30
0.0
 10
525875.4525552089
 20
1918703.70006421
 30
0.0
 10
525874.7737184946
 20
1918705.263602841
 30
0.0
 10
525874.747777196
 20
1918707.054493565
 30
0.0
 10
525873.9262586143
 20
1918708.529393459
 30
0.0
 10
525873.0921113828
 20
1918710.026965992
 30
0.0
 10
525872.257964151
 20
1918711.524538524
 30
0.0
 10
525871.4238169193
 20
1918713.022111057
 30
0.0
  0
SPLINE
  5
3F60
330
3FD8
100
AcDbEntity
  8
Contours2
370
    13
100
AcDbSpline
210
0.0
220
0.0
230
1.0
 70
     8
 71
     3
 72
    38
 73
    34
 74
     0
 42
0.0000000001
 43
0.00000001
 40
0.0
 40
0.0
 40
0.0
 40
0.0
 40
0.1069590377449331
 40
0.1069590377449331
 40
0.1069590377449331
 40
0.1950887272552323
 40
0.1950887272552323
 40
0.1950887272552323
 40
0.3114500269975182
 40
0.3114500269975182
 40
0.3114500269975182
 40
0.4506329032437649
 40
0.4506329032437649
 40
0.4506329032437649
 40
0.5828630019877779
 40
0.5828630019877779
 40
0.5828630019877779
 40
0.6801998358860079
 40
0.6801998358860079
 40
0.6801998358860079
 40
0.7681239202671075
 40
0.7681239202671075
 40
0.7681239202671075
 40
0.85344539855121
 40
0.85344539855121
 40
0.85344539855121
 40
0.9093601327539114
 40
0.9093601327539114
 40
0.9093601327539114
 40
0.9678507740656221
 40
0.9678507740656221
 40
0.9678507740656221
 40
1.0
 40
1.0
 40
1.0
 40
1.0
 10
525930.1012075623
 20
1918747.948811413
 30
0.0
 10
525927.8585078694
 20
1918745.694754363
 30
0.0
 10
525925.6158081766
 20
1918743.440697312
 30
0.0
 10
525923.3731084837
 20
1918741.186640262
 30
0.0
 10
525921.5252194996
 20
1918739.3293933
 30
0.0
 10
525921.321187989
 20
1918736.343724574
 30
0.0
 10
525919.9856882778
 20
1918734.094255322
 30
0.0
 10
525918.2223723843
 20
1918731.124187375
 30
0.0
 10
525916.2837743009
 20
1918728.244122789
 30
0.0
 10
525914.5726512986
 20
1918725.240205363
 30
0.0
 10
525912.5259311125
 20
1918721.64713904
 30
0.0
 10
525910.6393784715
 20
1918717.962768395
 30
0.0
 10
525908.6107746804
 20
1918714.352707781
 30
0.0
 10
525906.6835082892
 20
1918710.922985071
 30
0.0
 10
525904.5680599663
 20
1918707.637722194
 30
0.0
 10
525902.3771245788
 20
1918704.342032467
 30
0.0
 10
525900.7643396235
 20
1918701.916018976
 30
0.0
 10
525898.8016365087
 20
1918699.903486603
 30
0.0
 10
525896.4121732011
 20
1918698.035046019
 30
0.0
 10
525894.253777812
 20
1918696.347288971
 30
0.0
 10
525891.8430785011
 20
1918695.498446045
 30
0.0
 10
525889.3149580662
 20
1918694.700654615
 30
0.0
 10
525886.8616715259
 20
1918693.926478294
 30
0.0
 10
525884.1439044151
 20
1918693.324274623
 30
0.0
 10
525881.7375275411
 20
1918694.00434276
 30
0.0
 10
525880.1605281031
 20
1918694.450019861
 30
0.0
 10
525878.7119720788
 20
1918695.293407129
 30
0.0
 10
525877.2719560886
 20
1918696.223834387
 30
0.0
 10
525875.765600743
 20
1918697.197125019
 30
0.0
 10
525874.0758696575
 20
1918697.939529953
 30
0.0
 10
525873.135589431
 20
1918699.402188081
 30
0.0
 10
525872.6187668974
 20
1918700.206134243
 30
0.0
 10
525872.1019443644
 20
1918701.010080407
 30
0.0
 10
525871.5851218314
 20
1918701.81402657
 30
0.0
  0
SPLINE
  5
3F61
330
3FD8
100
AcDbEntity
  8
Contours2
370
    13
100
AcDbSpline
210
0.0
220
0.0
230
1.0
 70
     8
 71
     3
 72
    68
 73
    64
 74
     0
 42
0.0000000001
 43
0.00000001
 40
0.0
 40
0.0
 40
0.0
 40
0.0
 40
0.0675753274211752
 40
0.0675753274211752
 40
0.0675753274211752
 40
0.1014417822327428
 40
0.1014417822327428
 40
0.1014417822327428
 40
0.1563839514052443
 40
0.1563839514052443
 40
0.1563839514052443
 40
0.2577893645611315
 40
0.2577893645611315
 40
0.2577893645611315
 40
0.3360097344594407
 40
0.3360097344594407
 40
0.3360097344594407
 40
0.3928072986281162
 40
0.3928072986281162
 40
0.3928072986281162
 40
0.4794076051451676
 40
0.4794076051451676
 40
0.4794076051451676
 40
0.5250444951873451
 40
0.5250444951873451
 40
0.5250444951873451
 40
0.5512140213317042
 40
0.5512140213317042
 40
0.5512140213317042
 40
0.5858130068300577
 40
0.5858130068300577
 40
0.5858130068300577
 40
0.6294572050431625
 40
0.6294572050431625
 40
0.6294572050431625
 40
0.6591708516828607
 40
0.6591708516828607
 40
0.6591708516828607
 40
0.69362231704443
 40
0.69362231704443
 40
0.69362231704443
 40
0.7221251072195369
 40
0.7221251072195369
 40
0.7221251072195369
 40
0.7503249423446363
 40
0.7503249423446363
 40
0.7503249423446363
 40
0.7727738784231278
 40
0.7727738784231278
 40
0.7727738784231278
 40
0.8096076608114234
 40
0.8096076608114234
 40
0.8096076608114234
 40
0.8428375963085067
 40
0.8428375963085067
 40
0.8428375963085067
 40
0.9401314126173183
 40
0.9401314126173183
 40
0.9401314126173183
 40
0.9710110091911792
 40
0.9710110091911792
 40
0.9710110091911792
 40
1.0
 40
1.0
 40
1.0
 40
1.0
 10
525885.6893348587
 20
1918687.22193931
 30
0.0
 10
525888.3589927426
 20
1918689.101411276
 30
0.0
 10
525891.0286506265
 20
1918690.980883242
 30
0.0
 10
525893.6983085105
 20
1918692.860355208
 30
0.0
 10
525895.0362502052
 20
1918693.802282607
 30
0.0
 10
525896.8808099098
 20
1918693.805639743
 30
0.0
 10
525898.1862374554
 20
1918694.848905087
 30
0.0
 10
525900.3040564432
 20
1918696.54141354
 30
0.0
 10
525901.9078187586
 20
1918698.663935747
 30
0.0
 10
525903.3641616422
 20
1918700.899304674
 30
0.0
 10
525906.0520979583
 20
1918705.025070239
 30
0.0
 10
525908.7451338923
 20
1918709.094751352
 30
0.0
 10
525911.1214942073
 20
1918713.383660496
 30
0.0
 10
525912.9545303054
 20
1918716.691965735
 30
0.0
 10
525914.6463421212
 20
1918720.072789202
 30
0.0
 10
525916.4906202001
 20
1918723.369333375
 30
0.0
 10
525917.8297918591
 20
1918725.763028003
 30
0.0
 10
525919.28585192
 20
1918728.095879992
 30
0.0
 10
525920.6595944292
 20
1918730.468169442
 30
0.0
 10
525922.7541652812
 20
1918734.085243458
 30
0.0
 10
525923.8420205016
 20
1918738.139608828
 30
0.0
 10
525926.1491412672
 20
1918741.756358689
 30
0.0
 10
525927.3649547085
 20
1918743.66232441
 30
0.0
 10
525929.3446513931
 20
1918744.623107139
 30
0.0
 10
525931.4115625201
 20
1918745.764178708
 30
0.0
 10
525932.5967897502
 20
1918746.418502485
 30
0.0
 10
525933.7870571058
 20
1918746.990245899
 30
0.0
 10
525934.9899295248
 20
1918747.022385826
 30
0.0
 10
525936.5802588702
 20
1918747.064878336
 30
0.0
 10
525938.2846892891
 20
1918746.511700416
 30
0.0
 10
525939.7966635254
 20
1918745.592419629
 30
0.0
 10
525941.7039131837
 20
1918744.432811267
 30
0.0
 10
525943.3045977493
 20
1918743.259882982
 30
0.0
 10
525945.024181479
 20
1918742.029966196
 30
0.0
 10
525946.1949007362
 20
1918741.192619784
 30
0.0
 10
525947.3498280083
 20
1918740.342276296
 30
0.0
 10
525948.4890504415
 20
1918739.471954351
 30
0.0
 10
525949.8099210393
 20
1918738.462860223
 30
0.0
 10
525950.6348768685
 20
1918736.875117142
 30
0.0
 10
525951.8399595433
 20
1918735.769671269
 30
0.0
 10
525952.8369626683
 20
1918734.855100831
 30
0.0
 10
525954.9686264843
 20
1918735.326058332
 30
0.0
 10
525955.6212502833
 20
1918734.10545061
 30
0.0
 10
525956.2669373695
 20
1918732.897816681
 30
0.0
 10
525956.8183275921
 20
1918731.658115656
 30
0.0
 10
525957.3911313389
 20
1918730.421103506
 30
0.0
 10
525957.8471210509
 20
1918729.436359922
 30
0.0
 10
525958.2150486254
 20
1918728.426593851
 30
0.0
 10
525958.7264312926
 20
1918727.453867463
 30
0.0
 10
525959.5654981335
 20
1918725.85783672
 30
0.0
 10
525961.3783361722
 20
1918725.106606381
 30
0.0
 10
525962.9702808127
 20
1918724.214570716
 30
0.0
 10
525964.4064683092
 20
1918723.409812539
 30
0.0
 10
525965.8286251103
 20
1918722.720663097
 30
0.0
 10
525967.3758010682
 20
1918722.267784007
 30
0.0
 10
525971.9057723483
 20
1918720.941800843
 30
0.0
 10
525976.8744986906
 20
1918721.708988951
 30
0.0
 10
525981.3702040471
 20
1918720.527554152
 30
0.0
 10
525982.7970734307
 20
1918720.152584484
 30
0.0
 10
525984.0120828863
 20
1918718.930990729
 30
0.0
 10
525985.49801088
 20
1918718.797178223
 30
0.0
 10
525986.8929628136
 20
1918718.671558397
 30
0.0
 10
525988.2879147474
 20
1918718.545938572
 30
0.0
 10
525989.682866681
 20
1918718.420318747
 30
0.0
  0
SPLINE
  5
3F62
330
3FD8
100
AcDbEntity
  8
Contours2
370
    13
100
AcDbSpline
210
0.0
220
0.0
230
1.0
 70
     8
 71
     3
 72
    71
 73
    67
 74
     0
 42
0.0000000001
 43
0.00000001
 40
0.0
 40
0.0
 40
0.0
 40
0.0
 40
0.0585150395893991
 40
0.0585150395893991
 40
0.0585150395893991
 40
0.084118090653357
 40
0.084118090653357
 40
0.084118090653357
 40
0.1351987120855063
 40
0.1351987120855063
 40
0.1351987120855063
 40
0.2951033768836171
 40
0.2951033768836171
 40
0.2951033768836171
 40
0.3440573989649155
 40
0.3440573989649155
 40
0.3440573989649155
 40
0.3923844952660338
 40
0.3923844952660338
 40
0.3923844952660338
 40
0.426962534012826
 40
0.426962534012826
 40
0.426962534012826
 40
0.4801331345166451
 40
0.4801331345166451
 40
0.4801331345166451
 40
0.5193487173738788
 40
0.5193487173738788
 40
0.5193487173738788
 40
0.5594390392629813
 40
0.5594390392629813
 40
0.5594390392629813
 40
0.5845067170319276
 40
0.5845067170319276
 40
0.5845067170319276
 40
0.6261834622897784
 40
0.6261834622897784
 40
0.6261834622897784
 40
0.6499416912290075
 40
0.6499416912290075
 40
0.6499416912290075
 40
0.6887707859563911
 40
0.6887707859563911
 40
0.6887707859563911
 40
0.706449816334488
 40
0.706449816334488
 40
0.706449816334488
 40
0.7436904926284741
 40
0.7436904926284741
 40
0.7436904926284741
 40
0.7704953717720605
 40
0.7704953717720605
 40
0.7704953717720605
 40
0.8011072441893089
 40
0.8011072441893089
 40
0.8011072441893089
 40
0.8388279857223024
 40
0.8388279857223024
 40
0.8388279857223024
 40
0.881574295282814
 40
0.881574295282814
 40
0.881574295282814
 40
0.9467506206988662
 40
0.9467506206988662
 40
0.9467506206988662
 40
1.0
 40
1.0
 40
1.0
 40
1.0
 10
525889.897607935
 20
1918685.216225142
 30
0.0
 10
525891.8767662443
 20
1918687.132637171
 30
0.0
 10
525893.8559245536
 20
1918689.049049199
 30
0.0
 10
525895.835082863
 20
1918690.965461228
 30
0.0
 10
525896.7010566641
 20
1918691.803980614
 30
0.0
 10
525898.5175008675
 20
1918690.80121579
 30
0.0
 10
525899.3845885935
 20
1918691.657008425
 30
0.0
 10
525901.1145144438
 20
1918693.36439945
 30
0.0
 10
525902.5898968504
 20
1918695.248221077
 30
0.0
 10
525903.9289110735
 20
1918697.260756711
 30
0.0
 10
525908.1206106752
 20
1918703.560872626
 30
0.0
 10
525912.338653286
 20
1918709.755803861
 30
0.0
 10
525916.1269488783
 20
1918716.268832491
 30
0.0
 10
525917.2867168333
 20
1918718.262763986
 30
0.0
 10
525918.1556253159
 20
1918720.416724577
 30
0.0
 10
525919.3058379561
 20
1918722.409157754
 30
0.0
 10
525920.44132049
 20
1918724.376074994
 30
0.0
 10
525921.9916346362
 20
1918726.075501409
 30
0.0
 10
525923.1657866534
 20
1918728.038815339
 30
0.0
 10
525924.0058924543
 20
1918729.44356651
 30
0.0
 10
525924.6288153456
 20
1918730.9567321
 30
0.0
 10
525925.2643127276
 20
1918732.448876279
 30
0.0
 10
525926.2415161388
 20
1918734.743344239
 30
0.0
 10
525925.9530007743
 20
1918737.38453811
 30
0.0
 10
525927.1041276862
 20
1918739.729988793
 30
0.0
 10
525927.9531328201
 20
1918741.459858585
 30
0.0
 10
525929.526542193
 20
1918742.499736054
 30
0.0
 10
525931.2423127285
 20
1918743.411702934
 30
0.0
 10
525932.996355077
 20
1918744.34401206
 30
0.0
 10
525935.2509818357
 20
1918744.928210812
 30
0.0
 10
525936.8711474384
 20
1918744.027942491
 30
0.0
 10
525937.8842046389
 20
1918743.465022686
 30
0.0
 10
525938.8458449934
 20
1918742.748433476
 30
0.0
 10
525939.7587878985
 20
1918741.979143924
 30
0.0
 10
525941.2766185185
 20
1918740.700146924
 30
0.0
 10
525942.4652176673
 20
1918739.094165683
 30
0.0
 10
525944.1011854195
 20
1918738.004862901
 30
0.0
 10
525945.0337845502
 20
1918737.383895388
 30
0.0
 10
525946.1143677416
 20
1918737.028528029
 30
0.0
 10
525947.0876421471
 20
1918736.474618913
 30
0.0
 10
525948.6783063411
 20
1918735.569341437
 30
0.0
 10
525950.2147892813
 20
1918734.635044942
 30
0.0
 10
525951.7185437961
 20
1918733.536490181
 30
0.0
 10
525952.4032087859
 20
1918733.036314137
 30
0.0
 10
525952.8995174274
 20
1918732.352312304
 30
0.0
 10
525953.3343415989
 20
1918731.632709815
 30
0.0
 10
525954.2502937674
 20
1918730.116875359
 30
0.0
 10
525953.9342776983
 20
1918728.145043897
 30
0.0
 10
525954.8092025619
 20
1918726.583737276
 30
0.0
 10
525955.4389509328
 20
1918725.459949003
 30
0.0
 10
525956.1622650834
 20
1918724.320335407
 30
0.0
 10
525957.3207556863
 20
1918723.750743141
 30
0.0
 10
525958.6437822272
 20
1918723.100253889
 30
0.0
 10
525960.0620455323
 20
1918722.818385232
 30
0.0
 10
525961.3810887246
 20
1918722.264769323
 30
0.0
 10
525963.0064478876
 20
1918721.58258947
 30
0.0
 10
525964.5624683619
 20
1918720.659819552
 30
0.0
 10
525966.2151897235
 20
1918720.024966516
 30
0.0
 10
525968.0881046258
 20
1918719.305531445
 30
0.0
 10
525970.3341927849
 20
1918720.3286901
 30
0.0
 10
525972.2427988988
 20
1918719.677673667
 30
0.0
 10
525975.1528965063
 20
1918718.685053267
 30
0.0
 10
525978.0396911949
 20
1918717.497862826
 30
0.0
 10
525980.5832941796
 20
1918715.78142757
 30
0.0
 10
525982.6614303627
 20
1918714.379091502
 30
0.0
 10
525984.7395665458
 20
1918712.976755433
 30
0.0
 10
525986.8177027289
 20
1918711.574419364
 30
0.0
  0
SPLINE
  5
3F63
330
3FD8
100
AcDbEntity
  8
Contours2
370
    13
100
AcDbSpline
210
0.0
220
0.0
230
1.0
 70
     8
 71
     3
 72
    77
 73
    73
 74
     0
 42
0.0000000001
 43
0.00000001
 40
0.0
 40
0.0
 40
0.0
 40
0.0
 40
0.0585781541164253
 40
0.0585781541164253
 40
0.0585781541164253
 40
0.0969629772814532
 40
0.0969629772814532
 40
0.0969629772814532
 40
0.1233065619083477
 40
0.1233065619083477
 40
0.1233065619083477
 40
0.135584318311766
 40
0.135584318311766
 40
0.135584318311766
 40
0.170564009685186
 40
0.170564009685186
 40
0.170564009685186
 40
0.2054027852157372
 40
0.2054027852157372
 40
0.2054027852157372
 40
0.2370904230070518
 40
0.2370904230070518
 40
0.2370904230070518
 40
0.2612784200535427
 40
0.2612784200535427
 40
0.2612784200535427
 40
0.2995831999972157
 40
0.2995831999972157
 40
0.2995831999972157
 40
0.3388567111814578
 40
0.3388567111814578
 40
0.3388567111814578
 40
0.3669128144682901
 40
0.3669128144682901
 40
0.3669128144682901
 40
0.3820204613912133
 40
0.3820204613912133
 40
0.3820204613912133
 40
0.4085494275475197
 40
0.4085494275475197
 40
0.4085494275475197
 40
0.4314119778567315
 40
0.4314119778567315
 40
0.4314119778567315
 40
0.452152738510389
 40
0.452152738510389
 40
0.452152738510389
 40
0.502107263714766
 40
0.502107263714766
 40
0.502107263714766
 40
0.5329087102034963
 40
0.5329087102034963
 40
0.5329087102034963
 40
0.569359816412315
 40
0.569359816412315
 40
0.569359816412315
 40
0.65365482611446
 40
0.65365482611446
 40
0.65365482611446
 40
0.7488683918430515
 40
0.7488683918430515
 40
0.7488683918430515
 40
0.8558130779115948
 40
0.8558130779115948
 40
0.8558130779115948
 40
0.9063025424488032
 40
0.9063025424488032
 40
0.9063025424488032
 40
0.9609896632218892
 40
0.9609896632218892
 40
0.9609896632218892
 40
1.0
 40
1.0
 40
1.0
 40
1.0
 10
525985.3973007987
 20
1918708.235983417
 30
0.0
 10
525983.5244027696
 20
1918709.831435633
 30
0.0
 10
525981.6515047408
 20
1918711.426887849
 30
0.0
 10
525979.7786067117
 20
1918713.022340065
 30
0.0
 10
525978.5513427131
 20
1918714.067800649
 30
0.0
 10
525976.5282981116
 20
1918713.480990905
 30
0.0
 10
525975.0862433397
 20
1918714.194606575
 30
0.0
 10
525974.096558126
 20
1918714.684362505
 30
0.0
 10
525973.1165305042
 20
1918715.206245404
 30
0.0
 10
525972.1483000252
 20
1918715.739467633
 30
0.0
 10
525971.6970441261
 20
1918715.987982507
 30
0.0
 10
525971.2744255457
 20
1918716.28971685
 30
0.0
 10
525970.8190502058
 20
1918716.530912214
 30
0.0
 10
525969.5216723846
 20
1918717.218084947
 30
0.0
 10
525967.7699321298
 20
1918716.417279025
 30
0.0
 10
525966.43866637
 20
1918717.019273301
 30
0.0
 10
525965.1127636205
 20
1918717.61884244
 30
0.0
 10
525963.9297247169
 20
1918718.537903646
 30
0.0
 10
525962.6036078304
 20
1918719.155246807
 30
0.0
 10
525961.397437093
 20
1918719.716751802
 30
0.0
 10
525960.1609645189
 20
1918720.228456741
 30
0.0
 10
525958.9162982849
 20
1918720.686760368
 30
0.0
 10
525957.966212217
 20
1918721.036595431
 30
0.0
 10
525956.8653890031
 20
1918720.763827598
 30
0.0
 10
525955.9082913298
 20
1918721.177310294
 30
0.0
 10
525954.3926050291
 20
1918721.832112906
 30
0.0
 10
525953.1470802185
 20
1918722.929850215
 30
0.0
 10
525952.2101882135
 20
1918724.278770909
 30
0.0
 10
525951.2496021275
 20
1918725.661805925
 30
0.0
 10
525950.4614384907
 20
1918727.083592412
 30
0.0
 10
525949.6498150487
 20
1918728.51347037
 30
0.0
 10
525949.0700097184
 20
1918729.534942666
 30
0.0
 10
525949.0409594718
 20
1918730.692634046
 30
0.0
 10
525948.0963925018
 20
1918731.6890106
 30
0.0
 10
525947.5877622002
 20
1918732.22553932
 30
0.0
 10
525946.9036863922
 20
1918732.228723089
 30
0.0
 10
525946.2773398553
 20
1918732.25002413
 30
0.0
 10
525945.1774779003
 20
1918732.287428672
 30
0.0
 10
525944.0660511362
 20
1918731.601659015
 30
0.0
 10
525942.972254024
 20
1918731.749893998
 30
0.0
 10
525942.0296243203
 20
1918731.877642276
 30
0.0
 10
525941.1022288632
 20
1918732.203139636
 30
0.0
 10
525940.2015821768
 20
1918732.53857067
 30
0.0
 10
525939.3845212148
 20
1918732.842871576
 30
0.0
 10
525938.7289412043
 20
1918733.835273674
 30
0.0
 10
525937.9308546649
 20
1918733.832237785
 30
0.0
 10
525936.0086477209
 20
1918733.824925786
 30
0.0
 10
525933.9368442402
 20
1918732.679783855
 30
0.0
 10
525931.9708198068
 20
1918731.808060446
 30
0.0
 10
525930.7585893605
 20
1918731.270564757
 30
0.0
 10
525929.4931919354
 20
1918730.965117125
 30
0.0
 10
525928.5303292901
 20
1918730.012062657
 30
0.0
 10
525927.3908565525
 20
1918728.884197133
 30
0.0
 10
525927.188327936
 20
1918727.237551929
 30
0.0
 10
525926.2984885195
 20
1918725.997857342
 30
0.0
 10
525924.2406902782
 20
1918723.131001489
 30
0.0
 10
525921.892350044
 20
1918720.440003862
 30
0.0
 10
525919.9717967704
 20
1918717.46636028
 30
0.0
 10
525917.8024782542
 20
1918714.107546874
 30
0.0
 10
525915.6500267523
 20
1918710.736395828
 30
0.0
 10
525913.5534454472
 20
1918707.330485997
 30
0.0
 10
525911.1985475103
 20
1918703.504939134
 30
0.0
 10
525908.8917373879
 20
1918699.652404956
 30
0.0
 10
525906.5518898501
 20
1918695.816954269
 30
0.0
 10
525905.4472286124
 20
1918694.006206503
 30
0.0
 10
525904.3072184895
 20
1918692.221570269
 30
0.0
 10
525903.0777061571
 20
1918690.487561327
 30
0.0
 10
525901.7459730911
 20
1918688.609388181
 30
0.0
 10
525898.7695168265
 20
1918688.489342753
 30
0.0
 10
525897.3120711074
 20
1918686.714065412
 30
0.0
 10
525896.2724214142
 20
1918685.447694721
 30
0.0
 10
525895.2327717209
 20
1918684.181324029
 30
0.0
 10
525894.1931220277
 20
1918682.914953338
 30
0.0
  0
SPLINE
  5
3F67
330
3FD8
100
AcDbEntity
  8
Contours2
370
    13
100
AcDbSpline
210
0.0
220
0.0
230
1.0
 70
     8
 71
     3
 72
    59
 73
    55
 74
     0
 42
0.0000000001
 43
0.00000001
 40
0.0
 40
0.0
 40
0.0
 40
0.0
 40
0.0334730229212858
 40
0.0334730229212858
 40
0.0334730229212858
 40
0.113215890124819
 40
0.113215890124819
 40
0.113215890124819
 40
0.1825758213151408
 40
0.1825758213151408
 40
0.1825758213151408
 40
0.2439556439043663
 40
0.2439556439043663
 40
0.2439556439043663
 40
0.3347065242293935
 40
0.3347065242293935
 40
0.3347065242293935
 40
0.402692893179013
 40
0.402692893179013
 40
0.402692893179013
 40
0.4594943502228931
 40
0.4594943502228931
 40
0.4594943502228931
 40
0.5088534569377122
 40
0.5088534569377122
 40
0.5088534569377122
 40
0.5607658101477976
 40
0.5607658101477976
 40
0.5607658101477976
 40
0.6134255735584234
 40
0.6134255735584234
 40
0.6134255735584234
 40
0.6411963595257235
 40
0.6411963595257235
 40
0.6411963595257235
 40
0.692910164893911
 40
0.692910164893911
 40
0.692910164893911
 40
0.7451017837829187
 40
0.7451017837829187
 40
0.7451017837829187
 40
0.8124226573596897
 40
0.8124226573596897
 40
0.8124226573596897
 40
0.8610492344474601
 40
0.8610492344474601
 40
0.8610492344474601
 40
0.9091048435085509
 40
0.9091048435085509
 40
0.9091048435085509
 40
0.9761270814790001
 40
0.9761270814790001
 40
0.9761270814790001
 40
1.0
 40
1.0
 40
1.0
 40
1.0
 10
525916.7781380968
 20
1918672.540713527
 30
0.0
 10
525916.7972760291
 20
1918673.647118553
 30
0.0
 10
525916.8164139615
 20
1918674.753523579
 30
0.0
 10
525916.8355518938
 20
1918675.859928605
 30
0.0
 10
525916.8811442386
 20
1918678.495720097
 30
0.0
 10
525918.9508051496
 20
1918680.749423483
 30
0.0
 10
525919.3205743874
 20
1918683.3679205
 30
0.0
 10
525919.6421977476
 20
1918685.645475588
 30
0.0
 10
525919.7851016665
 20
1918687.934508398
 30
0.0
 10
525919.9045156976
 20
1918690.221912417
 30
0.0
 10
525920.0101907166
 20
1918692.246142409
 30
0.0
 10
525919.5601829251
 20
1918694.28616852
 30
0.0
 10
525919.8458645445
 20
1918696.30901878
 30
0.0
 10
525920.2682486011
 20
1918699.299829672
 30
0.0
 10
525922.095223001
 20
1918701.791998152
 30
0.0
 10
525923.6413960345
 20
1918704.469844273
 30
0.0
 10
525924.7997174739
 20
1918706.475962932
 30
0.0
 10
525925.8853819928
 20
1918708.233275866
 30
0.0
 10
525927.6750817413
 20
1918709.872807106
 30
0.0
 10
525929.1703454971
 20
1918711.242607622
 30
0.0
 10
525931.5656812225
 20
1918711.732881756
 30
0.0
 10
525933.1949425745
 20
1918710.997751537
 30
0.0
 10
525934.6107316954
 20
1918710.35894097
 30
0.0
 10
525936.0301848768
 20
1918709.384591031
 30
0.0
 10
525937.1906672274
 20
1918708.169780847
 30
0.0
 10
525938.4111789768
 20
1918706.892130995
 30
0.0
 10
525939.304299933
 20
1918705.471272523
 30
0.0
 10
525940.4929366196
 20
1918704.219906168
 30
0.0
 10
525941.6986867508
 20
1918702.950523216
 30
0.0
 10
525942.8747169153
 20
1918701.756655602
 30
0.0
 10
525944.4103030991
 20
1918700.765997643
 30
0.0
 10
525945.2201137112
 20
1918700.243561758
 30
0.0
 10
525946.1152039989
 20
1918700.051764957
 30
0.0
 10
525947.0165551715
 20
1918699.875491032
 30
0.0
 10
525948.6950204176
 20
1918699.547239772
 30
0.0
 10
525950.4540211178
 20
1918700.004802133
 30
0.0
 10
525952.1409037893
 20
1918699.662947644
 30
0.0
 10
525953.8433725379
 20
1918699.317934566
 30
0.0
 10
525955.7909043751
 20
1918698.868980944
 30
0.0
 10
525956.8165690256
 20
1918697.442451888
 30
0.0
 10
525958.139552327
 20
1918695.602402006
 30
0.0
 10
525959.2748230541
 20
1918693.732390344
 30
0.0
 10
525960.4777726777
 20
1918691.859214888
 30
0.0
 10
525961.3466758796
 20
1918690.506200498
 30
0.0
 10
525962.1322165571
 20
1918689.117748755
 30
0.0
 10
525963.0533278318
 20
1918687.781990441
 30
0.0
 10
525963.9636235173
 20
1918686.461916458
 30
0.0
 10
525965.6361792614
 20
1918685.905298253
 30
0.0
 10
525966.9922886266
 20
1918685.098919472
 30
0.0
 10
525968.8836283967
 20
1918683.974278422
 30
0.0
 10
525972.6416150336
 20
1918684.654060532
 30
0.0
 10
525973.1047350937
 20
1918682.487342171
 30
0.0
 10
525973.2696956769
 20
1918681.715570107
 30
0.0
 10
525973.4346562591
 20
1918680.943798044
 30
0.0
 10
525973.5996168418
 20
1918680.17202598
 30
0.0
  0
SPLINE
  5
3F68
330
3FD8
100
AcDbEntity
  8
Contours2
370
    13
100
AcDbSpline
210
0.0
220
0.0
230
1.0
 70
     8
 71
     3
 72
    38
 73
    34
 74
     0
 42
0.0000000001
 43
0.00000001
 40
0.0
 40
0.0
 40
0.0
 40
0.0
 40
0.0635416711835572
 40
0.0635416711835572
 40
0.0635416711835572
 40
0.2039732183761536
 40
0.2039732183761536
 40
0.2039732183761536
 40
0.3144895829736271
 40
0.3144895829736271
 40
0.3144895829736271
 40
0.4293136393710128
 40
0.4293136393710128
 40
0.4293136393710128
 40
0.5178072599012116
 40
0.5178072599012116
 40
0.5178072599012116
 40
0.5946606513923162
 40
0.5946606513923162
 40
0.5946606513923162
 40
0.6969597133398625
 40
0.6969597133398625
 40
0.6969597133398625
 40
0.7700371492078272
 40
0.7700371492078272
 40
0.7700371492078272
 40
0.8424225239378385
 40
0.8424225239378385
 40
0.8424225239378385
 40
0.9554235756450953
 40
0.9554235756450953
 40
0.9554235756450953
 40
1.0
 40
1.0
 40
1.0
 40
1.0
 10
525971.0266300064
 20
1918675.131609455
 30
0.0
 10
525970.1590476811
 20
1918676.18214036
 30
0.0
 10
525969.291465356
 20
1918677.232671265
 30
0.0
 10
525968.4238830308
 20
1918678.28320217
 30
0.0
 10
525966.5064652799
 20
1918680.604949106
 30
0.0
 10
525963.454763458
 20
1918681.795897808
 30
0.0
 10
525960.6381565779
 20
1918682.86419121
 30
0.0
 10
525958.4215524095
 20
1918683.704913295
 30
0.0
 10
525956.2045707179
 20
1918684.537143687
 30
0.0
 10
525953.9843421038
 20
1918685.36741616
 30
0.0
 10
525951.6775737213
 20
1918686.230050879
 30
0.0
 10
525949.4199309953
 20
1918687.142772552
 30
0.0
 10
525947.058444386
 20
1918687.93411452
 30
0.0
 10
525945.2384729754
 20
1918688.543992955
 30
0.0
 10
525943.2836134147
 20
1918688.321705777
 30
0.0
 10
525941.3903993504
 20
1918688.4608199
 30
0.0
 10
525939.7462139188
 20
1918688.581635301
 30
0.0
 10
525938.0983348467
 20
1918688.679360278
 30
0.0
 10
525936.453401097
 20
1918688.717995849
 30
0.0
 10
525934.2638402164
 20
1918688.769423413
 30
0.0
 10
525932.1631396361
 20
1918688.072770576
 30
0.0
 10
525930.0502100401
 20
1918687.200646107
 30
0.0
 10
525928.5408366977
 20
1918686.577643133
 30
0.0
 10
525926.9846754884
 20
1918685.843270731
 30
0.0
 10
525926.257052441
 20
1918684.424053606
 30
0.0
 10
525925.5363201614
 20
1918683.018276813
 30
0.0
 10
525924.9943486132
 20
1918681.593422747
 30
0.0
 10
525924.4035886182
 20
1918680.152563638
 30
0.0
 10
525923.4813512048
 20
1918677.90323364
 30
0.0
 10
525921.7939892482
 20
1918675.810157948
 30
0.0
 10
525921.7438861489
 20
1918673.387697281
 30
0.0
 10
525921.7241215805
 20
1918672.432089939
 30
0.0
 10
525921.7043570131
 20
1918671.476482596
 30
0.0
 10
525921.684592445
 20
1918670.520875254
 30
0.0
  0
SPLINE
  5
3F69
330
3FD8
100
AcDbEntity
  8
Contours2
370
    13
100
AcDbSpline
210
0.0
220
0.0
230
1.0
 70
     8
 71
     3
 72
    35
 73
    31
 74
     0
 42
0.0000000001
 43
0.00000001
 40
0.0
 40
0.0
 40
0.0
 40
0.0
 40
0.1083407287532369
 40
0.1083407287532369
 40
0.1083407287532369
 40
0.2313479184626702
 40
0.2313479184626702
 40
0.2313479184626702
 40
0.3581015983247678
 40
0.3581015983247678
 40
0.3581015983247678
 40
0.4650889486920352
 40
0.4650889486920352
 40
0.4650889486920352
 40
0.5624162030784773
 40
0.5624162030784773
 40
0.5624162030784773
 40
0.6309354720575997
 40
0.6309354720575997
 40
0.6309354720575997
 40
0.7533913163503589
 40
0.7533913163503589
 40
0.7533913163503589
 40
0.8615762967649014
 40
0.8615762967649014
 40
0.8615762967649014
 40
0.9476985937377866
 40
0.9476985937377866
 40
0.9476985937377866
 40
1.0
 40
1.0
 40
1.0
 40
1.0
 10
525926.3046571632
 20
1918668.372078174
 30
0.0
 10
525927.1845162134
 20
1918670.022716715
 30
0.0
 10
525928.0643752636
 20
1918671.673355258
 30
0.0
 10
525928.9442343138
 20
1918673.323993799
 30
0.0
 10
525929.9432029413
 20
1918675.198085017
 30
0.0
 10
525931.7826381156
 20
1918676.766902446
 30
0.0
 10
525933.8101124524
 20
1918677.436734472
 30
0.0
 10
525935.8993385669
 20
1918678.126967899
 30
0.0
 10
525937.9947504202
 20
1918678.712223012
 30
0.0
 10
525940.1051726416
 20
1918679.300575316
 30
0.0
 10
525941.8864896169
 20
1918679.797178288
 30
0.0
 10
525943.6666437349
 20
1918680.281165917
 30
0.0
 10
525945.4540698503
 20
1918680.748449393
 30
0.0
 10
525947.0801057848
 20
1918681.173540935
 30
0.0
 10
525948.8329594677
 20
1918681.398174193
 30
0.0
 10
525950.4792024888
 20
1918681.148735655
 30
0.0
 10
525951.6381724924
 20
1918680.973128664
 30
0.0
 10
525952.7630405427
 20
1918680.438787652
 30
0.0
 10
525953.7422878573
 20
1918679.75328425
 30
0.0
 10
525955.4923730302
 20
1918678.528170511
 30
0.0
 10
525957.1444075239
 20
1918677.236778235
 30
0.0
 10
525958.8698959959
 20
1918676.020192119
 30
0.0
 10
525960.3942980171
 20
1918674.945385556
 30
0.0
 10
525961.9968529097
 20
1918673.985309503
 30
0.0
 10
525963.4914107056
 20
1918672.851601361
 30
0.0
 10
525964.6811761411
 20
1918671.949095774
 30
0.0
 10
525965.6729417356
 20
1918670.817699442
 30
0.0
 10
525966.6162280974
 20
1918669.66831975
 30
0.0
 10
525967.1890786246
 20
1918668.970310333
 30
0.0
 10
525967.7619291515
 20
1918668.272300916
 30
0.0
 10
525968.3347796787
 20
1918667.574291499
 30
0.0
  0
SPLINE
  5
3F6A
330
3FD8
100
AcDbEntity
  8
Contours2
370
    13
100
AcDbSpline
210
0.0
220
0.0
230
1.0
 70
     8
 71
     3
 72
    26
 73
    22
 74
     0
 42
0.0000000001
 43
0.00000001
 40
0.0
 40
0.0
 40
0.0
 40
0.0
 40
0.229292608197226
 40
0.229292608197226
 40
0.229292608197226
 40
0.4000562908310938
 40
0.4000562908310938
 40
0.4000562908310938
 40
0.6636198004938587
 40
0.6636198004938587
 40
0.6636198004938587
 40
0.7798382952598848
 40
0.7798382952598848
 40
0.7798382952598848
 40
0.8817869384800722
 40
0.8817869384800722
 40
0.8817869384800722
 40
0.9607878848647529
 40
0.9607878848647529
 40
0.9607878848647529
 40
1.0
 40
1.0
 40
1.0
 40
1.0
 10
525964.5723478898
 20
1918658.968958178
 30
0.0
 10
525962.6475055122
 20
1918661.005227513
 30
0.0
 10
525960.7226631348
 20
1918663.041496849
 30
0.0
 10
525958.7978207574
 20
1918665.077766184
 30
0.0
 10
525957.3643110796
 20
1918666.594260123
 30
0.0
 10
525955.9892080261
 20
1918668.069782906
 30
0.0
 10
525954.3893697622
 20
1918669.522751514
 30
0.0
 10
525951.9201152858
 20
1918671.765321479
 30
0.0
 10
525947.9513690377
 20
1918672.217995585
 30
0.0
 10
525944.9320546342
 20
1918671.503522611
 30
0.0
 10
525943.6006860557
 20
1918671.188475305
 30
0.0
 10
525942.2754548736
 20
1918670.612205309
 30
0.0
 10
525941.0112539935
 20
1918669.835939884
 30
0.0
 10
525939.9022776232
 20
1918669.154987967
 30
0.0
 10
525938.8661726849
 20
1918668.539485958
 30
0.0
 10
525937.9990587642
 20
1918667.623265616
 30
0.0
 10
525937.3271241685
 20
1918666.913278
 30
0.0
 10
525936.7051578459
 20
1918666.185186903
 30
0.0
 10
525936.1393676453
 20
1918665.402936059
 30
0.0
 10
525935.8585377123
 20
1918665.014665899
 30
0.0
 10
525935.577707779
 20
1918664.626395738
 30
0.0
 10
525935.296877846
 20
1918664.238125578
 30
0.0
  0
HATCH
  5
1FC
330
3FD8
100
AcDbEntity
  8
Excavated STPs
 62
    92
100
AcDbHatch
 10
0.0
 20
0.0
 30
0.0
210
0.0
220
0.0
230
1.0
  2
SOLID
 70
     1
 71
     0
 91
        1
 92
        1
 93
        1
 72
     2
 10
525884.005472775
 20
1918722.103816204
 40
0.25
 50
0.0
 51
360.0
 73
     1
 97
        0
 75
     0
 76
     1
 98
        0
  0
HATCH
  5
1FD
330
3FD8
100
AcDbEntity
  8
Excavated STPs
 62
    92
100
AcDbHatch
 10
0.0
 20
0.0
 30
0.0
210
0.0
220
0.0
230
1.0
  2
SOLID
 70
     1
 71
     0
 91
        1
 92
        1
 93
        1
 72
     2
 10
525890.1679102597
 20
1918722.114955991
 40
0.25
 50
0.0
 51
360.0
 73
     1
 97
        0
 75
     0
 76
     1
 98
        0
  0
HATCH
  5
1FE
330
3FD8
100
AcDbEntity
  8
Excavated STPs
 62
    92
100
AcDbHatch
 10
0.0
 20
0.0
 30
0.0
210
0.0
220
0.0
230
1.0
  2
SOLID
 70
     1
 71
     0
 91
        1
 92
        1
 93
        1
 72
     2
 10
525890.0455383367
 20
1918728.088309585
 40
0.25
 50
0.0
 51
360.0
 73
     1
 97
        0
 75
     0
 76
     1
 98
        0
  0
HATCH
  5
1FF
330
3FD8
100
AcDbEntity
  8
Excavated STPs
 62
    92
100
AcDbHatch
 10
0.0
 20
0.0
 30
0.0
210
0.0
220
0.0
230
1.0
  2
SOLID
 70
     1
 71
     0
 91
        1
 92
        1
 93
        1
 72
     2
 10
525884.1166969367
 20
1918728.032645266
 40
0.25
 50
0.0
 51
360.0
 73
     1
 97
        0
 75
     0
 76
     1
 98
        0
  0
HATCH
  5
200
330
3FD8
100
AcDbEntity
  8
Excavated STPs
 62
    92
100
AcDbHatch
 10
0.0
 20
0.0
 30
0.0
210
0.0
220
0.0
230
1.0
  2
SOLID
 70
     1
 71
     0
 91
        1
 92
        1
 93
        1
 72
     2
 10
525884.4059686818
 20
1918733.855876391
 40
0.25
 50
0.0
 51
360.0
 73
     1
 97
        0
 75
     0
 76
     1
 98
        0
  0
HATCH
  5
201
330
3FD8
100
AcDbEntity
  8
Excavated STPs
 62
    92
100
AcDbHatch
 10
0.0
 20
0.0
 30
0.0
210
0.0
220
0.0
230
1.0
  2
SOLID
 70
     1
 71
     0
 91
        1
 92
        1
 93
        1
 72
     2
 10
525890.1457372562
 20
1918734.211831031
 40
0.25
 50
0.0
 51
360.0
 73
     1
 97
        0
 75
     0
 76
     1
 98
        0
  0
HATCH
  5
202
330
3FD8
100
AcDbEntity
  8
Excavated STPs
 62
    92
100
AcDbHatch
 10
0.0
 20
0.0
 30
0.0
210
0.0
220
0.0
230
1.0
  2
SOLID
 70
     1
 71
     0
 91
        1
 92
        1
 93
        1
 72
     2
 10
525896.0189888207
 20
1918734.033853711
 40
0.25
 50
0.0
 51
360.0
 73
     1
 97
        0
 75
     0
 76
     1
 98
        0
  0
HATCH
  5
203
330
3FD8
100
AcDbEntity
  8
Excavated STPs
 62
    92
100
AcDbHatch
 10
0.0
 20
0.0
 30
0.0
210
0.0
220
0.0
230
1.0
  2
SOLID
 70
     1
 71
     0
 91
        1
 92
        1
 93
        1
 72
     2
 10
525896.0189888207
 20
1918740.129576926
 40
0.25
 50
0.0
 51
360.0
 73
     1
 97
        0
 75
     0
 76
     1
 98
        0
  0
HATCH
  5
204
330
3FD8
100
AcDbEntity
  8
Excavated STPs
 62
    92
100
AcDbHatch
 10
0.0
 20
0.0
 30
0.0
210
0.0
220
0.0
230
1.0
  2
SOLID
 70
     1
 71
     0
 91
        1
 92
        1
 93
        1
 72
     2
 10
525889.9232656061
 20
1918739.818116615
 40
0.25
 50
0.0
 51
360.0
 73
     1
 97
        0
 75
     0
 76
     1
 98
        0
  0
HATCH
  5
205
330
3FD8
100
AcDbEntity
  8
Excavated STPs
 62
    92
100
AcDbHatch
 10
0.0
 20
0.0
 30
0.0
210
0.0
220
0.0
230
1.0
  2
SOLID
 70
     1
 71
     0
 91
        1
 92
        1
 93
        1
 72
     2
 10
525890.0122542661
 20
1918746.04732282
 40
0.25
 50
0.0
 51
360.0
 73
     1
 97
        0
 75
     0
 76
     1
 98
        0
  0
HATCH
  5
206
330
3FD8
100
AcDbEntity
  8
Excavated STPs
 62
    92
100
AcDbHatch
 10
0.0
 20
0.0
 30
0.0
210
0.0
220
0.0
230
1.0
  2
SOLID
 70
     1
 71
     0
 91
        1
 92
        1
 93
        1
 72
     2
 10
525896.1079774807
 20
1918745.8693455
 40
0.25
 50
0.0
 51
360.0
 73
     1
 97
        0
 75
     0
 76
     1
 98
        0
  0
HATCH
  5
207
330
3FD8
100
AcDbEntity
  8
Excavated STPs
 62
    92
100
AcDbHatch
 10
0.0
 20
0.0
 30
0.0
210
0.0
220
0.0
230
1.0
  2
SOLID
 70
     1
 71
     0
 91
        1
 92
        1
 93
        1
 72
     2
 10
525889.9676732591
 20
1918715.880177782
 40
0.25
 50
0.0
 51
360.0
 73
     1
 97
        0
 75
     0
 76
     1
 98
        0
  0
HATCH
  5
208
330
3FD8
100
AcDbEntity
  8
Excavated STPs
 62
    92
100
AcDbHatch
 10
0.0
 20
0.0
 30
0.0
210
0.0
220
0.0
230
1.0
  2
SOLID
 70
     1
 71
     0
 91
        1
 92
        1
 93
        1
 72
     2
 10
525890.0121675892
 20
1918710.051420548
 40
0.25
 50
0.0
 51
360.0
 73
     1
 97
        0
 75
     0
 76
     1
 98
        0
  0
HATCH
  5
209
330
3FD8
100
AcDbEntity
  8
Excavated STPs
 62
    92
100
AcDbHatch
 10
0.0
 20
0.0
 30
0.0
210
0.0
220
0.0
230
1.0
  2
SOLID
 70
     1
 71
     0
 91
        1
 92
        1
 93
        1
 72
     2
 10
525895.9299415607
 20
1918727.938094815
 40
0.25
 50
0.0
 51
360.0
 73
     1
 97
        0
 75
     0
 76
     1
 98
        0
  0
HATCH
  5
20A
330
3FD8
100
AcDbEntity
  8
Excavated STPs
 62
    92
100
AcDbHatch
 10
0.0
 20
0.0
 30
0.0
210
0.0
220
0.0
230
1.0
  2
SOLID
 70
     1
 71
     0
 91
        1
 92
        1
 93
        1
 72
     2
 10
525889.8342342754
 20
1918752.054034929
 40
0.25
 50
0.0
 51
360.0
 73
     1
 97
        0
 75
     0
 76
     1
 98
        0
  0
HATCH
  5
20B
330
3FD8
100
AcDbEntity
  8
Excavated STPs
 62
    92
100
AcDbHatch
 10
0.0
 20
0.0
 30
0.0
210
0.0
220
0.0
230
1.0
  2
SOLID
 70
     1
 71
     0
 91
        1
 92
        1
 93
        1
 72
     2
 10
525896.1079348102
 20
1918752.054034929
 40
0.25
 50
0.0
 51
360.0
 73
     1
 97
        0
 75
     0
 76
     1
 98
        0
  0
HATCH
  5
215
330
3FD8
100
AcDbEntity
  8
Excavated STPs
 62
    92
100
AcDbHatch
 10
0.0
 20
0.0
 30
0.0
210
0.0
220
0.0
230
1.0
  2
SOLID
 70
     1
 71
     0
 91
        1
 92
        1
 93
        1
 72
     2
 10
525902.1146210242
 20
1918770.157740474
 40
0.25
 50
0.0
 51
360.0
 73
     1
 97
        0
 75
     0
 76
     1
 98
        0
  0
HATCH
  5
223
330
3FD8
100
AcDbEntity
  8
Excavated STPs
 62
    92
100
AcDbHatch
 10
0.0
 20
0.0
 30
0.0
210
0.0
220
0.0
230
1.0
  2
SOLID
 70
     1
 71
     0
 91
        1
 92
        1
 93
        1
 72
     2
 10
525920.0569592317
 20
1918800.113470271
 40
0.25
 50
0.0
 51
360.0
 73
     1
 97
        0
 75
     0
 76
     1
 98
        0
  0
SOLID
  5
229
330
3FD8
100
AcDbEntity
  8
Datum
 62
   132
100
AcDbTrace
 10
-525895.310714
 20
1918758.75784
 30
0.0
 11
-525895.810714
 21
1918758.75784
 31
0.0
 12
-525895.310714
 22
1918758.25784
 32
0.0
 13
-525895.810714
 23
1918758.25784
 33
0.0
210
0.0
220
0.0
230
-1.0
  0
MTEXT
  5
250
330
3FD8
100
AcDbEntity
  8
Coordinates
  6
ByBlock
100
AcDbMText
 10
525864.805171
 20
1918709.952688
 30
0.0
 40
1.0
 41
0.0
 71
     1
 72
     1
  1
\fGaramond|b0|i0|c0|p23;710
 73
     2
 44
0.722892
  0
MTEXT
  5
255
330
3FD8
100
AcDbEntity
  8
Coordinates
  6
ByBlock
100
AcDbMText
 10
525864.819477
 20
1918716.004358
 30
0.0
 40
1.0
 41
0.0
 71
     1
 72
     1
  1
\fGaramond|b0|i0|c0|p23;716
 73
     2
 44
0.722892
  0
MTEXT
  5
256
330
3FD8
100
AcDbEntity
  8
Coordinates
  6
ByBlock
100
AcDbMText
 10
525864.819477
 20
1918722.004358
 30
0.0
 40
1.0
 41
0.0
 71
     1
 72
     1
  1
\fGaramond|b0|i0|c0|p23;722
 73
     2
 44
0.722892
  0
MTEXT
  5
257
330
3FD8
100
AcDbEntity
  8
Coordinates
  6
ByBlock
100
AcDbMText
 10
525864.819477
 20
1918728.004358
 30
0.0
 40
1.0
 41
0.0
 71
     1
 72
     1
  1
\fGaramond|b0|i0|c0|p23;728
 73
     2
 44
0.722892
  0
MTEXT
  5
258
330
3FD8
100
AcDbEntity
  8
Coordinates
  6
ByBlock
100
AcDbMText
 10
525864.819477
 20
1918734.004358
 30
0.0
 40
1.0
 41
0.0
 71
     1
 72
     1
  1
\fGaramond|b0|i0|c0|p23;734
 73
     2
 44
0.722892
  0
MTEXT
  5
259
330
3FD8
100
AcDbEntity
  8
Coordinates
  6
ByBlock
100
AcDbMText
 10
525864.819477
 20
1918740.004358
 30
0.0
 40
1.0
 41
0.0
 71
     1
 72
     1
  1
\fGaramond|b0|i0|c0|p23;740
 73
     2
 44
0.722892
  0
MTEXT
  5
25A
330
3FD8
100
AcDbEntity
  8
Coordinates
  6
ByBlock
100
AcDbMText
 10
525864.819477
 20
1918746.004358
 30
0.0
 40
1.0
 41
0.0
 71
     1
 72
     1
  1
\fGaramond|b0|i0|c0|p23;746
 73
     2
 44
0.722892
  0
MTEXT
  5
25B
330
3FD8
100
AcDbEntity
  8
Coordinates
  6
ByBlock
100
AcDbMText
 10
525864.819477
 20
1918752.004358
 30
0.0
 40
1.0
 41
0.0
 71
     1
 72
     1
  1
\fGaramond|b0|i0|c0|p23;752
 73
     2
 44
0.722892
  0
MTEXT
  5
25C
330
3FD8
100
AcDbEntity
  8
Coordinates
  6
ByBlock
100
AcDbMText
 10
525864.819477
 20
1918758.004358
 30
0.0
 40
1.0
 41
0.0
 71
     1
 72
     1
  1
\fGaramond|b0|i0|c0|p23;758
 73
     2
 44
0.722892
  0
MTEXT
  5
25D
330
3FD8
100
AcDbEntity
  8
Coordinates
  6
ByBlock
100
AcDbMText
 10
525864.764976
 20
1918763.840856
 30
0.0
 40
1.0
 41
0.0
 71
     1
 72
     1
  1
\fGaramond|b0|i0|c0|p23;764
 73
     2
 44
0.722892
  0
MTEXT
  5
25E
330
3FD8
100
AcDbEntity
  8
Coordinates
  6
ByBlock
100
AcDbMText
 10
525864.819477
 20
1918770.004358
 30
0.0
 40
1.0
 41
0.0
 71
     1
 72
     1
  1
\fGaramond|b0|i0|c0|p23;770
 73
     2
 44
0.722892
  0
MTEXT
  5
261
330
3FD8
100
AcDbEntity
  8
Coordinates
  6
ByBlock
100
AcDbMText
 10
525864.819477
 20
1918776.004358
 30
0.0
 40
1.0
 41
0.0
 71
     1
 72
     1
  1
\fGaramond|b0|i0|c0|p23;776
 73
     2
 44
0.722892
  0
MTEXT
  5
262
330
3FD8
100
AcDbEntity
  8
Coordinates
  6
ByBlock
100
AcDbMText
 10
525864.819477
 20
1918782.004358
 30
0.0
 40
1.0
 41
0.0
 71
     1
 72
     1
  1
\fGaramond|b0|i0|c0|p23;782
 73
     2
 44
0.722892
  0
MTEXT
  5
263
330
3FD8
100
AcDbEntity
  8
Coordinates
  6
ByBlock
100
AcDbMText
 10
525864.819477
 20
1918788.004358
 30
0.0
 40
1.0
 41
0.0
 71
     1
 72
     1
  1
\fGaramond|b0|i0|c0|p23;788
 73
     2
 44
0.722892
  0
MTEXT
  5
265
330
3FD8
100
AcDbEntity
  8
Coordinates
  6
ByBlock
100
AcDbMText
 10
525864.819477
 20
1918794.004358
 30
0.0
 40
1.0
 41
0.0
 71
     1
 72
     1
  1
\fGaramond|b0|i0|c0|p23;794
 73
     2
 44
0.722892
  0
MTEXT
  5
266
330
3FD8
100
AcDbEntity
  8
Coordinates
  6
ByBlock
100
AcDbMText
 10
525864.819477
 20
1918800.004358
 30
0.0
 40
1.0
 41
0.0
 71
     1
 72
     1
  1
\fGaramond|b0|i0|c0|p23;800
 73
     2
 44
0.722892
  0
MTEXT
  5
26F
330
3FD8
100
AcDbEntity
  8
Coordinates
  6
ByBlock
100
AcDbMText
 10
525917.266516
 20
1918807.068403
 30
0.0
 40
1.0
 41
0.0
 71
     1
 72
     1
  1
\fGaramond|b0|i0|c0|p23;920
 11
2.679489636298201E-8
 21
0.9999999999999997
 31
0.0
 73
     2
 44
0.722892
  0
MTEXT
  5
270
330
3FD8
100
AcDbEntity
  8
Coordinates
  6
ByBlock
100
AcDbMText
 10
525911.266516
 20
1918807.068403
 30
0.0
 40
1.0
 41
0.0
 71
     1
 72
     1
  1
\fGaramond|b0|i0|c0|p23;914
 11
2.679489636298201E-8
 21
0.9999999999999997
 31
0.0
 73
     2
 44
0.722892
  0
MTEXT
  5
271
330
3FD8
100
AcDbEntity
  8
Coordinates
  6
ByBlock
100
AcDbMText
 10
525905.266516
 20
1918807.068403
 30
0.0
 40
1.0
 41
0.0
 71
     1
 72
     1
  1
\fGaramond|b0|i0|c0|p23;908
 11
2.679489636298201E-8
 21
0.9999999999999997
 31
0.0
 73
     2
 44
0.722892
  0
MTEXT
  5
272
330
3FD8
100
AcDbEntity
  8
Coordinates
  6
ByBlock
100
AcDbMText
 10
525899.266516
 20
1918807.068403
 30
0.0
 40
1.0
 41
0.0
 71
     1
 72
     1
  1
\fGaramond|b0|i0|c0|p23;902
 11
2.679489636298201E-8
 21
0.9999999999999997
 31
0.0
 73
     2
 44
0.722892
  0
MTEXT
  5
273
330
3FD8
100
AcDbEntity
  8
Coordinates
  6
ByBlock
100
AcDbMText
 10
525893.266516
 20
1918807.068403
 30
0.0
 40
1.0
 41
0.0
 71
     1
 72
     1
  1
\fGaramond|b0|i0|c0|p23;896
 11
2.679489636298201E-8
 21
0.9999999999999997
 31
0.0
 73
     2
 44
0.722892
  0
MTEXT
  5
274
330
3FD8
100
AcDbEntity
  8
Coordinates
  6
ByBlock
100
AcDbMText
 10
525887.266516
 20
1918807.068403
 30
0.0
 40
1.0
 41
0.0
 71
     1
 72
     1
  1
\fGaramond|b0|i0|c0|p23;890
 11
2.679489636298201E-8
 21
0.9999999999999997
 31
0.0
 73
     2
 44
0.722892
  0
MTEXT
  5
275
330
3FD8
100
AcDbEntity
  8
Coordinates
  6
ByBlock
100
AcDbMText
 10
525881.266516
 20
1918807.068403
 30
0.0
 40
1.0
 41
0.0
 71
     1
 72
     1
  1
\fGaramond|b0|i0|c0|p23;884
 11
2.679489636298201E-8
 21
0.9999999999999997
 31
0.0
 73
     2
 44
0.722892
  0
MTEXT
  5
277
330
3FD8
100
AcDbEntity
  8
Coordinates
  6
ByBlock
100
AcDbMText
 10
525923.401198
 20
1918807.062216
 30
0.0
 40
1.0
 41
0.0
 71
     1
 72
     1
  1
\fGaramond|b0|i0|c0|p23;926
 11
2.679489636298201E-8
 21
0.9999999999999997
 31
0.0
 73
     2
 44
0.722892
  0
MTEXT
  5
27A
330
3FD8
100
AcDbEntity
  8
Coordinates
  6
ByBlock
100
AcDbMText
 10
525865.114541
 20
1918703.790889
 30
0.0
 40
1.0
 41
0.0
 71
     1
 72
     1
  1
\fGaramond|b0|i0|c0|p23;704
 73
     2
 44
0.722892
  0
MTEXT
  5
28A
330
3FD8
100
AcDbEntity
  8
Transect Letters
  6
ByBlock
 62
   250
370
    13
100
AcDbMText
 10
525901.292951
 20
1918775.855068
 30
0.0
 40
2.0
 41
0.0
 71
     1
 72
     1
  1
\fGaramond|b0|i0|c0|p23;P
 73
     2
 44
0.722892
  0
MTEXT
  5
28D
330
3FD8
100
AcDbEntity
  8
Transect Letters
  6
ByBlock
 62
   250
370
    13
100
AcDbMText
 10
525918.763318
 20
1918804.109603
 30
0.0
 40
2.0
 41
0.0
 71
     1
 72
     1
  1
\fGaramond|b0|i0|c0|p23;S
 73
     2
 44
0.722892
  0
MTEXT
  5
28E
330
3FD8
100
AcDbEntity
  8
Transect Letters
  6
ByBlock
 62
   250
370
    13
100
AcDbMText
 10
525894.303276
 20
1918767.570975
 30
0.0
 40
2.0
 41
0.0
 71
     1
 72
     1
  1
\fGaramond|b0|i0|c0|p23;O
 73
     2
 44
0.722892
  0
MTEXT
  5
28F
330
3FD8
100
AcDbEntity
  8
Transect Letters
  6
ByBlock
 62
   250
370
    13
100
AcDbMText
 10
525888.489765
 20
1918759.532265
 30
0.0
 40
2.0
 41
0.0
 71
     1
 72
     1
  1
\fGaramond|b0|i0|c0|p23;N
 73
     2
 44
0.722892
  0
MTEXT
  5
290
330
3FD8
100
AcDbEntity
  8
Transect Letters
  6
ByBlock
 62
   250
370
    13
100
AcDbMText
 10
525882.990961
 20
1918753.266047
 30
0.0
 40
2.0
 41
0.0
 71
     1
 72
     1
  1
\fGaramond|b0|i0|c0|p23;M
 73
     2
 44
0.722892
  0
MTEXT
  5
291
330
3FD8
100
AcDbEntity
  8
Transect Letters
  6
ByBlock
 62
   250
370
    13
100
AcDbMText
 10
525922.517091
 20
1918821.112728
 30
0.0
 40
3.0
 41
0.0
 71
     1
 72
     1
  1
\fGaramond|b0|i0|c0|p23;The Spring
 73
     2
 44
0.722892
  0
MTEXT
  5
295
330
3FD8
100
AcDbEntity
  8
Transect Letters
  6
ByBlock
 62
   250
370
    13
100
AcDbMText
 10
525919.509672
 20
1918799.436211
 30
0.0
 40
1.0
 41
0.0
 71
     1
 72
     1
  1
\fGaramond|b0|i0|c0|p23;01
 73
     2
 44
0.722892
  0
MTEXT
  5
29F
330
3FD8
100
AcDbEntity
  8
Transect Letters
  6
ByBlock
 62
   250
370
    13
100
AcDbMText
 10
525901.331478
 20
1918769.754583
 30
0.0
 40
1.0
 41
0.0
 71
     1
 72
     1
  1
\fGaramond|b0|i0|c0|p23;03
 73
     2
 44
0.722892
  0
MTEXT
  5
2A8
330
3FD8
100
AcDbEntity
  8
Transect Letters
  6
ByBlock
 62
   250
370
    13
100
AcDbMText
 10
525889.0612
 20
1918751.468206
 30
0.0
 40
1.0
 41
0.0
 71
     1
 72
     1
  1
\fGaramond|b0|i0|c0|p23;04
 73
     2
 44
0.722892
  0
MTEXT
  5
2AA
330
3FD8
100
AcDbEntity
  8
Transect Letters
  6
ByBlock
 62
   250
370
    13
100
AcDbMText
 10
525895.470101
 20
1918751.468206
 30
0.0
 40
1.0
 41
0.0
 71
     1
 72
     1
  1
\fGaramond|b0|i0|c0|p23;05
 73
     2
 44
0.722892
  0
MTEXT
  5
2AC
330
3FD8
100
AcDbEntity
  8
Transect Letters
  6
ByBlock
 62
   250
370
    13
100
AcDbMText
 10
525889.367812
 20
1918745.109375
 30
0.0
 40
1.0
 41
0.0
 71
     1
 72
     1
  1
\fGaramond|b0|i0|c0|p23;05
 73
     2
 44
0.722892
  0
MTEXT
  5
2AD
330
3FD8
100
AcDbEntity
  8
Transect Letters
  6
ByBlock
 62
   250
370
    13
100
AcDbMText
 10
525895.676574
 20
1918745.109375
 30
0.0
 40
1.0
 41
0.0
 71
     1
 72
     1
  1
\fGaramond|b0|i0|c0|p23;06
 73
     2
 44
0.722892
  0
MTEXT
  5
2AE
330
3FD8
100
AcDbEntity
  8
Transect Letters
  6
ByBlock
 62
   250
370
    13
100
AcDbMText
 10
525889.217604
 20
1918739.251239
 30
0.0
 40
1.0
 41
0.0
 71
     1
 72
     1
  1
\fGaramond|b0|i0|c0|p23;06
 73
     2
 44
0.722892
  0
MTEXT
  5
2AF
330
3FD8
100
AcDbEntity
  8
Transect Letters
  6
ByBlock
 62
   250
370
    13
100
AcDbMText
 10
525895.376157
 20
1918739.251239
 30
0.0
 40
1.0
 41
0.0
 71
     1
 72
     1
  1
\fGaramond|b0|i0|c0|p23;07
 73
     2
 44
0.722892
  0
MTEXT
  5
2B0
330
3FD8
100
AcDbEntity
  8
Transect Letters
  6
ByBlock
 62
   250
370
    13
100
AcDbMText
 10
525889.61816
 20
1918733.493243
 30
0.0
 40
1.0
 41
0.0
 71
     1
 72
     1
  1
\fGaramond|b0|i0|c0|p23;07
 73
     2
 44
0.722892
  0
MTEXT
  5
2C8
330
3FD8
100
AcDbEntity
  8
Transect Letters
  6
ByBlock
 62
   250
370
    13
100
AcDbMText
 10
525895.376157
 20
1918733.580389
 30
0.0
 40
1.0
 41
0.0
 71
     1
 72
     1
  1
\fGaramond|b0|i0|c0|p23;08
 73
     2
 44
0.722892
  0
MTEXT
  5
2C9
330
3FD8
100
AcDbEntity
  8
Transect Letters
  6
ByBlock
 62
   250
370
    13
100
AcDbMText
 10
525895.376157
 20
1918727.46184
 30
0.0
 40
1.0
 41
0.0
 71
     1
 72
     1
  1
\fGaramond|b0|i0|c0|p23;09
 73
     2
 44
0.722892
  0
MTEXT
  5
2CA
330
3FD8
100
AcDbEntity
  8
Transect Letters
  6
ByBlock
 62
   250
370
    13
100
AcDbMText
 10
525889.49638
 20
1918727.55138
 30
0.0
 40
1.0
 41
0.0
 71
     1
 72
     1
  1
\fGaramond|b0|i0|c0|p23;08
 73
     2
 44
0.722892
  0
MTEXT
  5
2CB
330
3FD8
100
AcDbEntity
  8
Transect Letters
  6
ByBlock
 62
   250
370
    13
100
AcDbMText
 10
525883.795684
 20
1918733.341616
 30
0.0
 40
1.0
 41
0.0
 71
     1
 72
     1
  1
\fGaramond|b0|i0|c0|p23;01
 73
     2
 44
0.722892
  0
MTEXT
  5
2CC
330
3FD8
100
AcDbEntity
  8
Transect Letters
  6
ByBlock
 62
   250
370
    13
100
AcDbMText
 10
525883.467371
 20
1918727.55138
 30
0.0
 40
1.0
 41
0.0
 71
     1
 72
     1
  1
\fGaramond|b0|i0|c0|p23;02
 73
     2
 44
0.722892
  0
MTEXT
  5
2CD
330
3FD8
100
AcDbEntity
  8
Transect Letters
  6
ByBlock
 62
   250
370
    13
100
AcDbMText
 10
525883.467371
 20
1918721.53781
 30
0.0
 40
1.0
 41
0.0
 71
     1
 72
     1
  1
\fGaramond|b0|i0|c0|p23;03
 73
     2
 44
0.722892
  0
MTEXT
  5
2CE
330
3FD8
100
AcDbEntity
  8
Transect Letters
  6
ByBlock
 62
   250
370
    13
100
AcDbMText
 10
525889.526227
 20
1918721.53781
 30
0.0
 40
1.0
 41
0.0
 71
     1
 72
     1
  1
\fGaramond|b0|i0|c0|p23;09
 73
     2
 44
0.722892
  0
MTEXT
  5
2CF
330
3FD8
100
AcDbEntity
  8
Transect Letters
  6
ByBlock
 62
   250
370
    13
100
AcDbMText
 10
525889.227761
 20
1918715.299875
 30
0.0
 40
1.0
 41
0.0
 71
     1
 72
     1
  1
\fGaramond|b0|i0|c0|p23;10
 73
     2
 44
0.722892
  0
MTEXT
  5
2D0
330
3FD8
100
AcDbEntity
  8
Transect Letters
  6
ByBlock
 62
   250
370
    13
100
AcDbMText
 10
525889.227761
 20
1918709.479792
 30
0.0
 40
1.0
 41
0.0
 71
     1
 72
     1
  1
\fGaramond|b0|i0|c0|p23;11
 73
     2
 44
0.722892
  0
SOLID
  5
337
330
3FD8
100
AcDbEntity
  8
Scale
370
    30
100
AcDbTrace
 10
-525875.486317
 20
1918662.08863
 30
0.0
 11
-525880.486317
 21
1918662.08863
 31
0.0
 12
-525875.486317
 22
1918661.181503
 32
0.0
 13
-525880.486317
 23
1918661.181503
 33
0.0
210
0.0
220
0.0
230
-1.0
  0
LWPOLYLINE
  5
338
330
3FD8
100
AcDbEntity
  8
Scale
370
    30
100
AcDbPolyline
 90
        4
 70
   129
 43
0.0
 10
525875.486317
 20
1918661.08863
 10
525880.486317
 20
1918661.08863
 10
525880.486317
 20
1918660.181503
 10
525875.486317
 20
1918660.181503
  0
LWPOLYLINE
  5
339
330
3FD8
100
AcDbEntity
  8
Scale
370
    30
100
AcDbPolyline
 90
        4
 70
   129
 43
0.0
 10
525880.486317
 20
1918662.08863
 10
525885.486317
 20
1918662.08863
 10
525885.486317
 20
1918661.181503
 10
525880.486317
 20
1918661.181503
  0
SOLID
  5
33A
330
3FD8
100
AcDbEntity
  8
Scale
370
    30
100
AcDbTrace
 10
-525880.486317
 20
1918661.08863
 30
0.0
 11
-525885.486317
 21
1918661.08863
 31
0.0
 12
-525880.486317
 22
1918660.181503
 32
0.0
 13
-525885.486317
 23
1918660.181503
 33
0.0
210
0.0
220
0.0
230
-1.0
  0
LWPOLYLINE
  5
33B
330
3FD8
100
AcDbEntity
  8
Scale
370
    30
100
AcDbPolyline
 90
        4
 70
   129
 43
0.0
 10
525885.486317
 20
1918661.08863
 10
525890.486317
 20
1918661.08863
 10
525890.486317
 20
1918660.181503
 10
525885.486317
 20
1918660.181503
  0
SOLID
  5
33C
330
3FD8
100
AcDbEntity
  8
Scale
370
    30
100
AcDbTrace
 10
-525885.486317
 20
1918662.08863
 30
0.0
 11
-525890.486317
 21
1918662.08863
 31
0.0
 12
-525885.486317
 22
1918661.181503
 32
0.0
 13
-525890.486317
 23
1918661.181503
 33
0.0
210
0.0
220
0.0
230
-1.0
  0
LWPOLYLINE
  5
33D
330
3FD8
100
AcDbEntity
  8
Scale
370
    30
100
AcDbPolyline
 90
        4
 70
   129
 43
0.0
 10
525890.486317
 20
1918662.08863
 10
525895.486317
 20
1918662.08863
 10
525895.486317
 20
1918661.181503
 10
525890.486317
 20
1918661.181503
  0
SOLID
  5
33E
330
3FD8
100
AcDbEntity
  8
Scale
370
    30
100
AcDbTrace
 10
-525890.486317
 20
1918661.08863
 30
0.0
 11
-525895.486317
 21
1918661.08863
 31
0.0
 12
-525890.486317
 22
1918660.181503
 32
0.0
 13
-525895.486317
 23
1918660.181503
 33
0.0
210
0.0
220
0.0
230
-1.0
  0
CIRCLE
  5
33F
330
3FD8
100
AcDbEntity
  8
Scale
370
    13
100
AcDbCircle
 10
525902.524139
 20
1918663.38804
 30
0.0
 40
2.787842772034229
  0
LWPOLYLINE
  5
340
330
3FD8
100
AcDbEntity
  8
Scale
370
    13
100
AcDbPolyline
 90
        4
 70
   128
 43
0.0
 10
525902.455578
 20
1918666.17504
 10
525899.736419
 20
1918663.361882
 10
525905.311865
 20
1918663.362491
 10
525902.477059
 20
1918666.175485
  0
LINE
  5
341
330
3FD8
100
AcDbEntity
  8
Scale
370
    13
100
AcDbLine
 10
525902.476115
 20
1918663.362181
 30
0.0
 11
525902.475926
 21
1918660.600614
 31
0.0
  0
MTEXT
  5
342
330
3FD8
100
AcDbEntity
  8
Scale
 62
   250
370
    30
100
AcDbMText
 10
525874.994019
 20
1918663.724713
 30
0.0
 40
1.0
 41
0.0
 71
     1
 72
     1
  1
\fGaramond|b0|i0|c0|p23;0
 73
     2
 44
0.722892
  0
MTEXT
  5
343
330
3FD8
100
AcDbEntity
  8
Scale
 62
   250
370
    30
100
AcDbMText
 10
525880.319619
 20
1918663.724713
 30
0.0
 40
1.0
 41
0.0
 71
     1
 72
     1
  1
\fGaramond|b0|i0|c0|p23;5
 73
     2
 44
0.722892
  0
MTEXT
  5
344
330
3FD8
100
AcDbEntity
  8
Scale
 62
   250
370
    30
100
AcDbMText
 10
525884.753113
 20
1918663.724713
 30
0.0
 40
1.0
 41
0.0
 71
     1
 72
     1
  1
\fGaramond|b0|i0|c0|p23;10
 73
     2
 44
0.722892
  0
MTEXT
  5
346
330
3FD8
100
AcDbEntity
  8
Scale
 62
   250
370
    30
100
AcDbMText
 10
525894.99881
 20
1918663.724713
 30
0.0
 40
1.0
 41
0.0
 71
     1
 72
     1
  1
\fGaramond|b0|i0|c0|p23;20
 73
     2
 44
0.722892
  0
MTEXT
  5
347
330
3FD8
100
AcDbEntity
  8
Scale
 62
   250
370
    30
100
AcDbMText
 10
525874.966985
 20
1918659.642655
 30
0.0
 40
1.0
 41
0.0
 71
     1
 72
     1
  1
\fGaramond|b0|i0|c0|p23;Meters
 73
     2
 44
0.722892
  0
HATCH
  5
3BD
330
3FD8
100
AcDbEntity
  8
Legend
 62
    92
100
AcDbHatch
 10
0.0
 20
0.0
 30
0.0
210
0.0
220
0.0
230
1.0
  2
SOLID
 70
     1
 71
     0
 91
        1
 92
        1
 93
        1
 72
     2
 10
525960.4901252594
 20
1918784.176535663
 40
0.25
 50
0.0
 51
360.0
 73
     1
 97
        0
 75
     0
 76
     1
 98
        0
  0
MTEXT
  5
3C0
330
3FD8
100
AcDbEntity
  8
Legend
  6
ByBlock
 62
   250
370
    13
100
AcDbMText
 10
525959.873362
 20
1918783.251391
 30
0.0
 40
1.0
 41
0.0
 71
     1
 72
     1
  1
\fGaramond|b0|i0|c0|p23;05
 73
     2
 44
0.722892
  0
MTEXT
  5
3C1
330
3FD8
100
AcDbEntity
  8
Legend
  6
ByBlock
 62
   250
370
    13
100
AcDbMText
 10
525959.075003
 20
1918788.204419
 30
0.0
 40
2.0
 41
0.0
 71
     1
 72
     1
  1
\fGaramond|b0|i0|c0|p23;M
 73
     2
 44
0.722892
  0
HATCH
  5
3C3
330
3FD8
100
AcDbEntity
  8
Legend
 62
    12
100
AcDbHatch
 10
0.0
 20
0.0
 30
0.0
210
0.0
220
0.0
230
1.0
  2
SOLID
 70
     1
 71
     0
 91
        1
 92
        1
 93
        1
 72
     2
 10
525960.5784334755
 20
1918780.132431522
 40
0.510739767520241
 50
158.3852210265167
 51
518.3852210265168
 73
     1
 97
        0
 75
     0
 76
     1
 98
        0
  0
MTEXT
  5
3C4
330
3FD8
100
AcDbEntity
  8
Legend
 62
   250
100
AcDbMText
 10
525964.301706
 20
1918787.716635
 30
0.0
 40
1.0
 41
0.0
 71
     1
 72
     1
  1
\fGaramond|b0|i0|c0|p23;Transect Letter
 73
     2
 44
0.722892
  0
MTEXT
  5
3C5
330
3FD8
100
AcDbEntity
  8
Legend
 62
   250
100
AcDbMText
 10
525964.380508
 20
1918784.287337
 30
0.0
 40
1.0
 41
0.0
 71
     1
 72
     1
  1
\fGaramond|b0|i0|c0|p23;Excavated STP
 73
     2
 44
0.722892
  0
MTEXT
  5
3C6
330
3FD8
100
AcDbEntity
  8
Legend
 62
   250
100
AcDbMText
 10
525964.498711
 20
1918780.753337
 30
0.0
 40
1.0
 41
0.0
 71
     1
 72
     1
  1
\fGaramond|b0|i0|c0|p23;Cistern
 73
     2
 44
0.722892
  0
SOLID
  5
3C7
330
3FD8
100
AcDbEntity
  8
Legend
 62
   132
100
AcDbTrace
 10
-525960.35422
 20
1918776.875111
 30
0.0
 11
-525960.85422
 21
1918776.875111
 31
0.0
 12
-525960.35422
 22
1918776.375111
 32
0.0
 13
-525960.85422
 23
1918776.375111
 33
0.0
210
0.0
220
0.0
230
-1.0
  0
MTEXT
  5
3C8
330
3FD8
100
AcDbEntity
  8
Legend
 62
   250
100
AcDbMText
 10
525964.577513
 20
1918777.476288
 30
0.0
 40
1.0
 41
0.0
 71
     1
 72
     1
  1
\fGaramond|b0|i0|c0|p23;Datum/Backsight
 73
     2
 44
0.722892
  0
CIRCLE
  5
B30
330
3FD8
100
AcDbEntity
  8
Windmill
  6
DGN Style 2
370
    13
100
AcDbCircle
 10
525960.32156
 20
1918700.530428
 30
0.0
 40
4.671248203143478
  0
LWPOLYLINE
  5
B31
330
3FD8
100
AcDbEntity
  8
Structures
  6
DGN Style 2
370
    13
100
AcDbPolyline
 90
        4
 70
   128
 43
0.0
 10
525951.91413
 20
1918671.220273
 10
525947.085323
 20
1918663.42153
 10
525951.82709
 20
1918660.689196
 10
525956.131809
 20
1918667.737136
  0
LWPOLYLINE
  5
B32
330
3FD8
100
AcDbEntity
  8
Structures
  6
DGN Style 2
370
    13
100
AcDbPolyline
 90
        5
 70
   128
 43
0.0
 10
525956.308167
 20
1918668.506452
 10
525952.378545
 20
1918670.756669
 10
525948.094394
 20
1918663.677033
 10
525951.593813
 20
1918661.581699
 10
525954.997721
 20
1918667.063794
  0
LWPOLYLINE
  5
B33
330
3FD8
100
AcDbEntity
  8
Structures
  6
DGN Style 2
370
    13
100
AcDbPolyline
 90
        8
 70
   128
 43
0.0
 10
525922.508661
 20
1918682.063952
 10
525921.897
 20
1918682.399529
 10
525919.828704
 20
1918678.629629
 10
525927.98221
 20
1918674.156337
 10
525930.868205
 20
1918679.416663
 10
525931.657254
 20
1918678.983764
 10
525931.229165
 20
1918678.203482
 10
525935.700442
 20
1918675.750387
  0
LWPOLYLINE
  5
B34
330
3FD8
100
AcDbEntity
  8
Structures
  6
DGN Style 2
370
    13
100
AcDbPolyline
 90
        6
 70
   128
 43
0.0
 10
525918.556261
 20
1918680.468348
 10
525918.075262
 20
1918679.591627
 10
525914.393033
 20
1918681.611823
 10
525915.066432
 20
1918682.839233
 10
525914.715744
 20
1918683.031633
 10
525913.849945
 20
1918681.453535
  0
LINE
  5
B36
330
3FD8
100
AcDbEntity
  8
Structures
  6
DGN Style 2
370
    30
100
AcDbLine
 10
525938.917403
 20
1918741.72101
 30
0.0
 11
525953.122739
 21
1918735.178901
 31
0.0
  0
MTEXT
  5
ACC
330
3FD8
100
AcDbEntity
  8
Datum
 62
   250
100
AcDbMText
 10
525958.978931
 20
1918701.30157
 30
0.0
 40
1.0
 41
0.0
 71
     1
 72
     1
  1
\fGaramond|b0|i0|c0|p23;mill
 73
     2
 44
0.60006
  0
LWPOLYLINE
  5
34AB
330
3FD8
100
AcDbEntity
  8
Topography_bank
  6
Continuous
 62
   250
370
     0
100
AcDbPolyline
 90
        2
 70
   128
 43
0.0
 10
525976.900498
 20
1918736.273607
 10
525976.11953
 20
1918736.749229
  0
LWPOLYLINE
  5
34AC
330
3FD8
100
AcDbEntity
  8
Topography_bank
  6
Continuous
 62
   250
370
     0
100
AcDbPolyline
 90
        2
 70
   128
 43
0.0
 10
525975.335828
 20
1918737.226515
 10
525974.55486
 20
1918737.702137
  0
LWPOLYLINE
  5
34AD
330
3FD8
100
AcDbEntity
  8
Topography_bank
  6
Continuous
 62
   250
370
     0
100
AcDbPolyline
 90
        2
 70
   128
 43
0.0
 10
525973.771159
 20
1918738.179424
 10
525972.990191
 20
1918738.655045
  0
LWPOLYLINE
  5
34AE
330
3FD8
100
AcDbEntity
  8
Topography_bank
  6
Continuous
 62
   250
370
     0
100
AcDbPolyline
 90
        2
 70
   128
 43
0.0
 10
525972.20649
 20
1918739.132332
 10
525971.425522
 20
1918739.607953
  0
LWPOLYLINE
  5
34AF
330
3FD8
100
AcDbEntity
  8
Topography_bank
  6
Continuous
 62
   250
370
     0
100
AcDbPolyline
 90
        2
 70
   128
 43
0.0
 10
525970.64182
 20
1918740.08524
 10
525969.860852
 20
1918740.560862
  0
LWPOLYLINE
  5
34B0
330
3FD8
100
AcDbEntity
  8
Topography_bank
  6
Continuous
 62
   250
370
     0
100
AcDbPolyline
 90
        2
 70
   128
 43
0.0
 10
525969.033626
 20
1918740.957603
 10
525968.206535
 20
1918741.347536
  0
LWPOLYLINE
  5
34B1
330
3FD8
100
AcDbEntity
  8
Topography_bank
  6
Continuous
 62
   250
370
     0
100
AcDbPolyline
 90
        2
 70
   128
 43
0.0
 10
525967.37655
 20
1918741.738835
 10
525966.549459
 20
1918742.128768
  0
LWPOLYLINE
  5
34B2
330
3FD8
100
AcDbEntity
  8
Topography_bank
  6
Continuous
 62
   250
370
     0
100
AcDbPolyline
 90
        2
 70
   128
 43
0.0
 10
525965.719474
 20
1918742.520066
 10
525964.892383
 20
1918742.91
  0
LWPOLYLINE
  5
34B3
330
3FD8
100
AcDbEntity
  8
Topography_bank
  6
Continuous
 62
   250
370
     0
100
AcDbPolyline
 90
        3
 70
   128
 43
0.0
 10
525964.062219
 20
1918743.300909
 10
525964.049301
 20
1918743.306709
 10
525963.221312
 20
1918743.660073
  0
LWPOLYLINE
  5
34B4
330
3FD8
100
AcDbEntity
  8
Topography_bank
  6
Continuous
 62
   250
370
     0
100
AcDbPolyline
 90
        2
 70
   128
 43
0.0
 10
525962.382957
 20
1918744.032205
 10
525961.572895
 20
1918744.456382
  0
LWPOLYLINE
  5
34B5
330
3FD8
100
AcDbEntity
  8
Topography_bank
  6
Continuous
 62
   250
370
     0
100
AcDbPolyline
 90
        2
 70
   128
 43
0.0
 10
525960.759997
 20
1918744.882043
 10
525959.949934
 20
1918745.306219
  0
LWPOLYLINE
  5
34B6
330
3FD8
100
AcDbEntity
  8
Topography_bank
  6
Continuous
 62
   250
370
     0
100
AcDbPolyline
 90
        2
 70
   128
 43
0.0
 10
525959.137037
 20
1918745.73188
 10
525958.326974
 20
1918746.156056
  0
LWPOLYLINE
  5
34B7
330
3FD8
100
AcDbEntity
  8
Topography_bank
  6
Continuous
 62
   250
370
     0
100
AcDbPolyline
 90
        2
 70
   128
 43
0.0
 10
525957.514076
 20
1918746.581717
 10
525956.704013
 20
1918747.005894
  0
LWPOLYLINE
  5
34B8
330
3FD8
100
AcDbEntity
  8
Topography_bank
  6
Continuous
 62
   250
370
     0
100
AcDbPolyline
 90
        4
 70
   128
 43
0.0
 10
525955.891116
 20
1918747.431555
 10
525955.390815
 20
1918747.693529
 10
525955.304502
 20
1918747.733614
 10
525955.068847
 20
1918747.829703
  0
LWPOLYLINE
  5
34B9
330
3FD8
100
AcDbEntity
  8
Topography_bank
  6
Continuous
 62
   250
370
     0
100
AcDbPolyline
 90
        2
 70
   128
 43
0.0
 10
525954.219167
 20
1918748.176163
 10
525953.372451
 20
1918748.521415
  0
LWPOLYLINE
  5
34BA
330
3FD8
100
AcDbEntity
  8
Topography_bank
  6
Continuous
 62
   250
370
     0
100
AcDbPolyline
 90
        2
 70
   128
 43
0.0
 10
525952.522771
 20
1918748.867875
 10
525951.676055
 20
1918749.213127
  0
LWPOLYLINE
  5
34BB
330
3FD8
100
AcDbEntity
  8
Topography_bank
  6
Continuous
 62
   250
370
     0
100
AcDbPolyline
 90
        8
 70
   128
 43
0.0
 10
525950.825952
 20
1918749.558545
 10
525950.727149
 20
1918749.598414
 10
525950.646746
 20
1918749.630174
 10
525950.646111
 20
1918749.630353
 10
525950.428509
 20
1918749.648692
 10
525950.354648
 20
1918749.632297
 10
525950.150178
 20
1918749.584954
 10
525949.939038
 20
1918749.535578
  0
LWPOLYLINE
  5
34BC
330
3FD8
100
AcDbEntity
  8
Topography_bank
  6
Continuous
 62
   250
370
     0
100
AcDbPolyline
 90
        6
 70
   128
 43
0.0
 10
525949.045902
 20
1918749.325109
 10
525948.800037
 20
1918749.266718
 10
525948.578355
 20
1918749.213614
 10
525948.484011
 20
1918749.190363
 10
525948.482155
 20
1918749.189806
 10
525948.167798
 20
1918749.075079
  0
LWPOLYLINE
  5
34BD
330
3FD8
100
AcDbEntity
  8
Topography_bank
  6
Continuous
 62
   250
370
     0
100
AcDbPolyline
 90
        3
 70
   128
 43
0.0
 10
525947.412446
 20
1918748.570422
 10
525947.210615
 20
1918748.40703
 10
525946.702267
 20
1918747.994424
  0
LWPOLYLINE
  5
34BE
330
3FD8
100
AcDbEntity
  8
Topography_bank
  6
Continuous
 62
   250
370
     0
100
AcDbPolyline
 90
        2
 70
   128
 43
0.0
 10
525946.021875
 20
1918747.379504
 10
525945.358253
 20
1918746.750431
  0
LWPOLYLINE
  5
34BF
330
3FD8
100
AcDbEntity
  8
Topography_bank
  6
Continuous
 62
   250
370
     0
100
AcDbPolyline
 90
        2
 70
   128
 43
0.0
 10
525944.692308
 20
1918746.119157
 10
525944.028685
 20
1918745.490084
  0
LWPOLYLINE
  5
34C0
330
3FD8
100
AcDbEntity
  8
Topography_bank
  6
Continuous
 62
   250
370
     0
100
AcDbPolyline
 90
        2
 70
   128
 43
0.0
 10
525943.36274
 20
1918744.85881
 10
525942.699117
 20
1918744.229737
  0
LWPOLYLINE
  5
34C1
330
3FD8
100
AcDbEntity
  8
Topography_bank
  6
Continuous
 62
   250
370
     0
100
AcDbPolyline
 90
        2
 70
   128
 43
0.0
 10
525942.033172
 20
1918743.598463
 10
525941.36955
 20
1918742.969391
  0
LWPOLYLINE
  5
34C2
330
3FD8
100
AcDbEntity
  8
Topography_bank
  6
Continuous
 62
   250
370
     0
100
AcDbPolyline
 90
        2
 70
   128
 43
0.0
 10
525977.681466
 20
1918735.797986
 10
525976.900498
 20
1918736.273607
  0
LWPOLYLINE
  5
34C3
330
3FD8
100
AcDbEntity
  8
Topography_bank
  6
Continuous
 62
   250
370
     0
100
AcDbPolyline
 90
        2
 70
   128
 43
0.0
 10
525976.116797
 20
1918736.750894
 10
525975.335828
 20
1918737.226515
  0
LWPOLYLINE
  5
34C4
330
3FD8
100
AcDbEntity
  8
Topography_bank
  6
Continuous
 62
   250
370
     0
100
AcDbPolyline
 90
        2
 70
   128
 43
0.0
 10
525974.552127
 20
1918737.703802
 10
525973.771159
 20
1918738.179424
  0
LWPOLYLINE
  5
34C5
330
3FD8
100
AcDbEntity
  8
Topography_bank
  6
Continuous
 62
   250
370
     0
100
AcDbPolyline
 90
        2
 70
   128
 43
0.0
 10
525972.987458
 20
1918738.65671
 10
525972.20649
 20
1918739.132332
  0
LWPOLYLINE
  5
34C6
330
3FD8
100
AcDbEntity
  8
Topography_bank
  6
Continuous
 62
   250
370
     0
100
AcDbPolyline
 90
        2
 70
   128
 43
0.0
 10
525971.422789
 20
1918739.609618
 10
525970.64182
 20
1918740.08524
  0
LWPOLYLINE
  5
34C7
330
3FD8
100
AcDbEntity
  8
Topography_bank
  6
Continuous
 62
   250
370
     0
100
AcDbPolyline
 90
        4
 70
   128
 43
0.0
 10
525969.858119
 20
1918740.562526
 10
525969.857342
 20
1918740.562999
 10
525969.763632
 20
1918740.61344
 10
525969.033626
 20
1918740.957603
  0
LWPOLYLINE
  5
34C8
330
3FD8
100
AcDbEntity
  8
Topography_bank
  6
Continuous
 62
   250
370
     0
100
AcDbPolyline
 90
        2
 70
   128
 43
0.0
 10
525968.20364
 20
1918741.348901
 10
525967.37655
 20
1918741.738835
  0
LWPOLYLINE
  5
34C9
330
3FD8
100
AcDbEntity
  8
Topography_bank
  6
Continuous
 62
   250
370
     0
100
AcDbPolyline
 90
        2
 70
   128
 43
0.0
 10
525966.546564
 20
1918742.130133
 10
525965.719474
 20
1918742.520066
  0
LWPOLYLINE
  5
34CA
330
3FD8
100
AcDbEntity
  8
Topography_bank
  6
Continuous
 62
   250
370
     0
100
AcDbPolyline
 90
        3
 70
   128
 43
0.0
 10
525964.889488
 20
1918742.911364
 10
525964.083215
 20
1918743.291484
 10
525964.062219
 20
1918743.300909
  0
LWPOLYLINE
  5
34CB
330
3FD8
100
AcDbEntity
  8
Topography_bank
  6
Continuous
 62
   250
370
     0
100
AcDbPolyline
 90
        4
 70
   128
 43
0.0
 10
525963.218369
 20
1918743.661329
 10
525962.567399
 20
1918743.939146
 10
525962.496036
 20
1918743.972993
 10
525962.382957
 20
1918744.032205
  0
LWPOLYLINE
  5
34CC
330
3FD8
100
AcDbEntity
  8
Topography_bank
  6
Continuous
 62
   250
370
     0
100
AcDbPolyline
 90
        2
 70
   128
 43
0.0
 10
525961.57006
 20
1918744.457866
 10
525960.759997
 20
1918744.882043
  0
LWPOLYLINE
  5
34CD
330
3FD8
100
AcDbEntity
  8
Topography_bank
  6
Continuous
 62
   250
370
     0
100
AcDbPolyline
 90
        3
 70
   128
 43
0.0
 10
525959.947099
 20
1918745.307703
 10
525959.620283
 20
1918745.478836
 10
525959.137037
 20
1918745.73188
  0
LWPOLYLINE
  5
34CE
330
3FD8
100
AcDbEntity
  8
Topography_bank
  6
Continuous
 62
   250
370
     0
100
AcDbPolyline
 90
        2
 70
   128
 43
0.0
 10
525958.324139
 20
1918746.157541
 10
525957.514076
 20
1918746.581717
  0
LWPOLYLINE
  5
34CF
330
3FD8
100
AcDbEntity
  8
Topography_bank
  6
Continuous
 62
   250
370
     0
100
AcDbPolyline
 90
        2
 70
   128
 43
0.0
 10
525956.701179
 20
1918747.007378
 10
525955.891116
 20
1918747.431555
  0
LWPOLYLINE
  5
34D0
330
3FD8
100
AcDbEntity
  8
Topography_bank
  6
Continuous
 62
   250
370
     0
100
AcDbPolyline
 90
        2
 70
   128
 43
0.0
 10
525955.065883
 20
1918747.830912
 10
525954.219167
 20
1918748.176163
  0
LWPOLYLINE
  5
34D1
330
3FD8
100
AcDbEntity
  8
Topography_bank
  6
Continuous
 62
   250
370
     0
100
AcDbPolyline
 90
        2
 70
   128
 43
0.0
 10
525953.369488
 20
1918748.522624
 10
525952.522771
 20
1918748.867875
  0
LWPOLYLINE
  5
34D2
330
3FD8
100
AcDbEntity
  8
Topography_bank
  6
Continuous
 62
   250
370
     0
100
AcDbPolyline
 90
        5
 70
   128
 43
0.0
 10
525951.673092
 20
1918749.214335
 10
525951.573018
 20
1918749.255141
 10
525951.226545
 20
1918749.396216
 10
525950.930246
 20
1918749.516461
 10
525950.825952
 20
1918749.558545
  0
LWPOLYLINE
  5
34D3
330
3FD8
100
AcDbEntity
  8
Topography_bank
  6
Continuous
 62
   250
370
     0
100
AcDbPolyline
 90
        5
 70
   128
 43
0.0
 10
525949.935922
 20
1918749.53485
 10
525949.84479
 20
1918749.513538
 10
525949.482831
 20
1918749.428421
 10
525949.116865
 20
1918749.341962
 10
525949.045902
 20
1918749.325109
  0
LWPOLYLINE
  5
34D4
330
3FD8
100
AcDbEntity
  8
Topography_bank
  6
Continuous
 62
   250
370
     0
100
AcDbPolyline
 90
        6
 70
   128
 43
0.0
 10
525948.164792
 20
1918749.073982
 10
525947.943569
 20
1918748.993245
 10
525947.879326
 20
1918748.944577
 10
525947.711742
 20
1918748.811413
 10
525947.465152
 20
1918748.61309
 10
525947.412446
 20
1918748.570422
  0
LWPOLYLINE
  5
34D5
330
3FD8
100
AcDbEntity
  8
Topography_bank
  6
Continuous
 62
   250
370
     0
100
AcDbPolyline
 90
        4
 70
   128
 43
0.0
 10
525946.699782
 20
1918747.992408
 10
525946.519889
 20
1918747.846396
 10
525946.446088
 20
1918747.781631
 10
525946.021875
 20
1918747.379504
  0
LWPOLYLINE
  5
34D6
330
3FD8
100
AcDbEntity
  8
Topography_bank
  6
Continuous
 62
   250
370
     0
100
AcDbPolyline
 90
        2
 70
   128
 43
0.0
 10
525945.35593
 20
1918746.748229
 10
525944.692308
 20
1918746.119157
  0
LWPOLYLINE
  5
34D7
330
3FD8
100
AcDbEntity
  8
Topography_bank
  6
Continuous
 62
   250
370
     0
100
AcDbPolyline
 90
        2
 70
   128
 43
0.0
 10
525944.026363
 20
1918745.487883
 10
525943.36274
 20
1918744.85881
  0
LWPOLYLINE
  5
34D8
330
3FD8
100
AcDbEntity
  8
Topography_bank
  6
Continuous
 62
   250
370
     0
100
AcDbPolyline
 90
        2
 70
   128
 43
0.0
 10
525942.696795
 20
1918744.227536
 10
525942.033172
 20
1918743.598463
  0
LWPOLYLINE
  5
34D9
330
3FD8
100
AcDbEntity
  8
Topography_bank
  6
Continuous
 62
   250
370
     0
100
AcDbPolyline
 90
        2
 70
   128
 43
0.0
 10
525941.367227
 20
1918742.967189
 10
525941.057625
 20
1918742.673706
  0
SOLID
  5
34DA
330
3FD8
100
AcDbEntity
  8
Topography_bank
  6
Continuous
 62
   250
370
     0
100
AcDbTrace
 10
525976.732915
 20
1918736.375668
 30
0.0
 11
525977.068081
 21
1918736.171547
 31
0.0
 12
525977.666482
 22
1918737.531349
 32
0.0
 13
525977.666482
 23
1918737.531349
 33
0.0
  0
SOLID
  5
34DB
330
3FD8
100
AcDbEntity
  8
Topography_bank
  6
Continuous
 62
   250
370
     0
100
AcDbTrace
 10
525975.168246
 20
1918737.328576
 30
0.0
 11
525975.503411
 21
1918737.124455
 31
0.0
 12
525976.101813
 22
1918738.484257
 32
0.0
 13
525976.101813
 23
1918738.484257
 33
0.0
  0
SOLID
  5
34DC
330
3FD8
100
AcDbEntity
  8
Topography_bank
  6
Continuous
 62
   250
370
     0
100
AcDbTrace
 10
525973.603576
 20
1918738.281484
 30
0.0
 11
525973.938742
 21
1918738.077363
 31
0.0
 12
525974.537144
 22
1918739.437166
 32
0.0
 13
525974.537144
 23
1918739.437166
 33
0.0
  0
SOLID
  5
34DD
330
3FD8
100
AcDbEntity
  8
Topography_bank
  6
Continuous
 62
   250
370
     0
100
AcDbTrace
 10
525972.038907
 20
1918739.234392
 30
0.0
 11
525972.374072
 21
1918739.030271
 31
0.0
 12
525972.972474
 22
1918740.390074
 32
0.0
 13
525972.972474
 23
1918740.390074
 33
0.0
  0
SOLID
  5
34DE
330
3FD8
100
AcDbEntity
  8
Topography_bank
  6
Continuous
 62
   250
370
     0
100
AcDbTrace
 10
525970.474238
 20
1918740.1873
 30
0.0
 11
525970.809403
 21
1918739.983179
 31
0.0
 12
525971.407805
 22
1918741.342982
 32
0.0
 13
525971.407805
 23
1918741.342982
 33
0.0
  0
SOLID
  5
34DF
330
3FD8
100
AcDbEntity
  8
Topography_bank
  6
Continuous
 62
   250
370
     0
100
AcDbTrace
 10
525968.856146
 20
1918741.041276
 30
0.0
 11
525969.211105
 21
1918740.87393
 31
0.0
 12
525969.66161
 22
1918742.289625
 32
0.0
 13
525969.66161
 23
1918742.289625
 33
0.0
  0
SOLID
  5
34E0
330
3FD8
100
AcDbEntity
  8
Topography_bank
  6
Continuous
 62
   250
370
     0
100
AcDbTrace
 10
525967.19907
 20
1918741.822508
 30
0.0
 11
525967.554029
 21
1918741.655161
 31
0.0
 12
525968.004534
 22
1918743.070857
 32
0.0
 13
525968.004534
 23
1918743.070857
 33
0.0
  0
SOLID
  5
34E1
330
3FD8
100
AcDbEntity
  8
Topography_bank
  6
Continuous
 62
   250
370
     0
100
AcDbTrace
 10
525965.541994
 20
1918742.60374
 30
0.0
 11
525965.896953
 21
1918742.436393
 31
0.0
 12
525966.347458
 22
1918743.852088
 32
0.0
 13
525966.347458
 23
1918743.852088
 33
0.0
  0
SOLID
  5
34E2
330
3FD8
100
AcDbEntity
  8
Topography_bank
  6
Continuous
 62
   250
370
     0
100
AcDbTrace
 10
525963.883214
 20
1918743.381269
 30
0.0
 11
525964.241223
 21
1918743.22055
 31
0.0
 12
525964.665336
 22
1918744.644374
 32
0.0
 13
525964.665336
 23
1918744.644374
 33
0.0
  0
SOLID
  5
34E3
330
3FD8
100
AcDbEntity
  8
Topography_bank
  6
Continuous
 62
   250
370
     0
100
AcDbTrace
 10
525962.209131
 20
1918744.123226
 30
0.0
 11
525962.556783
 21
1918743.941184
 31
0.0
 12
525963.06609
 22
1918745.336804
 32
0.0
 13
525963.06609
 23
1918745.336804
 33
0.0
  0
SOLID
  5
34E4
330
3FD8
100
AcDbEntity
  8
Topography_bank
  6
Continuous
 62
   250
370
     0
100
AcDbTrace
 10
525960.586171
 20
1918744.973064
 30
0.0
 11
525960.933823
 21
1918744.791021
 31
0.0
 12
525961.443129
 22
1918746.186641
 32
0.0
 13
525961.443129
 23
1918746.186641
 33
0.0
  0
SOLID
  5
34E5
330
3FD8
100
AcDbEntity
  8
Topography_bank
  6
Continuous
 62
   250
370
     0
100
AcDbTrace
 10
525958.963211
 20
1918745.822901
 30
0.0
 11
525959.310863
 21
1918745.640859
 31
0.0
 12
525959.820169
 22
1918747.036479
 32
0.0
 13
525959.820169
 23
1918747.036479
 33
0.0
  0
SOLID
  5
34E6
330
3FD8
100
AcDbEntity
  8
Topography_bank
  6
Continuous
 62
   250
370
     0
100
AcDbTrace
 10
525957.34025
 20
1918746.672739
 30
0.0
 11
525957.687902
 21
1918746.490696
 31
0.0
 12
525958.197209
 22
1918747.886316
 32
0.0
 13
525958.197209
 23
1918747.886316
 33
0.0
  0
SOLID
  5
34E7
330
3FD8
100
AcDbEntity
  8
Topography_bank
  6
Continuous
 62
   250
370
     0
100
AcDbTrace
 10
525955.71729
 20
1918747.522576
 30
0.0
 11
525956.064942
 21
1918747.340533
 31
0.0
 12
525956.574248
 22
1918748.736153
 32
0.0
 13
525956.574248
 23
1918748.736153
 33
0.0
  0
SOLID
  5
34E8
330
3FD8
100
AcDbEntity
  8
Topography_bank
  6
Continuous
 62
   250
370
     0
100
AcDbTrace
 10
525954.037476
 20
1918748.250249
 30
0.0
 11
525954.400858
 21
1918748.102078
 31
0.0
 12
525954.775192
 22
1918749.539792
 32
0.0
 13
525954.775192
 23
1918749.539792
 33
0.0
  0
SOLID
  5
34E9
330
3FD8
100
AcDbEntity
  8
Topography_bank
  6
Continuous
 62
   250
370
     0
100
AcDbTrace
 10
525952.34108
 20
1918748.941961
 30
0.0
 11
525952.704463
 21
1918748.79379
 31
0.0
 12
525953.078796
 22
1918750.231504
 32
0.0
 13
525953.078796
 23
1918750.231504
 33
0.0
  0
SOLID
  5
34EA
330
3FD8
100
AcDbEntity
  8
Topography_bank
  6
Continuous
 62
   250
370
     0
100
AcDbTrace
 10
525950.643992
 20
1918749.631969
 30
0.0
 11
525951.007912
 21
1918749.485122
 31
0.0
 12
525951.37701
 22
1918750.924189
 32
0.0
 13
525951.37701
 23
1918750.924189
 33
0.0
  0
SOLID
  5
34EB
330
3FD8
100
AcDbEntity
  8
Topography_bank
  6
Continuous
 62
   250
370
     0
100
AcDbTrace
 10
-525948.854997
 20
1918749.27977
 30
0.0
 11
-525949.236807
 21
1918749.370448
 31
0.0
 12
-525948.705626
 22
1918750.757889
 32
0.0
 13
-525948.705626
 23
1918750.757889
 33
0.0
210
0.0
220
0.0
230
-1.0
  0
SOLID
  5
34EC
330
3FD8
100
AcDbEntity
  8
Topography_bank
  6
Continuous
 62
   250
370
     0
100
AcDbTrace
 10
-525947.259941
 20
1918748.446961
 30
0.0
 11
-525947.56495
 21
1918748.693883
 31
0.0
 12
-525946.485848
 22
1918749.715002
 32
0.0
 13
-525946.485848
 23
1918749.715002
 33
0.0
210
0.0
220
0.0
230
-1.0
  0
SOLID
  5
34ED
330
3FD8
100
AcDbEntity
  8
Topography_bank
  6
Continuous
 62
   250
370
     0
100
AcDbTrace
 10
-525945.879473
 20
1918747.244515
 30
0.0
 11
-525946.164277
 21
1918747.514492
 31
0.0
 12
-525945.008759
 22
1918748.448262
 32
0.0
 13
-525945.008759
 23
1918748.448262
 33
0.0
210
0.0
220
0.0
230
-1.0
  0
SOLID
  5
34EE
330
3FD8
100
AcDbEntity
  8
Topography_bank
  6
Continuous
 62
   250
370
     0
100
AcDbTrace
 10
-525944.549905
 20
1918745.984168
 30
0.0
 11
-525944.83471
 21
1918746.254145
 31
0.0
 12
-525943.679192
 22
1918747.187915
 32
0.0
 13
-525943.679192
 23
1918747.187915
 33
0.0
210
0.0
220
0.0
230
-1.0
  0
SOLID
  5
34EF
330
3FD8
100
AcDbEntity
  8
Topography_bank
  6
Continuous
 62
   250
370
     0
100
AcDbTrace
 10
-525943.220338
 20
1918744.723822
 30
0.0
 11
-525943.505142
 21
1918744.993799
 31
0.0
 12
-525942.349624
 22
1918745.927568
 32
0.0
 13
-525942.349624
 23
1918745.927568
 33
0.0
210
0.0
220
0.0
230
-1.0
  0
SOLID
  5
34F0
330
3FD8
100
AcDbEntity
  8
Topography_bank
  6
Continuous
 62
   250
370
     0
100
AcDbTrace
 10
-525941.89077
 20
1918743.463475
 30
0.0
 11
-525942.175575
 21
1918743.733452
 31
0.0
 12
-525941.020057
 22
1918744.667221
 32
0.0
 13
-525941.020057
 23
1918744.667221
 33
0.0
210
0.0
220
0.0
230
-1.0
  0
LWPOLYLINE
  5
34F2
330
3FD8
100
AcDbEntity
  8
Topography_bank
  6
Continuous
 62
   250
370
     0
100
AcDbPolyline
 90
        2
 70
   128
 43
0.0
 10
525976.900498
 20
1918736.273607
 10
525976.11953
 20
1918736.749229
  0
LWPOLYLINE
  5
34F3
330
3FD8
100
AcDbEntity
  8
Topography_bank
  6
Continuous
 62
   250
370
     0
100
AcDbPolyline
 90
        2
 70
   128
 43
0.0
 10
525975.335828
 20
1918737.226515
 10
525974.55486
 20
1918737.702137
  0
LWPOLYLINE
  5
34F4
330
3FD8
100
AcDbEntity
  8
Topography_bank
  6
Continuous
 62
   250
370
     0
100
AcDbPolyline
 90
        2
 70
   128
 43
0.0
 10
525973.771159
 20
1918738.179424
 10
525972.990191
 20
1918738.655045
  0
LWPOLYLINE
  5
34F5
330
3FD8
100
AcDbEntity
  8
Topography_bank
  6
Continuous
 62
   250
370
     0
100
AcDbPolyline
 90
        2
 70
   128
 43
0.0
 10
525972.20649
 20
1918739.132332
 10
525971.425522
 20
1918739.607953
  0
LWPOLYLINE
  5
34F6
330
3FD8
100
AcDbEntity
  8
Topography_bank
  6
Continuous
 62
   250
370
     0
100
AcDbPolyline
 90
        2
 70
   128
 43
0.0
 10
525970.64182
 20
1918740.08524
 10
525969.860852
 20
1918740.560862
  0
LWPOLYLINE
  5
34F7
330
3FD8
100
AcDbEntity
  8
Topography_bank
  6
Continuous
 62
   250
370
     0
100
AcDbPolyline
 90
        2
 70
   128
 43
0.0
 10
525969.033626
 20
1918740.957603
 10
525968.206535
 20
1918741.347536
  0
LWPOLYLINE
  5
34F8
330
3FD8
100
AcDbEntity
  8
Topography_bank
  6
Continuous
 62
   250
370
     0
100
AcDbPolyline
 90
        2
 70
   128
 43
0.0
 10
525967.37655
 20
1918741.738835
 10
525966.549459
 20
1918742.128768
  0
LWPOLYLINE
  5
34F9
330
3FD8
100
AcDbEntity
  8
Topography_bank
  6
Continuous
 62
   250
370
     0
100
AcDbPolyline
 90
        2
 70
   128
 43
0.0
 10
525965.719474
 20
1918742.520066
 10
525964.892383
 20
1918742.91
  0
LWPOLYLINE
  5
34FA
330
3FD8
100
AcDbEntity
  8
Topography_bank
  6
Continuous
 62
   250
370
     0
100
AcDbPolyline
 90
        3
 70
   128
 43
0.0
 10
525964.062219
 20
1918743.300909
 10
525964.049301
 20
1918743.306709
 10
525963.221312
 20
1918743.660073
  0
LWPOLYLINE
  5
34FB
330
3FD8
100
AcDbEntity
  8
Topography_bank
  6
Continuous
 62
   250
370
     0
100
AcDbPolyline
 90
        2
 70
   128
 43
0.0
 10
525962.382957
 20
1918744.032205
 10
525961.572895
 20
1918744.456382
  0
LWPOLYLINE
  5
34FC
330
3FD8
100
AcDbEntity
  8
Topography_bank
  6
Continuous
 62
   250
370
     0
100
AcDbPolyline
 90
        2
 70
   128
 43
0.0
 10
525960.759997
 20
1918744.882043
 10
525959.949934
 20
1918745.306219
  0
LWPOLYLINE
  5
34FD
330
3FD8
100
AcDbEntity
  8
Topography_bank
  6
Continuous
 62
   250
370
     0
100
AcDbPolyline
 90
        2
 70
   128
 43
0.0
 10
525959.137037
 20
1918745.73188
 10
525958.326974
 20
1918746.156056
  0
LWPOLYLINE
  5
34FE
330
3FD8
100
AcDbEntity
  8
Topography_bank
  6
Continuous
 62
   250
370
     0
100
AcDbPolyline
 90
        2
 70
   128
 43
0.0
 10
525957.514076
 20
1918746.581717
 10
525956.704013
 20
1918747.005894
  0
LWPOLYLINE
  5
34FF
330
3FD8
100
AcDbEntity
  8
Topography_bank
  6
Continuous
 62
   250
370
     0
100
AcDbPolyline
 90
        4
 70
   128
 43
0.0
 10
525955.891116
 20
1918747.431555
 10
525955.390815
 20
1918747.693529
 10
525955.304502
 20
1918747.733614
 10
525955.068847
 20
1918747.829703
  0
LWPOLYLINE
  5
3500
330
3FD8
100
AcDbEntity
  8
Topography_bank
  6
Continuous
 62
   250
370
     0
100
AcDbPolyline
 90
        2
 70
   128
 43
0.0
 10
525954.219167
 20
1918748.176163
 10
525953.372451
 20
1918748.521415
  0
LWPOLYLINE
  5
3501
330
3FD8
100
AcDbEntity
  8
Topography_bank
  6
Continuous
 62
   250
370
     0
100
AcDbPolyline
 90
        2
 70
   128
 43
0.0
 10
525952.522771
 20
1918748.867875
 10
525951.676055
 20
1918749.213127
  0
LWPOLYLINE
  5
3502
330
3FD8
100
AcDbEntity
  8
Topography_bank
  6
Continuous
 62
   250
370
     0
100
AcDbPolyline
 90
        8
 70
   128
 43
0.0
 10
525950.825952
 20
1918749.558545
 10
525950.727149
 20
1918749.598414
 10
525950.646746
 20
1918749.630174
 10
525950.646111
 20
1918749.630353
 10
525950.428509
 20
1918749.648692
 10
525950.354648
 20
1918749.632297
 10
525950.150178
 20
1918749.584954
 10
525949.939038
 20
1918749.535578
  0
LWPOLYLINE
  5
3503
330
3FD8
100
AcDbEntity
  8
Topography_bank
  6
Continuous
 62
   250
370
     0
100
AcDbPolyline
 90
        6
 70
   128
 43
0.0
 10
525949.045902
 20
1918749.325109
 10
525948.800037
 20
1918749.266718
 10
525948.578355
 20
1918749.213614
 10
525948.484011
 20
1918749.190363
 10
525948.482155
 20
1918749.189806
 10
525948.167798
 20
1918749.075079
  0
LWPOLYLINE
  5
3504
330
3FD8
100
AcDbEntity
  8
Topography_bank
  6
Continuous
 62
   250
370
     0
100
AcDbPolyline
 90
        3
 70
   128
 43
0.0
 10
525947.412446
 20
1918748.570422
 10
525947.210615
 20
1918748.40703
 10
525946.702267
 20
1918747.994424
  0
LWPOLYLINE
  5
3505
330
3FD8
100
AcDbEntity
  8
Topography_bank
  6
Continuous
 62
   250
370
     0
100
AcDbPolyline
 90
        2
 70
   128
 43
0.0
 10
525946.021875
 20
1918747.379504
 10
525945.358253
 20
1918746.750431
  0
LWPOLYLINE
  5
3506
330
3FD8
100
AcDbEntity
  8
Topography_bank
  6
Continuous
 62
   250
370
     0
100
AcDbPolyline
 90
        2
 70
   128
 43
0.0
 10
525944.692308
 20
1918746.119157
 10
525944.028685
 20
1918745.490084
  0
LWPOLYLINE
  5
3507
330
3FD8
100
AcDbEntity
  8
Topography_bank
  6
Continuous
 62
   250
370
     0
100
AcDbPolyline
 90
        2
 70
   128
 43
0.0
 10
525943.36274
 20
1918744.85881
 10
525942.699117
 20
1918744.229737
  0
LWPOLYLINE
  5
3508
330
3FD8
100
AcDbEntity
  8
Topography_bank
  6
Continuous
 62
   250
370
     0
100
AcDbPolyline
 90
        2
 70
   128
 43
0.0
 10
525942.033172
 20
1918743.598463
 10
525941.36955
 20
1918742.969391
  0
LWPOLYLINE
  5
3509
330
3FD8
100
AcDbEntity
  8
Topography_bank
  6
Continuous
 62
   250
370
     0
100
AcDbPolyline
 90
        2
 70
   128
 43
0.0
 10
525977.681466
 20
1918735.797986
 10
525976.900498
 20
1918736.273607
  0
LWPOLYLINE
  5
350A
330
3FD8
100
AcDbEntity
  8
Topography_bank
  6
Continuous
 62
   250
370
     0
100
AcDbPolyline
 90
        2
 70
   128
 43
0.0
 10
525976.116797
 20
1918736.750894
 10
525975.335828
 20
1918737.226515
  0
LWPOLYLINE
  5
350B
330
3FD8
100
AcDbEntity
  8
Topography_bank
  6
Continuous
 62
   250
370
     0
100
AcDbPolyline
 90
        2
 70
   128
 43
0.0
 10
525974.552127
 20
1918737.703802
 10
525973.771159
 20
1918738.179424
  0
LWPOLYLINE
  5
350C
330
3FD8
100
AcDbEntity
  8
Topography_bank
  6
Continuous
 62
   250
370
     0
100
AcDbPolyline
 90
        2
 70
   128
 43
0.0
 10
525972.987458
 20
1918738.65671
 10
525972.20649
 20
1918739.132332
  0
LWPOLYLINE
  5
350D
330
3FD8
100
AcDbEntity
  8
Topography_bank
  6
Continuous
 62
   250
370
     0
100
AcDbPolyline
 90
        2
 70
   128
 43
0.0
 10
525971.422789
 20
1918739.609618
 10
525970.64182
 20
1918740.08524
  0
LWPOLYLINE
  5
350E
330
3FD8
100
AcDbEntity
  8
Topography_bank
  6
Continuous
 62
   250
370
     0
100
AcDbPolyline
 90
        4
 70
   128
 43
0.0
 10
525969.858119
 20
1918740.562526
 10
525969.857342
 20
1918740.562999
 10
525969.763632
 20
1918740.61344
 10
525969.033626
 20
1918740.957603
  0
LWPOLYLINE
  5
350F
330
3FD8
100
AcDbEntity
  8
Topography_bank
  6
Continuous
 62
   250
370
     0
100
AcDbPolyline
 90
        2
 70
   128
 43
0.0
 10
525968.20364
 20
1918741.348901
 10
525967.37655
 20
1918741.738835
  0
LWPOLYLINE
  5
3510
330
3FD8
100
AcDbEntity
  8
Topography_bank
  6
Continuous
 62
   250
370
     0
100
AcDbPolyline
 90
        2
 70
   128
 43
0.0
 10
525966.546564
 20
1918742.130133
 10
525965.719474
 20
1918742.520066
  0
LWPOLYLINE
  5
3511
330
3FD8
100
AcDbEntity
  8
Topography_bank
  6
Continuous
 62
   250
370
     0
100
AcDbPolyline
 90
        3
 70
   128
 43
0.0
 10
525964.889488
 20
1918742.911364
 10
525964.083215
 20
1918743.291484
 10
525964.062219
 20
1918743.300909
  0
LWPOLYLINE
  5
3512
330
3FD8
100
AcDbEntity
  8
Topography_bank
  6
Continuous
 62
   250
370
     0
100
AcDbPolyline
 90
        4
 70
   128
 43
0.0
 10
525963.218369
 20
1918743.661329
 10
525962.567399
 20
1918743.939146
 10
525962.496036
 20
1918743.972993
 10
525962.382957
 20
1918744.032205
  0
LWPOLYLINE
  5
3513
330
3FD8
100
AcDbEntity
  8
Topography_bank
  6
Continuous
 62
   250
370
     0
100
AcDbPolyline
 90
        2
 70
   128
 43
0.0
 10
525961.57006
 20
1918744.457866
 10
525960.759997
 20
1918744.882043
  0
LWPOLYLINE
  5
3514
330
3FD8
100
AcDbEntity
  8
Topography_bank
  6
Continuous
 62
   250
370
     0
100
AcDbPolyline
 90
        3
 70
   128
 43
0.0
 10
525959.947099
 20
1918745.307703
 10
525959.620283
 20
1918745.478836
 10
525959.137037
 20
1918745.73188
  0
LWPOLYLINE
  5
3515
330
3FD8
100
AcDbEntity
  8
Topography_bank
  6
Continuous
 62
   250
370
     0
100
AcDbPolyline
 90
        2
 70
   128
 43
0.0
 10
525958.324139
 20
1918746.157541
 10
525957.514076
 20
1918746.581717
  0
LWPOLYLINE
  5
3516
330
3FD8
100
AcDbEntity
  8
Topography_bank
  6
Continuous
 62
   250
370
     0
100
AcDbPolyline
 90
        2
 70
   128
 43
0.0
 10
525956.701179
 20
1918747.007378
 10
525955.891116
 20
1918747.431555
  0
LWPOLYLINE
  5
3517
330
3FD8
100
AcDbEntity
  8
Topography_bank
  6
Continuous
 62
   250
370
     0
100
AcDbPolyline
 90
        2
 70
   128
 43
0.0
 10
525955.065883
 20
1918747.830912
 10
525954.219167
 20
1918748.176163
  0
LWPOLYLINE
  5
3518
330
3FD8
100
AcDbEntity
  8
Topography_bank
  6
Continuous
 62
   250
370
     0
100
AcDbPolyline
 90
        2
 70
   128
 43
0.0
 10
525953.369488
 20
1918748.522624
 10
525952.522771
 20
1918748.867875
  0
LWPOLYLINE
  5
3519
330
3FD8
100
AcDbEntity
  8
Topography_bank
  6
Continuous
 62
   250
370
     0
100
AcDbPolyline
 90
        5
 70
   128
 43
0.0
 10
525951.673092
 20
1918749.214335
 10
525951.573018
 20
1918749.255141
 10
525951.226545
 20
1918749.396216
 10
525950.930246
 20
1918749.516461
 10
525950.825952
 20
1918749.558545
  0
LWPOLYLINE
  5
351A
330
3FD8
100
AcDbEntity
  8
Topography_bank
  6
Continuous
 62
   250
370
     0
100
AcDbPolyline
 90
        5
 70
   128
 43
0.0
 10
525949.935922
 20
1918749.53485
 10
525949.84479
 20
1918749.513538
 10
525949.482831
 20
1918749.428421
 10
525949.116865
 20
1918749.341962
 10
525949.045902
 20
1918749.325109
  0
LWPOLYLINE
  5
351B
330
3FD8
100
AcDbEntity
  8
Topography_bank
  6
Continuous
 62
   250
370
     0
100
AcDbPolyline
 90
        6
 70
   128
 43
0.0
 10
525948.164792
 20
1918749.073982
 10
525947.943569
 20
1918748.993245
 10
525947.879326
 20
1918748.944577
 10
525947.711742
 20
1918748.811413
 10
525947.465152
 20
1918748.61309
 10
525947.412446
 20
1918748.570422
  0
LWPOLYLINE
  5
351C
330
3FD8
100
AcDbEntity
  8
Topography_bank
  6
Continuous
 62
   250
370
     0
100
AcDbPolyline
 90
        4
 70
   128
 43
0.0
 10
525946.699782
 20
1918747.992408
 10
525946.519889
 20
1918747.846396
 10
525946.446088
 20
1918747.781631
 10
525946.021875
 20
1918747.379504
  0
LWPOLYLINE
  5
351D
330
3FD8
100
AcDbEntity
  8
Topography_bank
  6
Continuous
 62
   250
370
     0
100
AcDbPolyline
 90
        2
 70
   128
 43
0.0
 10
525945.35593
 20
1918746.748229
 10
525944.692308
 20
1918746.119157
  0
LWPOLYLINE
  5
351E
330
3FD8
100
AcDbEntity
  8
Topography_bank
  6
Continuous
 62
   250
370
     0
100
AcDbPolyline
 90
        2
 70
   128
 43
0.0
 10
525944.026363
 20
1918745.487883
 10
525943.36274
 20
1918744.85881
  0
LWPOLYLINE
  5
351F
330
3FD8
100
AcDbEntity
  8
Topography_bank
  6
Continuous
 62
   250
370
     0
100
AcDbPolyline
 90
        2
 70
   128
 43
0.0
 10
525942.696795
 20
1918744.227536
 10
525942.033172
 20
1918743.598463
  0
LWPOLYLINE
  5
3520
330
3FD8
100
AcDbEntity
  8
Topography_bank
  6
Continuous
 62
   250
370
     0
100
AcDbPolyline
 90
        2
 70
   128
 43
0.0
 10
525941.367227
 20
1918742.967189
 10
525941.057625
 20
1918742.673706
  0
SOLID
  5
3521
330
3FD8
100
AcDbEntity
  8
Topography_bank
  6
Continuous
 62
   250
370
     0
100
AcDbTrace
 10
525976.732915
 20
1918736.375668
 30
0.0
 11
525977.068081
 21
1918736.171547
 31
0.0
 12
525977.666482
 22
1918737.531349
 32
0.0
 13
525977.666482
 23
1918737.531349
 33
0.0
  0
SOLID
  5
3522
330
3FD8
100
AcDbEntity
  8
Topography_bank
  6
Continuous
 62
   250
370
     0
100
AcDbTrace
 10
525975.168246
 20
1918737.328576
 30
0.0
 11
525975.503411
 21
1918737.124455
 31
0.0
 12
525976.101813
 22
1918738.484257
 32
0.0
 13
525976.101813
 23
1918738.484257
 33
0.0
  0
SOLID
  5
3523
330
3FD8
100
AcDbEntity
  8
Topography_bank
  6
Continuous
 62
   250
370
     0
100
AcDbTrace
 10
525973.603576
 20
1918738.281484
 30
0.0
 11
525973.938742
 21
1918738.077363
 31
0.0
 12
525974.537144
 22
1918739.437166
 32
0.0
 13
525974.537144
 23
1918739.437166
 33
0.0
  0
SOLID
  5
3524
330
3FD8
100
AcDbEntity
  8
Topography_bank
  6
Continuous
 62
   250
370
     0
100
AcDbTrace
 10
525972.038907
 20
1918739.234392
 30
0.0
 11
525972.374072
 21
1918739.030271
 31
0.0
 12
525972.972474
 22
1918740.390074
 32
0.0
 13
525972.972474
 23
1918740.390074
 33
0.0
  0
SOLID
  5
3525
330
3FD8
100
AcDbEntity
  8
Topography_bank
  6
Continuous
 62
   250
370
     0
100
AcDbTrace
 10
525970.474238
 20
1918740.1873
 30
0.0
 11
525970.809403
 21
1918739.983179
 31
0.0
 12
525971.407805
 22
1918741.342982
 32
0.0
 13
525971.407805
 23
1918741.342982
 33
0.0
  0
SOLID
  5
3526
330
3FD8
100
AcDbEntity
  8
Topography_bank
  6
Continuous
 62
   250
370
     0
100
AcDbTrace
 10
525968.856146
 20
1918741.041276
 30
0.0
 11
525969.211105
 21
1918740.87393
 31
0.0
 12
525969.66161
 22
1918742.289625
 32
0.0
 13
525969.66161
 23
1918742.289625
 33
0.0
  0
SOLID
  5
3527
330
3FD8
100
AcDbEntity
  8
Topography_bank
  6
Continuous
 62
   250
370
     0
100
AcDbTrace
 10
525967.19907
 20
1918741.822508
 30
0.0
 11
525967.554029
 21
1918741.655161
 31
0.0
 12
525968.004534
 22
1918743.070857
 32
0.0
 13
525968.004534
 23
1918743.070857
 33
0.0
  0
SOLID
  5
3528
330
3FD8
100
AcDbEntity
  8
Topography_bank
  6
Continuous
 62
   250
370
     0
100
AcDbTrace
 10
525965.541994
 20
1918742.60374
 30
0.0
 11
525965.896953
 21
1918742.436393
 31
0.0
 12
525966.347458
 22
1918743.852088
 32
0.0
 13
525966.347458
 23
1918743.852088
 33
0.0
  0
SOLID
  5
3529
330
3FD8
100
AcDbEntity
  8
Topography_bank
  6
Continuous
 62
   250
370
     0
100
AcDbTrace
 10
525963.883214
 20
1918743.381269
 30
0.0
 11
525964.241223
 21
1918743.22055
 31
0.0
 12
525964.665336
 22
1918744.644374
 32
0.0
 13
525964.665336
 23
1918744.644374
 33
0.0
  0
SOLID
  5
352A
330
3FD8
100
AcDbEntity
  8
Topography_bank
  6
Continuous
 62
   250
370
     0
100
AcDbTrace
 10
525962.209131
 20
1918744.123226
 30
0.0
 11
525962.556783
 21
1918743.941184
 31
0.0
 12
525963.06609
 22
1918745.336804
 32
0.0
 13
525963.06609
 23
1918745.336804
 33
0.0
  0
SOLID
  5
352B
330
3FD8
100
AcDbEntity
  8
Topography_bank
  6
Continuous
 62
   250
370
     0
100
AcDbTrace
 10
525960.586171
 20
1918744.973064
 30
0.0
 11
525960.933823
 21
1918744.791021
 31
0.0
 12
525961.443129
 22
1918746.186641
 32
0.0
 13
525961.443129
 23
1918746.186641
 33
0.0
  0
SOLID
  5
352C
330
3FD8
100
AcDbEntity
  8
Topography_bank
  6
Continuous
 62
   250
370
     0
100
AcDbTrace
 10
525958.963211
 20
1918745.822901
 30
0.0
 11
525959.310863
 21
1918745.640859
 31
0.0
 12
525959.820169
 22
1918747.036479
 32
0.0
 13
525959.820169
 23
1918747.036479
 33
0.0
  0
SOLID
  5
352D
330
3FD8
100
AcDbEntity
  8
Topography_bank
  6
Continuous
 62
   250
370
     0
100
AcDbTrace
 10
525957.34025
 20
1918746.672739
 30
0.0
 11
525957.687902
 21
1918746.490696
 31
0.0
 12
525958.197209
 22
1918747.886316
 32
0.0
 13
525958.197209
 23
1918747.886316
 33
0.0
  0
SOLID
  5
352E
330
3FD8
100
AcDbEntity
  8
Topography_bank
  6
Continuous
 62
   250
370
     0
100
AcDbTrace
 10
525955.71729
 20
1918747.522576
 30
0.0
 11
525956.064942
 21
1918747.340533
 31
0.0
 12
525956.574248
 22
1918748.736153
 32
0.0
 13
525956.574248
 23
1918748.736153
 33
0.0
  0
SOLID
  5
352F
330
3FD8
100
AcDbEntity
  8
Topography_bank
  6
Continuous
 62
   250
370
     0
100
AcDbTrace
 10
525954.037476
 20
1918748.250249
 30
0.0
 11
525954.400858
 21
1918748.102078
 31
0.0
 12
525954.775192
 22
1918749.539792
 32
0.0
 13
525954.775192
 23
1918749.539792
 33
0.0
  0
SOLID
  5
3530
330
3FD8
100
AcDbEntity
  8
Topography_bank
  6
Continuous
 62
   250
370
     0
100
AcDbTrace
 10
525952.34108
 20
1918748.941961
 30
0.0
 11
525952.704463
 21
1918748.79379
 31
0.0
 12
525953.078796
 22
1918750.231504
 32
0.0
 13
525953.078796
 23
1918750.231504
 33
0.0
  0
SOLID
  5
3531
330
3FD8
100
AcDbEntity
  8
Topography_bank
  6
Continuous
 62
   250
370
     0
100
AcDbTrace
 10
525950.643992
 20
1918749.631969
 30
0.0
 11
525951.007912
 21
1918749.485122
 31
0.0
 12
525951.37701
 22
1918750.924189
 32
0.0
 13
525951.37701
 23
1918750.924189
 33
0.0
  0
SOLID
  5
3532
330
3FD8
100
AcDbEntity
  8
Topography_bank
  6
Continuous
 62
   250
370
     0
100
AcDbTrace
 10
-525948.854997
 20
1918749.27977
 30
0.0
 11
-525949.236807
 21
1918749.370448
 31
0.0
 12
-525948.705626
 22
1918750.757889
 32
0.0
 13
-525948.705626
 23
1918750.757889
 33
0.0
210
0.0
220
0.0
230
-1.0
  0
SOLID
  5
3533
330
3FD8
100
AcDbEntity
  8
Topography_bank
  6
Continuous
 62
   250
370
     0
100
AcDbTrace
 10
-525947.259941
 20
1918748.446961
 30
0.0
 11
-525947.56495
 21
1918748.693883
 31
0.0
 12
-525946.485848
 22
1918749.715002
 32
0.0
 13
-525946.485848
 23
1918749.715002
 33
0.0
210
0.0
220
0.0
230
-1.0
  0
SOLID
  5
3534
330
3FD8
100
AcDbEntity
  8
Topography_bank
  6
Continuous
 62
   250
370
     0
100
AcDbTrace
 10
-525945.879473
 20
1918747.244515
 30
0.0
 11
-525946.164277
 21
1918747.514492
 31
0.0
 12
-525945.008759
 22
1918748.448262
 32
0.0
 13
-525945.008759
 23
1918748.448262
 33
0.0
210
0.0
220
0.0
230
-1.0
  0
SOLID
  5
3535
330
3FD8
100
AcDbEntity
  8
Topography_bank
  6
Continuous
 62
   250
370
     0
100
AcDbTrace
 10
-525944.549905
 20
1918745.984168
 30
0.0
 11
-525944.83471
 21
1918746.254145
 31
0.0
 12
-525943.679192
 22
1918747.187915
 32
0.0
 13
-525943.679192
 23
1918747.187915
 33
0.0
210
0.0
220
0.0
230
-1.0
  0
SOLID
  5
3536
330
3FD8
100
AcDbEntity
  8
Topography_bank
  6
Continuous
 62
   250
370
     0
100
AcDbTrace
 10
-525943.220338
 20
1918744.723822
 30
0.0
 11
-525943.505142
 21
1918744.993799
 31
0.0
 12
-525942.349624
 22
1918745.927568
 32
0.0
 13
-525942.349624
 23
1918745.927568
 33
0.0
210
0.0
220
0.0
230
-1.0
  0
SOLID
  5
3537
330
3FD8
100
AcDbEntity
  8
Topography_bank
  6
Continuous
 62
   250
370
     0
100
AcDbTrace
 10
-525941.89077
 20
1918743.463475
 30
0.0
 11
-525942.175575
 21
1918743.733452
 31
0.0
 12
-525941.020057
 22
1918744.667221
 32
0.0
 13
-525941.020057
 23
1918744.667221
 33
0.0
210
0.0
220
0.0
230
-1.0
  0
LWPOLYLINE
  5
38BF
330
3FD8
100
AcDbEntity
  8
Topography_bank
  6
Continuous
 62
   250
370
     0
100
AcDbPolyline
 90
        6
 70
   128
 43
0.0
 10
525954.880456
 20
1918702.070562
 10
525954.778201
 20
1918702.084475
 10
525954.710302
 20
1918702.114547
 10
525954.519878
 20
1918702.199933
 10
525954.234581
 20
1918702.328233
 10
525954.038155
 20
1918702.416711
  0
LWPOLYLINE
  5
38C0
330
3FD8
100
AcDbEntity
  8
Topography_bank
  6
Continuous
 62
   250
370
     0
100
AcDbPolyline
 90
        6
 70
   128
 43
0.0
 10
525953.159884
 20
1918702.485875
 10
525952.851466
 20
1918702.383419
 10
525952.767131
 20
1918702.330275
 10
525952.706791
 20
1918702.287908
 10
525952.5335
 20
1918702.133279
 10
525952.411532
 20
1918701.995848
  0
LWPOLYLINE
  5
38C1
330
3FD8
100
AcDbEntity
  8
Topography_bank
  6
Continuous
 62
   250
370
     0
100
AcDbPolyline
 90
        5
 70
   128
 43
0.0
 10
525951.802448
 20
1918701.309549
 10
525951.746483
 20
1918701.246489
 10
525951.552474
 20
1918700.918498
 10
525951.497238
 20
1918700.657838
 10
525951.483522
 20
1918700.475789
  0
LWPOLYLINE
  5
38C2
330
3FD8
100
AcDbEntity
  8
Topography_bank
  6
Continuous
 62
   250
370
     0
100
AcDbPolyline
 90
        5
 70
   128
 43
0.0
 10
525951.504301
 20
1918699.563677
 10
525951.563894
 20
1918699.259575
 10
525951.575494
 20
1918699.207721
 10
525951.678017
 20
1918698.800527
 10
525951.794492
 20
1918698.739541
  0
LWPOLYLINE
  5
38C3
330
3FD8
100
AcDbEntity
  8
Topography_bank
  6
Continuous
 62
   250
370
     0
100
AcDbPolyline
 90
        5
 70
   128
 43
0.0
 10
525952.607403
 20
1918698.313906
 10
525952.611007
 20
1918698.312019
 10
525952.9761
 20
1918698.202818
 10
525953.125241
 20
1918698.199199
 10
525953.504831
 20
1918698.218345
  0
LWPOLYLINE
  5
38C4
330
3FD8
100
AcDbEntity
  8
Topography_bank
  6
Continuous
 62
   250
370
     0
100
AcDbPolyline
 90
        2
 70
   128
 43
0.0
 10
525954.421672
 20
1918698.231756
 10
525955.335672
 20
1918698.204719
  0
LWPOLYLINE
  5
38C5
330
3FD8
100
AcDbEntity
  8
Topography_bank
  6
Continuous
 62
   250
370
     0
100
AcDbPolyline
 90
        2
 70
   128
 43
0.0
 10
525956.252871
 20
1918698.177588
 10
525956.408419
 20
1918698.172987
  0
LWPOLYLINE
  5
38C6
330
3FD8
100
AcDbEntity
  8
Topography_bank
  6
Continuous
 62
   250
370
     0
100
AcDbPolyline
 90
        2
 70
   128
 43
0.0
 10
525955.786507
 20
1918701.947278
 10
525954.880456
 20
1918702.070562
  0
LWPOLYLINE
  5
38C7
330
3FD8
100
AcDbEntity
  8
Topography_bank
  6
Continuous
 62
   250
370
     0
100
AcDbPolyline
 90
        6
 70
   128
 43
0.0
 10
525954.035238
 20
1918702.418026
 10
525953.895841
 20
1918702.480816
 10
525953.866027
 20
1918702.494255
 10
525953.704092
 20
1918702.567255
 10
525953.213108
 20
1918702.503555
 10
525953.159884
 20
1918702.485875
  0
LWPOLYLINE
  5
38C8
330
3FD8
100
AcDbEntity
  8
Topography_bank
  6
Continuous
 62
   250
370
     0
100
AcDbPolyline
 90
        2
 70
   128
 43
0.0
 10
525952.409408
 20
1918701.993455
 10
525951.802448
 20
1918701.309549
  0
LWPOLYLINE
  5
38C9
330
3FD8
100
AcDbEntity
  8
Topography_bank
  6
Continuous
 62
   250
370
     0
100
AcDbPolyline
 90
        5
 70
   128
 43
0.0
 10
525951.483282
 20
1918700.472598
 10
525951.481118
 20
1918700.443882
 10
525951.449811
 20
1918700.028349
 10
525951.46565
 20
1918699.760916
 10
525951.504301
 20
1918699.563677
  0
LWPOLYLINE
  5
38CA
330
3FD8
100
AcDbEntity
  8
Topography_bank
  6
Continuous
 62
   250
370
     0
100
AcDbPolyline
 90
        2
 70
   128
 43
0.0
 10
525951.797327
 20
1918698.738056
 10
525952.607403
 20
1918698.313906
  0
LWPOLYLINE
  5
38CB
330
3FD8
100
AcDbEntity
  8
Topography_bank
  6
Continuous
 62
   250
370
     0
100
AcDbPolyline
 90
        4
 70
   128
 43
0.0
 10
525953.508027
 20
1918698.218507
 10
525953.971378
 20
1918698.241879
 10
525954.051323
 20
1918698.242711
 10
525954.421672
 20
1918698.231756
  0
LWPOLYLINE
  5
38CC
330
3FD8
100
AcDbEntity
  8
Topography_bank
  6
Continuous
 62
   250
370
     0
100
AcDbPolyline
 90
        2
 70
   128
 43
0.0
 10
525955.338871
 20
1918698.204625
 10
525956.252871
 20
1918698.177588
  0
SOLID
  5
38CD
330
3FD8
100
AcDbEntity
  8
Topography_bank
  6
Continuous
 62
   250
370
     0
100
AcDbTrace
 10
525954.686032
 20
1918702.097016
 30
0.0
 11
525955.074879
 21
1918702.044107
 31
0.0
 12
525955.079003
 22
1918703.529748
 32
0.0
 13
525955.079003
 23
1918703.529748
 33
0.0
  0
SOLID
  5
38CE
330
3FD8
100
AcDbEntity
  8
Topography_bank
  6
Continuous
 62
   250
370
     0
100
AcDbTrace
 10
-525952.973675
 20
1918702.424016
 30
0.0
 11
-525953.346094
 21
1918702.547733
 31
0.0
 12
-525952.695626
 22
1918703.883412
 32
0.0
 13
-525952.695626
 23
1918703.883412
 33
0.0
210
0.0
220
0.0
230
-1.0
  0
SOLID
  5
38CF
330
3FD8
100
AcDbEntity
  8
Topography_bank
  6
Continuous
 62
   250
370
     0
100
AcDbTrace
 10
-525951.672205
 20
1918701.162794
 30
0.0
 11
-525951.932692
 21
1918701.456304
 31
0.0
 12
-525950.701024
 22
1918702.287052
 32
0.0
 13
-525950.701024
 23
1918702.287052
 33
0.0
210
0.0
220
0.0
230
-1.0
  0
SOLID
  5
38D0
330
3FD8
100
AcDbEntity
  8
Topography_bank
  6
Continuous
 62
   250
370
     0
100
AcDbTrace
 10
525951.542034
 20
1918699.371124
 30
0.0
 11
525951.466568
 21
1918699.75623
 31
0.0
 12
525950.059155
 22
1918699.280483
 32
0.0
 13
525950.059155
 23
1918699.280483
 33
0.0
  0
SOLID
  5
38D1
330
3FD8
100
AcDbEntity
  8
Topography_bank
  6
Continuous
 62
   250
370
     0
100
AcDbTrace
 10
-525952.781232
 20
1918698.22289
 30
0.0
 11
-525952.433574
 21
1918698.404921
 31
0.0
 12
-525951.924312
 22
1918697.009285
 32
0.0
 13
-525951.924312
 23
1918697.009285
 33
0.0
210
0.0
220
0.0
230
-1.0
  0
SOLID
  5
38D2
330
3FD8
100
AcDbEntity
  8
Topography_bank
  6
Continuous
 62
   250
370
     0
100
AcDbTrace
 10
-525954.617801
 20
1918698.225954
 30
0.0
 11
-525954.225543
 21
1918698.237558
 31
0.0
 12
-525954.378129
 22
1918696.759767
 32
0.0
 13
-525954.378129
 23
1918696.759767
 33
0.0
210
0.0
220
0.0
230
-1.0
  0
SOLID
  5
38D3
330
3FD8
100
AcDbEntity
  8
Topography_bank
  6
Continuous
 62
   250
370
     0
100
AcDbTrace
 10
-525956.449
 20
1918698.171786
 30
0.0
 11
-525956.056742
 21
1918698.183389
 31
0.0
 12
-525956.209328
 22
1918696.705599
 32
0.0
 13
-525956.209328
 23
1918696.705599
 33
0.0
210
0.0
220
0.0
230
-1.0
  0
LWPOLYLINE
  5
38E6
330
3FD8
100
AcDbEntity
  8
Topography_bank
  6
Continuous
 62
   250
370
     0
100
AcDbPolyline
 90
        2
 70
   128
 43
0.0
 10
525981.746245
 20
1918715.523645
 10
525980.927164
 20
1918715.930134
  0
LWPOLYLINE
  5
38E7
330
3FD8
100
AcDbEntity
  8
Topography_bank
  6
Continuous
 62
   250
370
     0
100
AcDbPolyline
 90
        4
 70
   128
 43
0.0
 10
525980.105217
 20
1918716.338046
 10
525979.400108
 20
1918716.687974
 10
525979.296705
 20
1918716.732229
 10
525979.28283
 20
1918716.737264
  0
LWPOLYLINE
  5
38E8
330
3FD8
100
AcDbEntity
  8
Topography_bank
  6
Continuous
 62
   250
370
     0
100
AcDbPolyline
 90
        3
 70
   128
 43
0.0
 10
525978.420275
 20
1918717.050294
 10
525977.65341
 20
1918717.328596
 10
525977.565279
 20
1918717.372805
  0
LWPOLYLINE
  5
38E9
330
3FD8
100
AcDbEntity
  8
Topography_bank
  6
Continuous
 62
   250
370
     0
100
AcDbPolyline
 90
        2
 70
   128
 43
0.0
 10
525976.790784
 20
1918717.863429
 10
525976.026812
 20
1918718.365897
  0
LWPOLYLINE
  5
38EA
330
3FD8
100
AcDbEntity
  8
Topography_bank
  6
Continuous
 62
   250
370
     0
100
AcDbPolyline
 90
        2
 70
   128
 43
0.0
 10
525975.2514
 20
1918718.855781
 10
525974.453376
 20
1918719.302195
  0
LWPOLYLINE
  5
38EB
330
3FD8
100
AcDbEntity
  8
Topography_bank
  6
Continuous
 62
   250
370
     0
100
AcDbPolyline
 90
        2
 70
   128
 43
0.0
 10
525982.565326
 20
1918715.117155
 10
525981.746245
 20
1918715.523645
  0
LWPOLYLINE
  5
38EC
330
3FD8
100
AcDbEntity
  8
Topography_bank
  6
Continuous
 62
   250
370
     0
100
AcDbPolyline
 90
        2
 70
   128
 43
0.0
 10
525980.924298
 20
1918715.931557
 10
525980.105217
 20
1918716.338046
  0
LWPOLYLINE
  5
38ED
330
3FD8
100
AcDbEntity
  8
Topography_bank
  6
Continuous
 62
   250
370
     0
100
AcDbPolyline
 90
        2
 70
   128
 43
0.0
 10
525979.279822
 20
1918716.738356
 10
525978.420275
 20
1918717.050294
  0
LWPOLYLINE
  5
38EE
330
3FD8
100
AcDbEntity
  8
Topography_bank
  6
Continuous
 62
   250
370
     0
100
AcDbPolyline
 90
        3
 70
   128
 43
0.0
 10
525977.562419
 20
1918717.37424
 10
525977.445043
 20
1918717.433119
 10
525976.790784
 20
1918717.863429
  0
LWPOLYLINE
  5
38EF
330
3FD8
100
AcDbEntity
  8
Topography_bank
  6
Continuous
 62
   250
370
     0
100
AcDbPolyline
 90
        4
 70
   128
 43
0.0
 10
525976.024139
 20
1918718.367655
 10
525975.485944
 20
1918718.721629
 10
525975.424643
 20
1918718.758868
 10
525975.2514
 20
1918718.855781
  0
LWPOLYLINE
  5
38F0
330
3FD8
100
AcDbEntity
  8
Topography_bank
  6
Continuous
 62
   250
370
     0
100
AcDbPolyline
 90
        2
 70
   128
 43
0.0
 10
525974.450583
 20
1918719.303757
 10
525973.747902
 20
1918719.696837
  0
SOLID
  5
38F1
330
3FD8
100
AcDbEntity
  8
Topography_bank
  6
Continuous
 62
   250
370
     0
100
AcDbTrace
 10
525981.570484
 20
1918715.610871
 30
0.0
 11
525981.922006
 21
1918715.436419
 31
0.0
 12
525982.400893
 22
1918716.842767
 32
0.0
 13
525982.400893
 23
1918716.842767
 33
0.0
  0
SOLID
  5
38F2
330
3FD8
100
AcDbEntity
  8
Topography_bank
  6
Continuous
 62
   250
370
     0
100
AcDbTrace
 10
525979.929456
 20
1918716.425272
 30
0.0
 11
525980.280978
 21
1918716.25082
 31
0.0
 12
525980.759864
 22
1918717.657169
 32
0.0
 13
525980.759864
 23
1918717.657169
 33
0.0
  0
SOLID
  5
38F3
330
3FD8
100
AcDbEntity
  8
Topography_bank
  6
Continuous
 62
   250
370
     0
100
AcDbTrace
 10
525978.23583
 20
1918717.117231
 30
0.0
 11
525978.604719
 21
1918716.983357
 31
0.0
 12
525978.922648
 22
1918718.434587
 32
0.0
 13
525978.922648
 23
1918718.434587
 33
0.0
  0
SOLID
  5
38F4
330
3FD8
100
AcDbEntity
  8
Topography_bank
  6
Continuous
 62
   250
370
     0
100
AcDbTrace
 10
525976.626849
 20
1918717.97125
 30
0.0
 11
525976.95472
 21
1918717.755607
 31
0.0
 12
525977.600005
 22
1918719.093798
 32
0.0
 13
525977.600005
 23
1918719.093798
 33
0.0
  0
SOLID
  5
38F5
330
3FD8
100
AcDbEntity
  8
Topography_bank
  6
Continuous
 62
   250
370
     0
100
AcDbTrace
 10
525975.080157
 20
1918718.951574
 30
0.0
 11
525975.422642
 21
1918718.759987
 31
0.0
 12
525975.970346
 22
1918720.14099
 32
0.0
 13
525975.970346
 23
1918720.14099
 33
0.0
  0
LWPOLYLINE
  5
3C16
330
3FD8
100
AcDbEntity
  8
Topography_bank
  6
Continuous
 62
   250
370
     0
100
AcDbPolyline
 90
        3
 70
   128
 43
0.0
 10
525939.870189
 20
1918686.941694
 10
525939.988537
 20
1918687.042585
 10
525940.740016
 20
1918687.683212
  0
LWPOLYLINE
  5
3C17
330
3FD8
100
AcDbEntity
  8
Topography_bank
  6
Continuous
 62
   250
370
     0
100
AcDbPolyline
 90
        4
 70
   128
 43
0.0
 10
525941.650846
 20
1918688.37934
 10
525941.71245
 20
1918688.424498
 10
525942.324071
 20
1918688.757968
 10
525942.666831
 20
1918688.897293
  0
LWPOLYLINE
  5
3C18
330
3FD8
100
AcDbEntity
  8
Topography_bank
  6
Continuous
 62
   250
370
     0
100
AcDbPolyline
 90
        3
 70
   128
 43
0.0
 10
525943.780097
 20
1918689.146175
 10
525944.295539
 20
1918689.163809
 10
525944.917915
 20
1918689.085709
  0
LWPOLYLINE
  5
3C19
330
3FD8
100
AcDbEntity
  8
Topography_bank
  6
Continuous
 62
   250
370
     0
100
AcDbPolyline
 90
        3
 70
   128
 43
0.0
 10
525946.052456
 20
1918688.918772
 10
525946.641185
 20
1918688.820132
 10
525947.183205
 20
1918688.753789
  0
LWPOLYLINE
  5
3C1A
330
3FD8
100
AcDbEntity
  8
Topography_bank
  6
Continuous
 62
   250
370
     0
100
AcDbPolyline
 90
        4
 70
   128
 43
0.0
 10
525948.301033
 20
1918688.514943
 10
525948.332549
 20
1918688.504482
 10
525949.286733
 20
1918688.001164
 10
525949.313422
 20
1918687.985395
  0
LWPOLYLINE
  5
3C1B
330
3FD8
100
AcDbEntity
  8
Topography_bank
  6
Continuous
 62
   250
370
     0
100
AcDbPolyline
 90
        3
 70
   128
 43
0.0
 10
525950.301767
 20
1918687.403368
 10
525951.278823
 20
1918686.846463
 10
525951.294688
 20
1918686.837192
  0
LWPOLYLINE
  5
3C1C
330
3FD8
100
AcDbEntity
  8
Topography_bank
  6
Continuous
 62
   250
370
     0
100
AcDbPolyline
 90
        8
 70
   128
 43
0.0
 10
525952.28498
 20
1918686.25846
 10
525952.340467
 20
1918686.226033
 10
525952.415833
 20
1918686.150201
 10
525952.467035
 20
1918685.953576
 10
525952.477732
 20
1918685.606967
 10
525952.513545
 20
1918685.458438
 10
525952.606721
 20
1918685.35598
 10
525952.722789
 20
1918685.296136
  0
LWPOLYLINE
  5
3C1D
330
3FD8
100
AcDbEntity
  8
Topography_bank
  6
Continuous
 62
   250
370
     0
100
AcDbPolyline
 90
        3
 70
   128
 43
0.0
 10
525953.74665
 20
1918684.779405
 10
525954.397914
 20
1918684.472448
 10
525954.7861
 20
1918684.304342
  0
LWPOLYLINE
  5
3C1E
330
3FD8
100
AcDbEntity
  8
Topography_bank
  6
Continuous
 62
   250
370
     0
100
AcDbPolyline
 90
        3
 70
   128
 43
0.0
 10
525955.838643
 20
1918683.848534
 10
525955.952456
 20
1918683.799247
 10
525956.881889
 20
1918683.381561
  0
LWPOLYLINE
  5
3C1F
330
3FD8
100
AcDbEntity
  8
Topography_bank
  6
Continuous
 62
   250
370
     0
100
AcDbPolyline
 90
        5
 70
   128
 43
0.0
 10
525957.859667
 20
1918682.808797
 10
525957.875348
 20
1918682.789267
 10
525957.932542
 20
1918682.644454
 10
525958.008857
 20
1918682.254154
 10
525958.085173
 20
1918681.863855
  0
LWPOLYLINE
  5
3C20
330
3FD8
100
AcDbEntity
  8
Topography_bank
  6
Continuous
 62
   250
370
     0
100
AcDbPolyline
 90
        2
 70
   128
 43
0.0
 10
525939.000361
 20
1918686.200176
 10
525939.870189
 20
1918686.941694
  0
LWPOLYLINE
  5
3C21
330
3FD8
100
AcDbEntity
  8
Topography_bank
  6
Continuous
 62
   250
370
     0
100
AcDbPolyline
 90
        3
 70
   128
 43
0.0
 10
525940.74306
 20
1918687.685807
 10
525940.978235
 20
1918687.886291
 10
525941.650846
 20
1918688.37934
  0
LWPOLYLINE
  5
3C22
330
3FD8
100
AcDbEntity
  8
Topography_bank
  6
Continuous
 62
   250
370
     0
100
AcDbPolyline
 90
        4
 70
   128
 43
0.0
 10
525942.670537
 20
1918688.8988
 10
525942.805891
 20
1918688.953818
 10
525943.548989
 20
1918689.138269
 10
525943.780097
 20
1918689.146175
  0
LWPOLYLINE
  5
3C23
330
3FD8
100
AcDbEntity
  8
Topography_bank
  6
Continuous
 62
   250
370
     0
100
AcDbPolyline
 90
        3
 70
   128
 43
0.0
 10
525944.921883
 20
1918689.085211
 10
525945.468407
 20
1918689.016629
 10
525946.052456
 20
1918688.918772
  0
LWPOLYLINE
  5
3C24
330
3FD8
100
AcDbEntity
  8
Topography_bank
  6
Continuous
 62
   250
370
     0
100
AcDbPolyline
 90
        4
 70
   128
 43
0.0
 10
525947.187175
 20
1918688.753303
 10
525947.499155
 20
1918688.715117
 10
525947.922848
 20
1918688.64047
 10
525948.301033
 20
1918688.514943
  0
LWPOLYLINE
  5
3C25
330
3FD8
100
AcDbEntity
  8
Topography_bank
  6
Continuous
 62
   250
370
     0
100
AcDbPolyline
 90
        3
 70
   128
 43
0.0
 10
525949.316866
 20
1918687.98336
 10
525950.209614
 20
1918687.455893
 10
525950.301767
 20
1918687.403368
  0
LWPOLYLINE
  5
3C26
330
3FD8
100
AcDbEntity
  8
Topography_bank
  6
Continuous
 62
   250
370
     0
100
AcDbPolyline
 90
        2
 70
   128
 43
0.0
 10
525951.298142
 20
1918686.835174
 10
525952.28498
 20
1918686.25846
  0
LWPOLYLINE
  5
3C27
330
3FD8
100
AcDbEntity
  8
Topography_bank
  6
Continuous
 62
   250
370
     0
100
AcDbPolyline
 90
        3
 70
   128
 43
0.0
 10
525952.726344
 20
1918685.294303
 10
525953.494447
 20
1918684.898275
 10
525953.74665
 20
1918684.779405
  0
LWPOLYLINE
  5
3C28
330
3FD8
100
AcDbEntity
  8
Topography_bank
  6
Continuous
 62
   250
370
     0
100
AcDbPolyline
 90
        2
 70
   128
 43
0.0
 10
525954.78977
 20
1918684.302753
 10
525955.838643
 20
1918683.848534
  0
LWPOLYLINE
  5
3C29
330
3FD8
100
AcDbEntity
  8
Topography_bank
  6
Continuous
 62
   250
370
     0
100
AcDbPolyline
 90
        4
 70
   128
 43
0.0
 10
525956.885538
 20
1918683.379921
 10
525957.50428
 20
1918683.101859
 10
525957.774398
 20
1918682.914999
 10
525957.859667
 20
1918682.808797
  0
SOLID
  5
3C2A
330
3FD8
100
AcDbEntity
  8
Topography_bank
  6
Continuous
 62
   250
370
     0
100
AcDbTrace
 10
525940.056839
 20
1918687.100812
 30
0.0
 11
525939.683538
 21
1918686.782577
 31
0.0
 12
525941.064397
 22
1918685.540845
 32
0.0
 13
525941.064397
 23
1918685.540845
 33
0.0
  0
SOLID
  5
3C2B
330
3FD8
100
AcDbEntity
  8
Topography_bank
  6
Continuous
 62
   250
370
     0
100
AcDbTrace
 10
525941.848659
 20
1918688.524345
 30
0.0
 11
525941.453032
 21
1918688.234335
 31
0.0
 12
525942.739137
 22
1918686.894708
 32
0.0
 13
525942.739137
 23
1918686.894708
 33
0.0
  0
SOLID
  5
3C2C
330
3FD8
100
AcDbEntity
  8
Topography_bank
  6
Continuous
 62
   250
370
     0
100
AcDbTrace
 10
525944.025223
 20
1918689.154561
 30
0.0
 11
525943.534972
 21
1918689.137789
 31
0.0
 12
525943.843036
 22
1918687.306461
 32
0.0
 13
525943.843036
 23
1918687.306461
 33
0.0
  0
SOLID
  5
3C2D
330
3FD8
100
AcDbEntity
  8
Topography_bank
  6
Continuous
 62
   250
370
     0
100
AcDbTrace
 10
-525946.294353
 20
1918688.878243
 30
0.0
 11
-525945.810559
 21
1918688.959302
 31
0.0
 12
-525945.748274
 22
1918687.103288
 32
0.0
 13
-525945.748274
 23
1918687.103288
 33
0.0
210
0.0
220
0.0
230
-1.0
  0
SOLID
  5
3C2E
330
3FD8
100
AcDbEntity
  8
Topography_bank
  6
Continuous
 62
   250
370
     0
100
AcDbTrace
 10
-525948.533814
 20
1918688.437679
 30
0.0
 11
-525948.068252
 21
1918688.592207
 31
0.0
 12
-525947.721148
 22
1918686.767876
 32
0.0
 13
-525947.721148
 23
1918686.767876
 33
0.0
210
0.0
220
0.0
230
-1.0
  0
SOLID
  5
3C2F
330
3FD8
100
AcDbEntity
  8
Topography_bank
  6
Continuous
 62
   250
370
     0
100
AcDbTrace
 10
-525950.514853
 20
1918687.281913
 30
0.0
 11
-525950.088682
 21
1918687.524823
 31
0.0
 12
-525949.390224
 22
1918685.804118
 32
0.0
 13
-525949.390224
 23
1918685.804118
 33
0.0
210
0.0
220
0.0
230
-1.0
  0
SOLID
  5
3C30
330
3FD8
100
AcDbEntity
  8
Topography_bank
  6
Continuous
 62
   250
370
     0
100
AcDbTrace
 10
-525952.496739
 20
1918686.134706
 30
0.0
 11
-525952.073221
 21
1918686.382213
 31
0.0
 12
-525951.356187
 22
1918684.669166
 32
0.0
 13
-525951.356187
 23
1918684.669166
 33
0.0
210
0.0
220
0.0
230
-1.0
  0
SOLID
  5
3C31
330
3FD8
100
AcDbEntity
  8
Topography_bank
  6
Continuous
 62
   250
370
     0
100
AcDbTrace
 10
-525953.96851
 20
1918684.674837
 30
0.0
 11
-525953.524789
 21
1918684.883974
 31
0.0
 12
-525952.961841
 22
1918683.114297
 32
0.0
 13
-525952.961841
 23
1918683.114297
 33
0.0
210
0.0
220
0.0
230
-1.0
  0
SOLID
  5
3C32
330
3FD8
100
AcDbEntity
  8
Topography_bank
  6
Continuous
 62
   250
370
     0
100
AcDbTrace
 10
-525956.063714
 20
1918683.751066
 30
0.0
 11
-525955.613573
 21
1918683.946002
 31
0.0
 12
-525955.107128
 22
1918682.159334
 32
0.0
 13
-525955.107128
 23
1918682.159334
 33
0.0
210
0.0
220
0.0
230
-1.0
  0
SOLID
  5
3C33
330
3FD8
100
AcDbEntity
  8
Topography_bank
  6
Continuous
 62
   250
370
     0
100
AcDbTrace
 10
525958.013223
 20
1918682.617546
 30
0.0
 11
525957.706111
 21
1918683.000049
 31
0.0
 12
525956.424284
 22
1918681.656328
 32
0.0
 13
525956.424284
 23
1918681.656328
 33
0.0
  0
MTEXT
  5
3C34
330
3FD8
100
AcDbEntity
  8
Datum
 62
   250
100
AcDbMText
 10
525952.033232
 20
1918700.907083
 30
0.0
 40
1.0
 41
0.0
 71
     1
 72
     1
  1
\fGaramond|b0|i0|c0|p23;ramp
 73
     2
 44
0.60006
  0
MTEXT
  5
3C38
330
3FD8
100
AcDbEntity
  8
Legend
 62
   250
100
AcDbMText
 10
525964.577513
 20
1918773.653641
 30
0.0
 40
1.0
 41
0.0
 71
     1
 72
     1
  1
\fGaramond|b0|i0|c0|p23;Modern path
 73
     2
 44
0.722892
  0
MTEXT
  5
3C3B
330
3FD8
100
AcDbEntity
  8
Coordinates
  6
ByBlock
100
AcDbMText
 10
525875.266516
 20
1918807.068403
 30
0.0
 40
1.0
 41
0.0
 71
     1
 72
     1
  1
\fGaramond|b0|i0|c0|p23;878
 11
2.679489636298201E-8
 21
0.9999999999999997
 31
0.0
 73
     2
 44
0.722892
  0
MTEXT
  5
3C3C
330
3FD8
100
AcDbEntity
  8
Coordinates
  6
ByBlock
100
AcDbMText
 10
525869.266516
 20
1918807.068403
 30
0.0
 40
1.0
 41
0.0
 71
     1
 72
     1
  1
\fGaramond|b0|i0|c0|p23;872
 11
2.679489636298201E-8
 21
0.9999999999999997
 31
0.0
 73
     2
 44
0.722892
  0
MTEXT
  5
3C40
330
3FD8
100
AcDbEntity
  8
Coordinates
  6
ByBlock
100
AcDbMText
 10
525865.114541
 20
1918697.790889
 30
0.0
 40
1.0
 41
0.0
 71
     1
 72
     1
  1
\fGaramond|b0|i0|c0|p23;698
 73
     2
 44
0.722892
  0
MTEXT
  5
3C41
330
3FD8
100
AcDbEntity
  8
Coordinates
  6
ByBlock
100
AcDbMText
 10
525865.114541
 20
1918691.790889
 30
0.0
 40
1.0
 41
0.0
 71
     1
 72
     1
  1
\fGaramond|b0|i0|c0|p23;692
 73
     2
 44
0.722892
  0
MTEXT
  5
3C42
330
3FD8
100
AcDbEntity
  8
Coordinates
  6
ByBlock
100
AcDbMText
 10
525865.114541
 20
1918685.790889
 30
0.0
 40
1.0
 41
0.0
 71
     1
 72
     1
  1
\fGaramond|b0|i0|c0|p23;686
 73
     2
 44
0.722892
  0
MTEXT
  5
3C43
330
3FD8
100
AcDbEntity
  8
Coordinates
  6
ByBlock
100
AcDbMText
 10
525865.114541
 20
1918679.790889
 30
0.0
 40
1.0
 41
0.0
 71
     1
 72
     1
  1
\fGaramond|b0|i0|c0|p23;680
 73
     2
 44
0.722892
  0
MTEXT
  5
3C44
330
3FD8
100
AcDbEntity
  8
Coordinates
  6
ByBlock
100
AcDbMText
 10
525865.114541
 20
1918673.790889
 30
0.0
 40
1.0
 41
0.0
 71
     1
 72
     1
  1
\fGaramond|b0|i0|c0|p23;674
 73
     2
 44
0.722892
  0
MTEXT
  5
3C45
330
3FD8
100
AcDbEntity
  8
Coordinates
  6
ByBlock
100
AcDbMText
 10
525865.114541
 20
1918667.790889
 30
0.0
 40
1.0
 41
0.0
 71
     1
 72
     1
  1
\fGaramond|b0|i0|c0|p23;668
 73
     2
 44
0.722892
  0
MTEXT
  5
3C46
330
3FD8
100
AcDbEntity
  8
Coordinates
  6
ByBlock
100
AcDbMText
 10
525865.114541
 20
1918661.790889
 30
0.0
 40
1.0
 41
0.0
 71
     1
 72
     1
  1
\fGaramond|b0|i0|c0|p23;662
 73
     2
 44
0.722892
  0
MTEXT
  5
3C4B
330
3FD8
100
AcDbEntity
  8
Coordinates
  6
ByBlock
100
AcDbMText
 10
525929.401198
 20
1918807.062216
 30
0.0
 40
1.0
 41
0.0
 71
     1
 72
     1
  1
\fGaramond|b0|i0|c0|p23;932
 11
2.679489636298201E-8
 21
0.9999999999999997
 31
0.0
 73
     2
 44
0.722892
  0
MTEXT
  5
3C4C
330
3FD8
100
AcDbEntity
  8
Coordinates
  6
ByBlock
100
AcDbMText
 10
525935.401198
 20
1918807.062216
 30
0.0
 40
1.0
 41
0.0
 71
     1
 72
     1
  1
\fGaramond|b0|i0|c0|p23;938
 11
2.679489636298201E-8
 21
0.9999999999999997
 31
0.0
 73
     2
 44
0.722892
  0
MTEXT
  5
3C4D
330
3FD8
100
AcDbEntity
  8
Coordinates
  6
ByBlock
100
AcDbMText
 10
525941.401198
 20
1918807.062216
 30
0.0
 40
1.0
 41
0.0
 71
     1
 72
     1
  1
\fGaramond|b0|i0|c0|p23;944
 11
2.679489636298201E-8
 21
0.9999999999999997
 31
0.0
 73
     2
 44
0.722892
  0
MTEXT
  5
3C4E
330
3FD8
100
AcDbEntity
  8
Coordinates
  6
ByBlock
100
AcDbMText
 10
525947.401198
 20
1918807.062216
 30
0.0
 40
1.0
 41
0.0
 71
     1
 72
     1
  1
\fGaramond|b0|i0|c0|p23;950
 11
2.679489636298201E-8
 21
0.9999999999999997
 31
0.0
 73
     2
 44
0.722892
  0
MTEXT
  5
3C4F
330
3FD8
100
AcDbEntity
  8
Coordinates
  6
ByBlock
100
AcDbMText
 10
525953.401198
 20
1918807.062216
 30
0.0
 40
1.0
 41
0.0
 71
     1
 72
     1
  1
\fGaramond|b0|i0|c0|p23;956
 11
2.679489636298201E-8
 21
0.9999999999999997
 31
0.0
 73
     2
 44
0.722892
  0
MTEXT
  5
3C50
330
3FD8
100
AcDbEntity
  8
Coordinates
  6
ByBlock
100
AcDbMText
 10
525959.401198
 20
1918807.062216
 30
0.0
 40
1.0
 41
0.0
 71
     1
 72
     1
  1
\fGaramond|b0|i0|c0|p23;962
 11
2.679489636298201E-8
 21
0.9999999999999997
 31
0.0
 73
     2
 44
0.722892
  0
MTEXT
  5
3C51
330
3FD8
100
AcDbEntity
  8
Coordinates
  6
ByBlock
100
AcDbMText
 10
525965.401198
 20
1918807.062216
 30
0.0
 40
1.0
 41
0.0
 71
     1
 72
     1
  1
\fGaramond|b0|i0|c0|p23;968
 11
2.679489636298201E-8
 21
0.9999999999999997
 31
0.0
 73
     2
 44
0.722892
  0
MTEXT
  5
3C52
330
3FD8
100
AcDbEntity
  8
Coordinates
  6
ByBlock
100
AcDbMText
 10
525971.401198
 20
1918807.062216
 30
0.0
 40
1.0
 41
0.0
 71
     1
 72
     1
  1
\fGaramond|b0|i0|c0|p23;974
 11
2.679489636298201E-8
 21
0.9999999999999997
 31
0.0
 73
     2
 44
0.722892
  0
MTEXT
  5
3C53
330
3FD8
100
AcDbEntity
  8
Coordinates
  6
ByBlock
100
AcDbMText
 10
525977.401198
 20
1918807.062216
 30
0.0
 40
1.0
 41
0.0
 71
     1
 72
     1
  1
\fGaramond|b0|i0|c0|p23;968
 11
2.679489636298201E-8
 21
0.9999999999999997
 31
0.0
 73
     2
 44
0.722892
  0
MTEXT
  5
3C54
330
3FD8
100
AcDbEntity
  8
Coordinates
  6
ByBlock
100
AcDbMText
 10
525983.401198
 20
1918807.062216
 30
0.0
 40
1.0
 41
0.0
 71
     1
 72
     1
  1
\fGaramond|b0|i0|c0|p23;962
 11
2.679489636298201E-8
 21
0.9999999999999997
 31
0.0
 73
     2
 44
0.722892
  0
LINE
  5
3C5B
330
3FD8
100
AcDbEntity
  8
Legend
  6
DGN Style 2
 62
    94
370
    13
100
AcDbLine
 10
525957.571641
 20
1918770.026533
 30
0.0
 11
525963.571641
 21
1918770.026533
 31
0.0
  0
MTEXT
  5
3C5C
330
3FD8
100
AcDbEntity
  8
Legend
 62
   250
100
AcDbMText
 10
525964.577513
 20
1918770.75404
 30
0.0
 40
1.0
 41
0.0
 71
     1
 72
     1
  1
\fGaramond|b0|i0|c0|p23;Structure outlines
 73
     2
 44
0.722892
  0
LWPOLYLINE
  5
3C86
330
3FD8
100
AcDbEntity
  8
Legend
  6
Continuous
 62
   250
370
    13
100
AcDbPolyline
 90
        4
 70
   129
 43
0.0
 10
525954.453455
 20
1918790.122133
 10
525981.666201
 20
1918790.122133
 10
525981.666201
 20
1918759.490165
 10
525954.453455
 20
1918759.490165
  0
MTEXT
  5
3C85
330
3FD8
100
AcDbEntity
  8
Legend
 62
   250
100
AcDbMText
 10
525964.577513
 20
1918767.664926
 30
0.0
 40
1.0
 41
0.0
 71
     1
 72
     1
  1
\fGaramond|b0|i0|c0|p23;Terrace/bank feature
 73
     2
 44
0.722892
  0
MTEXT
  5
3CB0
102
{ACAD_XDICTIONARY
360
4495
102
}
330
3FD8
100
AcDbEntity
  8
Legend
  6
Continuous
 62
   250
370
    13
100
AcDbMText
 10
525915.363872
 20
1918683.962381
 30
0.0
 40
1.0
 41
0.0
 71
     1
 72
     1
  1
\fGaramond|b0|i0|c0|p23;vaulted\Pcellar
 73
     1
 44
1.0
  0
MTEXT
  5
3CB4
330
3FD8
100
AcDbEntity
  8
Legend
  6
Continuous
 62
   250
370
    13
100
AcDbMText
 10
525949.323111
 20
1918666.284406
 30
0.0
 40
1.0
 41
0.0
 71
     1
 72
     1
  1
\fGaramond|b0|i0|c0|p23;building
 73
     2
 44
0.722892
  0
MTEXT
  5
3CB5
330
3FD8
100
AcDbEntity
  8
Legend
  6
Continuous
 62
   250
370
    13
100
AcDbMText
 10
525940.298955
 20
1918736.516975
 30
0.0
 40
1.0
 41
0.0
 71
     1
 72
     1
  1
\fGaramond|b0|i0|c0|p23;cellar
 73
     2
 44
0.722892
  0
LINE
  5
3CCF
330
3FD8
100
AcDbEntity
  8
Structures
  6
DGN Style 2
100
AcDbLine
 10
525950.562878
 20
1918684.02173
 30
0.0
 11
525953.730878
 21
1918682.04773
 31
0.0
  0
LWPOLYLINE
  5
3CF9
330
3FD8
100
AcDbEntity
  8
Structures
  6
DGN Style 2
100
AcDbPolyline
 90
        4
 70
   128
 43
0.0
 10
525939.490422
 20
1918741.457096
 10
525939.214344
 20
1918740.966821
 10
525938.713119
 20
1918741.092243
 10
525935.499838
 20
1918734.54159
  0
LWPOLYLINE
  5
3CFA
330
3FD8
100
AcDbEntity
  8
Structures
  6
DGN Style 2
100
AcDbPolyline
 90
        5
 70
   128
 43
0.0
 10
525938.917411
 20
1918741.721006
 10
525933.145316
 20
1918744.379445
 10
525931.260186
 20
1918740.372161
 10
525933.80134
 20
1918739.269184
 10
525935.636285
 20
1918743.232186
  0
LINE
  5
3CFB
330
3FD8
100
AcDbEntity
  8
Structures
  6
DGN Style 2
100
AcDbLine
 10
525938.178391
 20
1918742.061374
 30
0.0
 11
525934.881328
 21
1918734.852926
 31
0.0
  0
LINE
  5
3CFE
330
3FD8
100
AcDbEntity
  8
Structures
  6
DGN Style 2
100
AcDbLine
 10
525934.868544
 20
1918734.859361
 30
0.0
 11
525934.881328
 21
1918734.852926
 31
0.0
  0
LINE
  5
3CFF
330
3FD8
100
AcDbEntity
  8
Structures
  6
DGN Style 2
100
AcDbLine
 10
525933.80134
 20
1918739.269184
 30
0.0
 11
525932.351929
 21
1918736.045638
 31
0.0
  0
LINE
  5
3D00
330
3FD8
100
AcDbEntity
  8
Structures
  6
DGN Style 2
100
AcDbLine
 10
525932.351929
 20
1918736.045638
 30
0.0
 11
525934.881328
 21
1918734.852926
 31
0.0
  0
LINE
  5
3D01
330
3FD8
100
AcDbEntity
  8
Structures
  6
DGN Style 2
100
AcDbLine
 10
525934.881328
 20
1918734.852926
 30
0.0
 11
525935.499838
 21
1918734.54159
 31
0.0
  0
LINE
  5
3D02
330
3FD8
100
AcDbEntity
  8
Structures
  6
DGN Style 2
100
AcDbLine
 10
525935.499838
 20
1918734.54159
 30
0.0
 11
525952.221878
 21
1918727.41773
 31
0.0
  0
LWPOLYLINE
  5
3D0C
330
3FD8
100
AcDbEntity
  8
Structures
  6
DGN Style 2
100
AcDbPolyline
 90
       15
 70
   128
 43
0.0
 10
525934.011878
 20
1918738.08873
 10
525933.615229
 20
1918737.229965
 42
0.018299
 10
525933.586999
 20
1918737.162461
 10
525933.515067
 20
1918736.971072
 42
0.038584
 10
525933.472127
 20
1918736.823069
 10
525933.403878
 20
1918736.49523
 10
525933.515186
 20
1918736.354555
 42
0.126618
 10
525933.912162
 20
1918736.053071
 10
525934.128429
 20
1918735.962239
 42
0.025174
 10
525934.223054
 20
1918735.927988
 10
525934.674878
 20
1918735.78973
 10
525934.873846
 20
1918735.956179
 42
0.104474
 10
525935.129241
 20
1918736.281233
 10
525935.254378
 20
1918736.53523
 10
525935.472878
 20
1918736.97873
  0
LWPOLYLINE
  5
3D18
330
3FD8
100
AcDbEntity
  8
Structures
  6
DGN Style 2
100
AcDbPolyline
 90
       16
 70
   128
 43
0.0
 10
525932.886801
 20
1918742.028936
 10
525933.615878
 20
1918741.69573
 10
525933.664549
 20
1918741.514029
 42
0.002258
 10
525933.666925
 20
1918741.505315
 10
525933.722878
 20
1918741.30373
 10
525933.655546
 20
1918741.098948
 42
-0.008272
 10
525933.644693
 20
1918741.067691
 10
525933.49282
 20
1918740.652601
 42
-0.007917
 10
525933.481469
 20
1918740.623038
 10
525933.396878
 20
1918740.41273
 10
525933.142757
 20
1918740.319878
 42
-0.058293
 10
525932.9167
 20
1918740.266027
 10
525932.837878
 20
1918740.25673
 10
525932.642878
 20
1918740.23373
 10
525932.065966
 20
1918740.465445
 10
525931.847657
 20
1918740.553129
  0
LINE
  5
3D22
330
3FD8
100
AcDbEntity
  8
Structures
  6
DGN Style 2
100
AcDbLine
 10
525933.473878
 20
1918739.38973
 30
0.0
 11
525934.653405
 21
1918741.787952
 31
0.0
  0
LINE
  5
3D23
330
3FD8
100
AcDbEntity
  8
Structures
  6
DGN Style 2
100
AcDbLine
 10
525934.653405
 20
1918741.787952
 30
0.0
 11
525932.445962
 21
1918742.84654
 31
0.0
  0
MTEXT
  5
3CB3
330
3FD8
100
AcDbEntity
  8
Legend
  6
Continuous
 62
   250
370
    13
100
AcDbMText
 10
525923.697124
 20
1918680.70101
 30
0.0
 40
1.0
 41
0.0
 71
     1
 72
     1
  1
\fGaramond|b0|i0|c0|p23; Main \PHouse
 73
     1
 44
1.0
  0
MTEXT
  5
3D26
330
3FD8
100
AcDbEntity
  8
Structures
  6
DGN Style 2
 62
   250
370
    30
100
AcDbMText
 10
525934.087506
 20
1918737.983951
 30
0.0
 40
1.0
 41
0.0
 71
     1
 72
     1
  1
\fGaramond|b0|i0|c0|p23;cistern
 11
0.4112957063044958
 21
0.9115019703629202
 31
0.0
 73
     2
 44
0.722892
  0
MTEXT
  5
3D27
330
3FD8
100
AcDbEntity
  8
Structures
  6
DGN Style 2
 62
   250
370
    30
100
AcDbMText
 10
525930.210524
 20
1918740.844962
 30
0.0
 40
1.0
 41
0.0
 71
     1
 72
     1
  1
\fGaramond|b0|i0|c0|p23;cistern
 11
0.9004396372067846
 21
-0.4349809877993685
 31
0.0
 73
     2
 44
0.722892
  0
LINE
  5
3CAF
330
3FD8
100
AcDbEntity
  8
Coordinates
  6
Continuous
 62
   250
100
AcDbLine
 10
525868.042391
 20
1918805.590624
 30
0.0
 11
525990.37242
 21
1918805.590624
 31
0.0
  0
SPLINE
  5
B38
330
3FD8
100
AcDbEntity
  8
Modern Path
  6
DGN Style 2
 62
    30
370
    13
100
AcDbSpline
210
0.0
220
0.0
230
1.0
 70
    12
 71
     2
 72
    50
 73
    47
 74
     0
 42
0.0000000001
 43
0.00000001
 40
0.0
 40
0.0
 40
0.0
 40
0.0476190476190476
 40
0.0476190476190476
 40
0.0952380952380952
 40
0.0952380952380952
 40
0.1428571428571429
 40
0.1428571428571429
 40
0.1904761904761905
 40
0.1904761904761905
 40
0.2380952380952381
 40
0.2380952380952381
 40
0.2857142857142857
 40
0.2857142857142857
 40
0.3333333333333333
 40
0.3333333333333333
 40
0.3809523809523809
 40
0.3809523809523809
 40
0.4285714285714286
 40
0.4285714285714286
 40
0.4761904761904762
 40
0.4761904761904762
 40
0.5238095238095238
 40
0.5238095238095238
 40
0.5714285714285714
 40
0.5714285714285714
 40
0.5952380952380952
 40
0.5952380952380952
 40
0.6190476190476191
 40
0.6190476190476191
 40
0.6666666666666666
 40
0.6666666666666666
 40
0.6904761904761905
 40
0.6904761904761905
 40
0.7142857142857143
 40
0.7142857142857143
 40
0.7619047619047619
 40
0.7619047619047619
 40
0.8095238095238095
 40
0.8095238095238095
 40
0.8571428571428571
 40
0.8571428571428571
 40
0.9047619047619048
 40
0.9047619047619048
 40
0.9523809523809523
 40
0.9523809523809523
 40
1.0
 40
1.0
 40
1.0
 10
525992.6029606622
 20
1918713.835285578
 30
0.0
 41
1.0
 10
525990.3327349017
 20
1918713.233732478
 30
0.0
 41
1.0
 10
525988.0625091411
 20
1918712.632179378
 30
0.0
 41
1.0
 10
525987.800644154
 20
1918712.562791699
 30
0.0
 41
0.9652096339376886
 10
525987.5779443388
 20
1918712.490220896
 30
0.0
 41
1.0
 10
525984.9463748583
 20
1918711.632675909
 30
0.0
 41
1.0
 10
525982.3148053775
 20
1918710.775130922
 30
0.0
 41
1.0
 10
525981.8826397648
 20
1918710.634301862
 30
0.0
 41
0.8851407057734549
 10
525981.4699425426
 20
1918710.388191901
 30
0.0
 41
1.0
 10
525978.5573196601
 20
1918708.651263554
 30
0.0
 41
1.0
 10
525975.6446967778
 20
1918706.914335207
 30
0.0
 41
1.0
 10
525974.8828881742
 20
1918706.460034388
 30
0.0
 41
0.7176432463084828
 10
525974.5353208467
 20
1918706.222913078
 30
0.0
 41
1.0
 10
525974.106886054
 20
1918705.930621451
 30
0.0
 41
1.0
 10
525973.6784512615
 20
1918705.638329825
 30
0.0
 41
1.0
 10
525973.4452504554
 20
1918705.479232935
 30
0.0
 41
0.8380219283659066
 10
525973.0753678982
 20
1918704.94339822
 30
0.0
 41
1.0
 10
525969.8236392523
 20
1918700.232743285
 30
0.0
 41
1.0
 10
525966.5719106064
 20
1918695.522088351
 30
0.0
 41
1.0
 10
525966.5375151031
 20
1918695.4722609
 30
0.0
 41
0.9981721113110629
 10
525966.5093825287
 20
1918695.418647622
 30
0.0
 41
1.0
 10
525965.4571608785
 20
1918693.413390245
 30
0.0
 41
1.0
 10
525964.4049392282
 20
1918691.408132868
 30
0.0
 41
1.0
 10
525964.3303298026
 20
1918691.26594695
 30
0.0
 41
0.9873523549075796
 10
525964.3039854927
 20
1918691.10755068
 30
0.0
 41
1.0
 10
525963.8835172524
 20
1918688.579467712
 30
0.0
 41
1.0
 10
525963.4630490119
 20
1918686.051384745
 30
0.0
 41
1.0
 10
525963.0326073371
 20
1918683.463336085
 30
0.0
 41
1.0
 10
525962.6021656623
 20
1918680.875287424
 30
0.0
 41
1.0
 10
525962.5957682211
 20
1918680.83682254
 30
0.0
 41
0.9992406285446508
 10
525962.5923853932
 20
1918680.79797629
 30
0.0
 41
1.0
 10
525962.3409384418
 20
1918677.91051902
 30
0.0
 41
1.0
 10
525962.0894914905
 20
1918675.023061749
 30
0.0
 41
1.0
 10
525961.7552118164
 20
1918671.18440604
 30
0.0
 41
1.0
 10
525961.4209321424
 20
1918667.345750331
 30
0.0
 41
1.0
 10
525961.4169327642
 20
1918667.29982401
 30
0.0
 41
0.9989390797207083
 10
525961.4087249104
 20
1918667.254460444
 30
0.0
 41
1.0
 10
525961.2306675345
 20
1918666.270364267
 30
0.0
 41
1.0
 10
525961.0526101587
 20
1918665.28626809
 30
0.0
 41
1.0
 10
525961.0346589298
 20
1918665.187054364
 30
0.0
 41
0.9949556219969251
 10
525960.997263951
 20
1918665.093420901
 30
0.0
 41
1.0
 10
525960.1588128312
 20
1918662.994019207
 30
0.0
 41
1.0
 10
525959.3203617114
 20
1918660.894617512
 30
0.0
 41
1.0
 10
525959.2863105499
 20
1918660.809356649
 30
0.0
 41
0.9958120084327333
 10
525959.2373040405
 20
1918660.73172123
 30
0.0
 41
1.0
 10
525958.2011061162
 20
1918659.090191132
 30
0.0
 41
1.0
 10
525957.1649081918
 20
1918657.448661035
 30
0.0
 41
1.0
  0
SPLINE
  5
B58
330
3FD8
100
AcDbEntity
  8
Modern Path
  6
DGN Style 2
 62
    30
370
    13
100
AcDbSpline
210
0.0
220
0.0
230
1.0
 70
    12
 71
     2
 72
    44
 73
    41
 74
     0
 42
0.0000000001
 43
0.00000001
 40
0.0
 40
0.0
 40
0.0
 40
0.0588235294117647
 40
0.0588235294117647
 40
0.1176470588235294
 40
0.1176470588235294
 40
0.1764705882352941
 40
0.1764705882352941
 40
0.2352941176470588
 40
0.2352941176470588
 40
0.2549019607843137
 40
0.2549019607843137
 40
0.2745098039215687
 40
0.2745098039215687
 40
0.2941176470588235
 40
0.2941176470588235
 40
0.3529411764705883
 40
0.3529411764705883
 40
0.4117647058823529
 40
0.4117647058823529
 40
0.4705882352941176
 40
0.4705882352941176
 40
0.5294117647058824
 40
0.5294117647058824
 40
0.5882352941176471
 40
0.5882352941176471
 40
0.6470588235294118
 40
0.6470588235294118
 40
0.6764705882352942
 40
0.6764705882352942
 40
0.7058823529411765
 40
0.7058823529411765
 40
0.7647058823529411
 40
0.7647058823529411
 40
0.8235294117647058
 40
0.8235294117647058
 40
0.8823529411764706
 40
0.8823529411764706
 40
0.9411764705882353
 40
0.9411764705882353
 40
1.0
 40
1.0
 40
1.0
 10
525960.5313643247
 20
1918657.067922623
 30
0.0
 41
1.0
 10
525960.7526095251
 20
1918657.4048618
 30
0.0
 41
1.0
 10
525960.9738547254
 20
1918657.741800977
 30
0.0
 41
1.0
 10
525961.0178638276
 20
1918657.808823406
 30
0.0
 41
0.9968010125011142
 10
525961.0506316503
 20
1918657.882001796
 30
0.0
 41
1.0
 10
525962.4731321296
 20
1918661.058785814
 30
0.0
 41
1.0
 10
525963.8956326091
 20
1918664.235569832
 30
0.0
 41
1.0
 10
525963.9571022096
 20
1918664.372846162
 30
0.0
 41
0.9888767307686125
 10
525963.9754700359
 20
1918664.522130874
 30
0.0
 41
1.0
 10
525964.3856990128
 20
1918667.856271451
 30
0.0
 41
1.0
 10
525964.7959279897
 20
1918671.190412029
 30
0.0
 41
1.0
 10
525965.3204569225
 20
1918675.453526772
 30
0.0
 41
1.0
 10
525965.8449858554
 20
1918679.716641515
 30
0.0
 41
1.0
 10
525966.3685019031
 20
1918683.971524023
 30
0.0
 41
1.0
 10
525966.8920179509
 20
1918688.226406531
 30
0.0
 41
1.0
 10
525966.894043721
 20
1918688.242871
 30
0.0
 41
0.9998624371465006
 10
525966.8966144722
 20
1918688.25925922
 30
0.0
 41
1.0
 10
525967.0450052402
 20
1918689.205231967
 30
0.0
 41
1.0
 10
525967.1933960085
 20
1918690.151204714
 30
0.0
 41
1.0
 10
525967.2190127748
 20
1918690.314508424
 30
0.0
 41
0.9866115952771675
 10
525967.2958193276
 20
1918690.460881488
 30
0.0
 41
1.0
 10
525967.993887053
 20
1918691.791214746
 30
0.0
 41
1.0
 10
525968.6919547786
 20
1918693.121548004
 30
0.0
 41
1.0
 10
525969.109604617
 20
1918693.917478613
 30
0.0
 41
0.7437181201279239
 10
525969.1635221363
 20
1918693.997022168
 30
0.0
 41
1.0
 10
525971.9370335637
 20
1918698.088734089
 30
0.0
 41
1.0
 10
525974.7105449911
 20
1918702.18044601
 30
0.0
 41
1.0
 10
525974.765619772
 20
1918702.261696852
 30
0.0
 41
0.7366112226026133
 10
525975.3710268957
 20
1918702.951698645
 30
0.0
 41
1.0
 10
525975.9764340195
 20
1918703.641700438
 30
0.0
 41
0.7366112226026133
 10
525976.0245111517
 20
1918703.678015119
 30
0.0
 41
1.0
 10
525978.0927411744
 20
1918705.240236295
 30
0.0
 41
1.0
 10
525980.1609711973
 20
1918706.80245747
 30
0.0
 41
1.0
 10
525980.1945337806
 20
1918706.827808702
 30
0.0
 41
0.8419056561619013
 10
525980.7615953401
 20
1918707.01732097
 30
0.0
 41
1.0
 10
525986.4706044064
 20
1918708.925274771
 30
0.0
 41
1.0
 10
525992.1796134729
 20
1918710.833228571
 30
0.0
 41
1.0
 10
525993.3166983723
 20
1918711.213242936
 30
0.0
 41
0.6140756879786917
 10
525993.4719571311
 20
1918711.234894392
 30
0.0
 41
1.0
 10
525993.5272268477
 20
1918711.242601976
 30
0.0
 41
1.0
 10
525993.5824965644
 20
1918711.250309559
 30
0.0
 41
1.0
  0
LINE
  5
3C3A
330
3FD8
100
AcDbEntity
  8
Coordinates
  6
Continuous
 62
   250
100
AcDbLine
 10
525868.042391
 20
1918805.590624
 30
0.0
 11
525868.042391
 21
1918659.039025
 31
0.0
  0
MTEXT
  5
3F82
330
3FD8
100
AcDbEntity
  8
Contours2
  6
Continuous
 62
   250
100
AcDbMText
 10
525930.166728
 20
1918760.01578
 30
0.0
 40
1.0
 41
0.0
 71
     1
 72
     1
  1
\fGaramond|b0|i0|c0|p23;237
 73
     2
 44
0.722892
  0
MTEXT
  5
3F83
330
3FD8
100
AcDbEntity
  8
Contours2
  6
Continuous
 62
   250
100
AcDbMText
 10
525930.166728
 20
1918764.518281
 30
0.0
 40
1.0
 41
0.0
 71
     1
 72
     1
  1
\fGaramond|b0|i0|c0|p23;236
 73
     2
 44
0.722892
  0
MTEXT
  5
3F84
330
3FD8
100
AcDbEntity
  8
Contours2
  6
Continuous
 62
   250
100
AcDbMText
 10
525930.166728
 20
1918769.320948
 30
0.0
 40
1.0
 41
0.0
 71
     1
 72
     1
  1
\fGaramond|b0|i0|c0|p23;235
 73
     2
 44
0.722892
  0
MTEXT
  5
3F85
330
3FD8
100
AcDbEntity
  8
Contours2
  6
Continuous
 62
   250
100
AcDbMText
 10
525930.166728
 20
1918772.022449
 30
0.0
 40
1.0
 41
0.0
 71
     1
 72
     1
  1
\fGaramond|b0|i0|c0|p23;234
 73
     2
 44
0.722892
  0
MTEXT
  5
3F86
330
3FD8
100
AcDbEntity
  8
Contours2
  6
Continuous
 62
   250
100
AcDbMText
 10
525930.166728
 20
1918776.224783
 30
0.0
 40
1.0
 41
0.0
 71
     1
 72
     1
  1
\fGaramond|b0|i0|c0|p23;233
 73
     2
 44
0.722892
  0
MTEXT
  5
3F87
330
3FD8
100
AcDbEntity
  8
Contours2
  6
Continuous
 62
   250
100
AcDbMText
 10
525930.166728
 20
1918782.128061
 30
0.0
 40
1.0
 41
0.0
 71
     1
 72
     1
  1
\fGaramond|b0|i0|c0|p23;232
 73
     2
 44
0.722892
  0
MTEXT
  5
3F88
330
3FD8
100
AcDbEntity
  8
Contours2
  6
Continuous
 62
   250
100
AcDbMText
 10
525930.166728
 20
1918788.331507
 30
0.0
 40
1.0
 41
0.0
 71
     1
 72
     1
  1
\fGaramond|b0|i0|c0|p23;231
 73
     2
 44
0.722892
  0
MTEXT
  5
3F89
330
3FD8
100
AcDbEntity
  8
Contours2
  6
Continuous
 62
   250
100
AcDbMText
 10
525930.166728
 20
1918795.135286
 30
0.0
 40
1.0
 41
0.0
 71
     1
 72
     1
  1
\fGaramond|b0|i0|c0|p23;230
 73
     2
 44
0.722892
  0
MTEXT
  5
3F8A
330
3FD8
100
AcDbEntity
  8
Contours2
  6
Continuous
 62
   250
100
AcDbMText
 10
525930.166728
 20
1918801.13862
 30
0.0
 40
1.0
 41
0.0
 71
     1
 72
     1
  1
\fGaramond|b0|i0|c0|p23;229
 73
     2
 44
0.722892
  0
MTEXT
  5
3F8B
330
3FD8
100
AcDbEntity
  8
Contours2
  6
Continuous
 62
   250
100
AcDbMText
 10
525930.166728
 20
1918756.109765
 30
0.0
 40
1.0
 41
0.0
 71
     1
 72
     1
  1
\fGaramond|b0|i0|c0|p23;238
 73
     2
 44
0.722892
  0
MTEXT
  5
3F8C
330
3FD8
100
AcDbEntity
  8
Contours2
  6
Continuous
 62
   250
100
AcDbMText
 10
525930.166728
 20
1918753.079235
 30
0.0
 40
1.0
 41
0.0
 71
     1
 72
     1
  1
\fGaramond|b0|i0|c0|p23;239
 73
     2
 44
0.722892
  0
MTEXT
  5
3F8D
330
3FD8
100
AcDbEntity
  8
Contours2
  6
Continuous
 62
   250
100
AcDbMText
 10
525930.166728
 20
1918748.870167
 30
0.0
 40
1.0
 41
0.0
 71
     1
 72
     1
  1
\fGaramond|b0|i0|c0|p23;240
 73
     2
 44
0.722892
  0
SPLINE
  5
3F59
330
3FD8
100
AcDbEntity
  8
Contours2
370
    13
100
AcDbSpline
210
0.0
220
0.0
230
1.0
 70
     8
 71
     3
 72
    59
 73
    55
 74
     0
 42
0.0000000001
 43
0.00000001
 40
0.0
 40
0.0
 40
0.0
 40
0.0
 40
0.0981755200155678
 40
0.0981755200155678
 40
0.0981755200155678
 40
0.1582273835534523
 40
0.1582273835534523
 40
0.1582273835534523
 40
0.2136489975043112
 40
0.2136489975043112
 40
0.2136489975043112
 40
0.2637470192618311
 40
0.2637470192618311
 40
0.2637470192618311
 40
0.302912082325129
 40
0.302912082325129
 40
0.302912082325129
 40
0.3357157069470388
 40
0.3357157069470388
 40
0.3357157069470388
 40
0.3774652075465784
 40
0.3774652075465784
 40
0.3774652075465784
 40
0.4417013436230836
 40
0.4417013436230836
 40
0.4417013436230836
 40
0.4888964974950295
 40
0.4888964974950295
 40
0.4888964974950295
 40
0.5242490208870219
 40
0.5242490208870219
 40
0.5242490208870219
 40
0.5705405275501543
 40
0.5705405275501543
 40
0.5705405275501543
 40
0.6337780491493359
 40
0.6337780491493359
 40
0.6337780491493359
 40
0.6904743495459028
 40
0.6904743495459028
 40
0.6904743495459028
 40
0.7377138723288129
 40
0.7377138723288129
 40
0.7377138723288129
 40
0.7900298637304161
 40
0.7900298637304161
 40
0.7900298637304161
 40
0.8327638707553356
 40
0.8327638707553356
 40
0.8327638707553356
 40
0.9337362209374278
 40
0.9337362209374278
 40
0.9337362209374278
 40
1.0
 40
1.0
 40
1.0
 40
1.0
 10
525929.8700339432
 20
1918775.21925056
 30
0.0
 10
525927.1597402771
 20
1918774.120793228
 30
0.0
 10
525924.4494466109
 20
1918773.022335897
 30
0.0
 10
525921.7391529448
 20
1918771.923878566
 30
0.0
 10
525920.0813243398
 20
1918771.251975736
 30
0.0
 10
525918.9090850645
 20
1918769.827379984
 30
0.0
 10
525917.6565432114
 20
1918768.44092872
 30
0.0
 10
525916.5005775684
 20
1918767.16137864
 30
0.0
 10
525915.2237171951
 20
1918765.898032819
 30
0.0
 10
525915.0080255775
 20
1918764.255929977
 30
0.0
 10
525914.813052487
 20
1918762.77156137
 30
0.0
 10
525914.8067879749
 20
1918761.277239124
 30
0.0
 10
525914.6443140234
 20
1918759.79380083
 30
0.0
 10
525914.5172969808
 20
1918758.63409527
 30
0.0
 10
525914.3902799385
 20
1918757.474389711
 30
0.0
 10
525914.2632628959
 20
1918756.314684151
 30
0.0
 10
525914.1568767686
 20
1918755.343345339
 30
0.0
 10
525914.0504906414
 20
1918754.372006527
 30
0.0
 10
525913.9441045141
 20
1918753.400667714
 30
0.0
 10
525913.8087058276
 20
1918752.164435109
 30
0.0
 10
525913.2473593962
 20
1918750.960764228
 30
0.0
 10
525912.4572995763
 20
1918749.978848636
 30
0.0
 10
525911.2417068299
 20
1918748.468064969
 30
0.0
 10
525909.9965635492
 20
1918747.047470142
 30
0.0
 10
525908.7073611346
 20
1918745.632624595
 30
0.0
 10
525907.7601667662
 20
1918744.593118526
 30
0.0
 10
525906.80651303
 20
1918743.560215636
 30
0.0
 10
525905.8595150624
 20
1918742.521800126
 30
0.0
 10
525905.1501463021
 20
1918741.743953132
 30
0.0
 10
525904.5188568183
 20
1918740.926738194
 30
0.0
 10
525903.7845784345
 20
1918740.139508817
 30
0.0
 10
525902.8230953653
 20
1918739.108690352
 30
0.0
 10
525901.3803654111
 20
1918738.554785003
 30
0.0
 10
525900.1255604019
 20
1918738.209635726
 30
0.0
 10
525898.4114066709
 20
1918737.738137032
 30
0.0
 10
525896.3610266994
 20
1918737.994833924
 30
0.0
 10
525894.6447376565
 20
1918739.586484904
 30
0.0
 10
525893.1059797057
 20
1918741.01349722
 30
0.0
 10
525892.5498633274
 20
1918742.550028636
 30
0.0
 10
525892.4423049075
 20
1918744.149317772
 30
0.0
 10
525892.3526869185
 20
1918745.481850144
 30
0.0
 10
525892.7339807139
 20
1918746.952533702
 30
0.0
 10
525893.5295933726
 20
1918748.228376509
 30
0.0
 10
525894.4107044117
 20
1918749.641324341
 30
0.0
 10
525895.9974645387
 20
1918750.049044037
 30
0.0
 10
525896.9001090525
 20
1918751.468205673
 30
0.0
 10
525897.6374288654
 20
1918752.627439431
 30
0.0
 10
525898.3191698962
 20
1918753.814751009
 30
0.0
 10
525898.3175491132
 20
1918755.014261889
 30
0.0
 10
525898.3137195103
 20
1918757.848478502
 30
0.0
 10
525897.3277480282
 20
1918761.185329253
 30
0.0
 10
525895.5286584038
 20
1918763.595680778
 30
0.0
 10
525894.3479938242
 20
1918765.177490062
 30
0.0
 10
525893.1673292442
 20
1918766.759299345
 30
0.0
 10
525891.9866646647
 20
1918768.341108629
 30
0.0
  0
SPLINE
  5
3F5A
330
3FD8
100
AcDbEntity
  8
Contours2
370
    13
100
AcDbSpline
210
0.0
220
0.0
230
1.0
 70
     8
 71
     3
 72
    50
 73
    46
 74
     0
 42
0.0000000001
 43
0.00000001
 40
0.0
 40
0.0
 40
0.0
 40
0.0
 40
0.1028878560835406
 40
0.1028878560835406
 40
0.1028878560835406
 40
0.1539745017878765
 40
0.1539745017878765
 40
0.1539745017878765
 40
0.2088996437420775
 40
0.2088996437420775
 40
0.2088996437420775
 40
0.2844500702252167
 40
0.2844500702252167
 40
0.2844500702252167
 40
0.3670609358156152
 40
0.3670609358156152
 40
0.3670609358156152
 40
0.4266617736545428
 40
0.4266617736545428
 40
0.4266617736545428
 40
0.5590695239638701
 40
0.5590695239638701
 40
0.5590695239638701
 40
0.642900643561066
 40
0.642900643561066
 40
0.642900643561066
 40
0.7029638251806276
 40
0.7029638251806276
 40
0.7029638251806276
 40
0.728785610902738
 40
0.728785610902738
 40
0.728785610902738
 40
0.7708837808214621
 40
0.7708837808214621
 40
0.7708837808214621
 40
0.8418589719100039
 40
0.8418589719100039
 40
0.8418589719100039
 40
0.8976432779565393
 40
0.8976432779565393
 40
0.8976432779565393
 40
0.9835020505847011
 40
0.9835020505847011
 40
0.9835020505847011
 40
1.0
 40
1.0
 40
1.0
 40
1.0
 10
525929.5650737323
 20
1918771.153484049
 30
0.0
 10
525927.3514422192
 20
1918769.986692127
 30
0.0
 10
525925.1378107059
 20
1918768.819900205
 30
0.0
 10
525922.9241791929
 20
1918767.653108284
 30
0.0
 10
525921.8250503633
 20
1918767.073764056
 30
0.0
 10
525920.7210994466
 20
1918766.508465114
 30
0.0
 10
525919.6215430365
 20
1918765.925071918
 30
0.0
 10
525918.4393692791
 20
1918765.29784432
 30
0.0
 10
525917.5818151311
 20
1918763.924830824
 30
0.0
 10
525917.3831853312
 20
1918762.60098703
 30
0.0
 10
525917.1099668096
 20
1918760.780018351
 30
0.0
 10
525916.8969067326
 20
1918758.958545496
 30
0.0
 10
525916.6855405718
 20
1918757.132977432
 30
0.0
 10
525916.4544215391
 20
1918755.136803949
 30
0.0
 10
525916.2731758591
 20
1918753.137300247
 30
0.0
 10
525916.0293034979
 20
1918751.141326487
 30
0.0
 10
525915.8533581552
 20
1918749.701301527
 30
0.0
 10
525915.3489475856
 20
1918748.328436682
 30
0.0
 10
525914.5523019598
 20
1918747.051225442
 30
0.0
 10
525912.7824937002
 20
1918744.213804475
 30
0.0
 10
525910.6118916158
 20
1918741.996549053
 30
0.0
 10
525908.2889193042
 20
1918739.695910098
 30
0.0
 10
525906.818179342
 20
1918738.239310021
 30
0.0
 10
525905.4147085489
 20
1918736.969020905
 30
0.0
 10
525903.6594669999
 20
1918735.698422062
 30
0.0
 10
525902.4018744442
 20
1918734.788065509
 30
0.0
 10
525901.0751813401
 20
1918733.549157284
 30
0.0
 10
525899.6847044969
 20
1918733.852818981
 30
0.0
 10
525899.0869240575
 20
1918733.983366299
 30
0.0
 10
525898.4830058991
 20
1918734.209255658
 30
0.0
 10
525897.8853033523
 20
1918734.411100131
 30
0.0
 10
525896.9108477647
 20
1918734.74017431
 30
0.0
 10
525895.9370463917
 20
1918735.027762451
 30
0.0
 10
525894.9847234434
 20
1918735.421665748
 30
0.0
 10
525893.3791595111
 20
1918736.085764968
 30
0.0
 10
525892.0292543481
 20
1918737.195626125
 30
0.0
 10
525890.647612243
 20
1918738.251239192
 30
0.0
 10
525889.561684261
 20
1918739.080918429
 30
0.0
 10
525888.5337023465
 20
1918739.938871152
 30
0.0
 10
525887.5244092497
 20
1918740.861171604
 30
0.0
 10
525885.9709854886
 20
1918742.280703197
 30
0.0
 10
525884.2682868568
 20
1918743.642176711
 30
0.0
 10
525883.3135598169
 20
1918745.499291399
 30
0.0
 10
525883.1301069452
 20
1918745.856140015
 30
0.0
 10
525882.9466540738
 20
1918746.212988632
 30
0.0
 10
525882.7632012023
 20
1918746.569837248
 30
0.0
  0
SPLINE
  5
3F58
330
3FD8
100
AcDbEntity
  8
Contours2
370
    13
100
AcDbSpline
210
0.0
220
0.0
230
1.0
 70
     8
 71
     3
 72
    59
 73
    55
 74
     0
 42
0.0000000001
 43
0.00000001
 40
0.0
 40
0.0
 40
0.0
 40
0.0
 40
0.1607790364486703
 40
0.1607790364486703
 40
0.1607790364486703
 40
0.2235037342265868
 40
0.2235037342265868
 40
0.2235037342265868
 40
0.2843935039292544
 40
0.2843935039292544
 40
0.2843935039292544
 40
0.3200279003763741
 40
0.3200279003763741
 40
0.3200279003763741
 40
0.3520332903015063
 40
0.3520332903015063
 40
0.3520332903015063
 40
0.4038895285439691
 40
0.4038895285439691
 40
0.4038895285439691
 40
0.4266330413829098
 40
0.4266330413829098
 40
0.4266330413829098
 40
0.4534936142789261
 40
0.4534936142789261
 40
0.4534936142789261
 40
0.4820385318537851
 40
0.4820385318537851
 40
0.4820385318537851
 40
0.5283179486620957
 40
0.5283179486620957
 40
0.5283179486620957
 40
0.5510516437280966
 40
0.5510516437280966
 40
0.5510516437280966
 40
0.5793116613552811
 40
0.5793116613552811
 40
0.5793116613552811
 40
0.6042928549350919
 40
0.6042928549350919
 40
0.6042928549350919
 40
0.6505687433907477
 40
0.6505687433907477
 40
0.6505687433907477
 40
0.6720579853126015
 40
0.6720579853126015
 40
0.6720579853126015
 40
0.7447709319375178
 40
0.7447709319375178
 40
0.7447709319375178
 40
0.8115494829735657
 40
0.8115494829735657
 40
0.8115494829735657
 40
1.0
 40
1.0
 40
1.0
 40
1.0
 10
525929.7366500748
 20
1918781.325712312
 30
0.0
 10
525925.6904777674
 20
1918778.493078058
 30
0.0
 10
525921.644305459
 20
1918775.660443805
 30
0.0
 10
525917.5981331513
 20
1918772.827809551
 30
0.0
 10
525916.0196006462
 20
1918771.722714437
 30
0.0
 10
525914.7425429226
 20
1918770.217791857
 30
0.0
 10
525913.7132454009
 20
1918768.547079721
 30
0.0
 10
525912.7140586169
 20
1918766.925242059
 30
0.0
 10
525913.5742406132
 20
1918764.649112699
 30
0.0
 10
525912.6665357186
 20
1918763.033926653
 30
0.0
 10
525912.1353214238
 20
1918762.088674598
 30
0.0
 10
525911.3965380242
 20
1918761.263348677
 30
0.0
 10
525910.8353336344
 20
1918760.307771505
 30
0.0
 10
525910.3312822932
 20
1918759.4495103
 30
0.0
 10
525909.9054418604
 20
1918758.555202648
 30
0.0
 10
525909.5373886157
 20
1918757.659057589
 30
0.0
 10
525908.9410560357
 20
1918756.207092411
 30
0.0
 10
525910.8535057608
 20
1918754.392726338
 30
0.0
 10
525910.3001526551
 20
1918752.941219861
 30
0.0
 10
525910.0574587403
 20
1918752.304606846
 30
0.0
 10
525908.9352556254
 20
1918752.244013197
 30
0.0
 10
525908.6319994116
 20
1918751.672081628
 30
0.0
 10
525908.2738473666
 20
1918750.996618268
 30
0.0
 10
525908.4960261578
 20
1918749.926086652
 30
0.0
 10
525907.9750830197
 20
1918749.285349454
 30
0.0
 10
525907.4214731248
 20
1918748.604433579
 30
0.0
 10
525906.8038514765
 20
1918747.99970246
 30
0.0
 10
525906.1052204691
 20
1918747.434868384
 30
0.0
 10
525904.9725412277
 20
1918746.519111959
 30
0.0
 10
525903.865599159
 20
1918745.749545054
 30
0.0
 10
525902.5823717933
 20
1918745.030510905
 30
0.0
 10
525901.9520159754
 20
1918744.677301979
 30
0.0
 10
525901.2051574697
 20
1918744.530397609
 30
0.0
 10
525900.5340171134
 20
1918744.590172451
 30
0.0
 10
525899.6997295835
 20
1918744.66447793
 30
0.0
 10
525898.9450461945
 20
1918745.212486945
 30
0.0
 10
525898.2816225014
 20
1918745.897814246
 30
0.0
 10
525897.6951714979
 20
1918746.503627527
 30
0.0
 10
525897.7343486113
 20
1918747.710973646
 30
0.0
 10
525898.3049940476
 20
1918748.199976678
 30
0.0
 10
525899.3620742258
 20
1918749.105820096
 30
0.0
 10
525900.9250878318
 20
1918749.362736816
 30
0.0
 10
525902.0509147885
 20
1918750.238775774
 30
0.0
 10
525902.5737176702
 20
1918750.645584023
 30
0.0
 10
525903.2831355933
 20
1918750.967428961
 30
0.0
 10
525903.472049571
 20
1918751.618123782
 30
0.0
 10
525904.111276028
 20
1918753.819873758
 30
0.0
 10
525903.5463119709
 20
1918756.106377226
 30
0.0
 10
525903.2727841883
 20
1918758.316427176
 30
0.0
 10
525903.0215801065
 20
1918760.346106074
 30
0.0
 10
525902.2545049464
 20
1918762.355054494
 30
0.0
 10
525902.3653366773
 20
1918764.403508201
 30
0.0
 10
525902.678106222
 20
1918770.184288922
 30
0.0
 10
525902.9908757667
 20
1918775.965069643
 30
0.0
 10
525903.3036453116
 20
1918781.745850363
 30
0.0
  0
SPLINE
  5
3F64
330
3FD8
100
AcDbEntity
  8
Contours2
370
    13
100
AcDbSpline
210
0.0
220
0.0
230
1.0
 70
     8
 71
     3
 72
    65
 73
    61
 74
     0
 42
0.0000000001
 43
0.00000001
 40
0.0
 40
0.0
 40
0.0
 40
0.0
 40
0.0353180028705423
 40
0.0353180028705423
 40
0.0353180028705423
 40
0.0957237775201396
 40
0.0957237775201396
 40
0.0957237775201396
 40
0.1579397631673467
 40
0.1579397631673467
 40
0.1579397631673467
 40
0.1817170723250717
 40
0.1817170723250717
 40
0.1817170723250717
 40
0.2114077308036498
 40
0.2114077308036498
 40
0.2114077308036498
 40
0.2406128732528197
 40
0.2406128732528197
 40
0.2406128732528197
 40
0.2797428939200522
 40
0.2797428939200522
 40
0.2797428939200522
 40
0.3338211857750805
 40
0.3338211857750805
 40
0.3338211857750805
 40
0.3908426796821297
 40
0.3908426796821297
 40
0.3908426796821297
 40
0.4303880119704237
 40
0.4303880119704237
 40
0.4303880119704237
 40
0.4664596086543694
 40
0.4664596086543694
 40
0.4664596086543694
 40
0.5196022195575675
 40
0.5196022195575675
 40
0.5196022195575675
 40
0.6062299005934517
 40
0.6062299005934517
 40
0.6062299005934517
 40
0.6800366102765374
 40
0.6800366102765374
 40
0.6800366102765374
 40
0.7536923380513956
 40
0.7536923380513956
 40
0.7536923380513956
 40
0.8144056848490121
 40
0.8144056848490121
 40
0.8144056848490121
 40
0.8745889741881248
 40
0.8745889741881248
 40
0.8745889741881248
 40
0.9179973601848219
 40
0.9179973601848219
 40
0.9179973601848219
 40
0.9630399655523817
 40
0.9630399655523817
 40
0.9630399655523817
 40
1.0
 40
1.0
 40
1.0
 40
1.0
 10
525980.1747417996
 20
1918702.170032695
 30
0.0
 10
525979.5065732016
 20
1918703.26770965
 30
0.0
 10
525978.8384046038
 20
1918704.365386605
 30
0.0
 10
525978.1702360056
 20
1918705.46306356
 30
0.0
 10
525977.0274408732
 20
1918707.340463791
 30
0.0
 10
525974.0375345375
 20
1918707.092027803
 30
0.0
 10
525972.2464579891
 20
1918708.358640378
 30
0.0
 10
525970.4017073263
 20
1918709.663210186
 30
0.0
 10
525968.555705178
 20
1918710.981466347
 30
0.0
 10
525966.7505365431
 20
1918712.348014759
 30
0.0
 10
525966.0606486909
 20
1918712.870273528
 30
0.0
 10
525965.4191661788
 20
1918713.45491511
 30
0.0
 10
525964.7165373832
 20
1918713.960162317
 30
0.0
 10
525963.8391667996
 20
1918714.591063071
 30
0.0
 10
525962.7732545559
 20
1918714.930790823
 30
0.0
 10
525961.8414310784
 20
1918715.455857505
 30
0.0
 10
525960.9248452297
 20
1918715.972338042
 30
0.0
 10
525960.1710136847
 20
1918716.791366121
 30
0.0
 10
525959.2281307451
 20
1918717.281589945
 30
0.0
 10
525957.9648248403
 20
1918717.938408121
 30
0.0
 10
525956.2485309142
 20
1918716.730852865
 30
0.0
 10
525954.9570524327
 20
1918717.318745533
 30
0.0
 10
525953.1722092598
 20
1918718.131222265
 30
0.0
 10
525951.425211669
 20
1918719.04367703
 30
0.0
 10
525949.7176057765
 20
1918720.037689538
 30
0.0
 10
525947.9170637172
 20
1918721.085801012
 30
0.0
 10
525946.3141019127
 20
1918722.401266414
 30
0.0
 10
525944.4284773505
 20
1918723.318786516
 30
0.0
 10
525943.1207660864
 20
1918723.955101611
 30
0.0
 10
525941.716917695
 20
1918724.240829212
 30
0.0
 10
525940.3166998108
 20
1918724.632594127
 30
0.0
 10
525939.0394796722
 20
1918724.989945682
 30
0.0
 10
525937.7372800419
 20
1918725.309670192
 30
0.0
 10
525936.455926914
 20
1918725.405595663
 30
0.0
 10
525934.5681687617
 20
1918725.546918213
 30
0.0
 10
525932.6993692709
 20
1918724.703465797
 30
0.0
 10
525930.9821419867
 20
1918723.485495016
 30
0.0
 10
525928.1828926667
 20
1918721.500082884
 30
0.0
 10
525926.1220734308
 20
1918719.442921308
 30
0.0
 10
525924.0956268045
 20
1918717.005602291
 30
0.0
 10
525922.3690960232
 20
1918714.929008586
 30
0.0
 10
525920.6833708512
 20
1918712.863982237
 30
0.0
 10
525919.0842123396
 20
1918710.697597721
 30
0.0
 10
525917.4883251295
 20
1918708.535644847
 30
0.0
 10
525915.7887034932
 20
1918706.444914542
 30
0.0
 10
525914.5064503826
 20
1918704.088209065
 30
0.0
 10
525913.4495077642
 20
1918702.145610963
 30
0.0
 10
525912.4382227752
 20
1918700.184228985
 30
0.0
 10
525911.4252457232
 20
1918698.22087999
 30
0.0
 10
525910.4211124604
 20
1918696.274672001
 30
0.0
 10
525909.4200091704
 20
1918694.327190309
 30
0.0
 10
525908.4223985726
 20
1918692.378042182
 30
0.0
 10
525907.702852227
 20
1918690.972180602
 30
0.0
 10
525907.0799909037
 20
1918689.521270711
 30
0.0
 10
525906.3693517372
 20
1918688.107683186
 30
0.0
 10
525905.6319587474
 20
1918686.640877555
 30
0.0
 10
525904.8032200624
 20
1918685.184082355
 30
0.0
 10
525903.6760749988
 20
1918683.994351679
 30
0.0
 10
525902.7511879938
 20
1918683.018109598
 30
0.0
 10
525901.8263009888
 20
1918682.041867518
 30
0.0
 10
525900.9014139838
 20
1918681.065625437
 30
0.0
  0
SPLINE
  5
3F65
330
3FD8
100
AcDbEntity
  8
Contours2
370
    13
100
AcDbSpline
210
0.0
220
0.0
230
1.0
 70
     8
 71
     3
 72
    59
 73
    55
 74
     0
 42
0.0000000001
 43
0.00000001
 40
0.0
 40
0.0
 40
0.0
 40
0.0
 40
0.0902294595232133
 40
0.0902294595232133
 40
0.0902294595232133
 40
0.193316752397965
 40
0.193316752397965
 40
0.193316752397965
 40
0.3256434995783581
 40
0.3256434995783581
 40
0.3256434995783581
 40
0.3949310886251229
 40
0.3949310886251229
 40
0.3949310886251229
 40
0.4472657088983082
 40
0.4472657088983082
 40
0.4472657088983082
 40
0.4746804292104869
 40
0.4746804292104869
 40
0.4746804292104869
 40
0.5319274439368494
 40
0.5319274439368494
 40
0.5319274439368494
 40
0.5757760298633048
 40
0.5757760298633048
 40
0.5757760298633048
 40
0.6425533069897048
 40
0.6425533069897048
 40
0.6425533069897048
 40
0.7212794748655305
 40
0.7212794748655305
 40
0.7212794748655305
 40
0.7518955000703945
 40
0.7518955000703945
 40
0.7518955000703945
 40
0.7834650780426484
 40
0.7834650780426484
 40
0.7834650780426484
 40
0.8048930556306383
 40
0.8048930556306383
 40
0.8048930556306383
 40
0.8316218851843418
 40
0.8316218851843418
 40
0.8316218851843418
 40
0.8847835243423449
 40
0.8847835243423449
 40
0.8847835243423449
 40
0.9299376063550267
 40
0.9299376063550267
 40
0.9299376063550267
 40
0.986324090014483
 40
0.986324090014483
 40
0.986324090014483
 40
1.0
 40
1.0
 40
1.0
 40
1.0
 10
525905.4856300622
 20
1918677.727833432
 30
0.0
 10
525907.010855373
 20
1918680.409238135
 30
0.0
 10
525908.5360806838
 20
1918683.090642838
 30
0.0
 10
525910.0613059946
 20
1918685.77204754
 30
0.0
 10
525911.8038782005
 20
1918688.835556436
 30
0.0
 10
525912.0721453058
 20
1918692.527166187
 30
0.0
 10
525913.4105886951
 20
1918695.800861389
 30
0.0
 10
525915.1286652403
 20
1918700.003100338
 30
0.0
 10
525917.1583531151
 20
1918703.955463593
 30
0.0
 10
525919.7126046387
 20
1918707.821335614
 30
0.0
 10
525921.0500359112
 20
1918709.845544306
 30
0.0
 10
525922.6200779259
 20
1918711.688152318
 30
0.0
 10
525924.7073628422
 20
1918712.876627815
 30
0.0
 10
525926.2839404802
 20
1918713.774312591
 30
0.0
 10
525927.9895493772
 20
1918714.353412831
 30
0.0
 10
525929.572227333
 20
1918715.145142944
 30
0.0
 10
525930.4012898785
 20
1918715.559879107
 30
0.0
 10
525931.1091550941
 20
1918716.602834441
 30
0.0
 10
525932.0259255483
 20
1918716.518375866
 30
0.0
 10
525933.9403120929
 20
1918716.342010714
 30
0.0
 10
525935.8809646466
 20
1918715.833832886
 30
0.0
 10
525937.8034681605
 20
1918715.471469072
 30
0.0
 10
525939.2760176188
 20
1918715.193915021
 30
0.0
 10
525940.7434185686
 20
1918714.884524286
 30
0.0
 10
525942.2203933259
 20
1918714.624500786
 30
0.0
 10
525944.4696871308
 20
1918714.228509421
 30
0.0
 10
525946.7483824786
 20
1918715.515238102
 30
0.0
 10
525949.0187297374
 20
1918715.456955411
 30
0.0
 10
525951.6953249375
 20
1918715.38824382
 30
0.0
 10
525954.3884470236
 20
1918715.187691223
 30
0.0
 10
525957.0692598217
 20
1918714.833047636
 30
0.0
 10
525958.1118081179
 20
1918714.695129364
 30
0.0
 10
525959.1359575844
 20
1918714.488752629
 30
0.0
 10
525960.154477809
 20
1918714.248105421
 30
0.0
 10
525961.2047204004
 20
1918713.999963125
 30
0.0
 10
525962.1310220149
 20
1918713.321349498
 30
0.0
 10
525963.1426459613
 20
1918713.000956949
 30
0.0
 10
525963.8292897696
 20
1918712.783489223
 30
0.0
 10
525964.6490600287
 20
1918713.323108269
 30
0.0
 10
525965.3404308895
 20
1918713.007038828
 30
0.0
 10
525966.2028330375
 20
1918712.612780145
 30
0.0
 10
525966.9344719899
 20
1918711.973008469
 30
0.0
 10
525967.3707900505
 20
1918711.164927917
 30
0.0
 10
525968.2385939792
 20
1918709.55771625
 30
0.0
 10
525969.0343520986
 20
1918707.93062727
 30
0.0
 10
525969.8906107254
 20
1918706.329495722
 30
0.0
 10
525970.6178940235
 20
1918704.969537182
 30
0.0
 10
525971.385650903
 20
1918703.627478818
 30
0.0
 10
525972.1008665764
 20
1918702.259644816
 30
0.0
 10
525972.9939972765
 20
1918700.551552298
 30
0.0
 10
525972.9642544227
 20
1918698.479493292
 30
0.0
 10
525973.7607232065
 20
1918696.719590753
 30
0.0
 10
525973.9538977881
 20
1918696.292746106
 30
0.0
 10
525974.1635129452
 20
1918695.871387944
 30
0.0
 10
525974.4311643626
 20
1918695.487499144
 30
0.0
  0
SPLINE
  5
3F66
330
3FD8
100
AcDbEntity
  8
Contours2
370
    13
100
AcDbSpline
210
0.0
220
0.0
230
1.0
 70
     8
 71
     3
 72
    59
 73
    55
 74
     0
 42
0.0000000001
 43
0.00000001
 40
0.0
 40
0.0
 40
0.0
 40
0.0
 40
0.0134918955458221
 40
0.0134918955458221
 40
0.0134918955458221
 40
0.0827764418216284
 40
0.0827764418216284
 40
0.0827764418216284
 40
0.1149490923576033
 40
0.1149490923576033
 40
0.1149490923576033
 40
0.1397784642019202
 40
0.1397784642019202
 40
0.1397784642019202
 40
0.1785560435552247
 40
0.1785560435552247
 40
0.1785560435552247
 40
0.2102568935602401
 40
0.2102568935602401
 40
0.2102568935602401
 40
0.2577253155982808
 40
0.2577253155982808
 40
0.2577253155982808
 40
0.3038138309913414
 40
0.3038138309913414
 40
0.3038138309913414
 40
0.3653987321134612
 40
0.3653987321134612
 40
0.3653987321134612
 40
0.4634932903176688
 40
0.4634932903176688
 40
0.4634932903176688
 40
0.5241037445987324
 40
0.5241037445987324
 40
0.5241037445987324
 40
0.5694666867347838
 40
0.5694666867347838
 40
0.5694666867347838
 40
0.6532940291890659
 40
0.6532940291890659
 40
0.6532940291890659
 40
0.6991210484153131
 40
0.6991210484153131
 40
0.6991210484153131
 40
0.7768144608583955
 40
0.7768144608583955
 40
0.7768144608583955
 40
0.8390696137352771
 40
0.8390696137352771
 40
0.8390696137352771
 40
0.8915489034335214
 40
0.8915489034335214
 40
0.8915489034335214
 40
1.0
 40
1.0
 40
1.0
 40
1.0
 10
525973.0530608578
 20
1918688.380845393
 30
0.0
 10
525972.5913694239
 20
1918688.494355779
 30
0.0
 10
525972.1296779899
 20
1918688.607866165
 30
0.0
 10
525971.667986556
 20
1918688.72137655
 30
0.0
 10
525969.2970757072
 20
1918689.304283197
 30
0.0
 10
525967.0192394031
 20
1918689.763031869
 30
0.0
 10
525964.7776225074
 20
1918691.205701202
 30
0.0
 10
525963.7367156833
 20
1918691.875612443
 30
0.0
 10
525963.4137172443
 20
1918693.524307132
 30
0.0
 10
525963.8322740617
 20
1918694.4728754
 30
0.0
 10
525964.1552969613
 20
1918695.204936759
 30
0.0
 10
525964.9679449258
 20
1918695.819366877
 30
0.0
 10
525965.3603222369
 20
1918696.607139842
 30
0.0
 10
525965.9731223676
 20
1918697.837454037
 30
0.0
 10
525966.6457568947
 20
1918699.118217805
 30
0.0
 10
525966.8526724804
 20
1918700.42529921
 30
0.0
 10
525967.0218269263
 20
1918701.493844288
 30
0.0
 10
525966.6796457663
 20
1918702.640729383
 30
0.0
 10
525966.2526500077
 20
1918703.722462717
 30
0.0
 10
525965.6132723611
 20
1918705.342235513
 30
0.0
 10
525964.9694728591
 20
1918706.728488299
 30
0.0
 10
525963.6530518053
 20
1918708.014846749
 30
0.0
 10
525962.374899101
 20
1918709.26381077
 30
0.0
 10
525960.9832779936
 20
1918710.224987221
 30
0.0
 10
525959.3606076492
 20
1918710.320181212
 30
0.0
 10
525957.1923452989
 20
1918710.44738237
 30
0.0
 10
525955.0204539265
 20
1918710.420632094
 30
0.0
 10
525952.8535706275
 20
1918710.534461456
 30
0.0
 10
525949.4020840453
 20
1918710.715772796
 30
0.0
 10
525945.9446806001
 20
1918710.774200391
 30
0.0
 10
525942.499948488
 20
1918711.121511912
 30
0.0
 10
525940.3715248321
 20
1918711.336108006
 30
0.0
 10
525938.275832122
 20
1918711.756002303
 30
0.0
 10
525936.1651752477
 20
1918712.084491184
 30
0.0
 10
525934.5854872749
 20
1918712.330343525
 30
0.0
 10
525933.0166701592
 20
1918712.719194808
 30
0.0
 10
525931.4454368763
 20
1918712.934272919
 30
0.0
 10
525928.5419146558
 20
1918713.331721267
 30
0.0
 10
525925.7829075418
 20
1918711.25424087
 30
0.0
 10
525923.5201200788
 20
1918708.96894888
 30
0.0
 10
525922.2830916637
 20
1918707.719617613
 30
0.0
 10
525921.5253016412
 20
1918706.441454342
 30
0.0
 10
525920.7104664444
 20
1918705.022194848
 30
0.0
 10
525919.3290253625
 20
1918702.616035446
 30
0.0
 10
525918.015289511
 20
1918700.302593761
 30
0.0
 10
525917.0175888037
 20
1918697.685687836
 30
0.0
 10
525916.218138656
 20
1918695.588780604
 30
0.0
 10
525915.8672965752
 20
1918693.434499499
 30
0.0
 10
525915.5672846879
 20
1918691.266052122
 30
0.0
 10
525915.3143833615
 20
1918689.438113825
 30
0.0
 10
525916.2607103152
 20
1918687.432493825
 30
0.0
 10
525915.5672846879
 20
1918685.718104799
 30
0.0
 10
525914.1342856877
 20
1918682.175233491
 30
0.0
 10
525912.7012866873
 20
1918678.632362182
 30
0.0
 10
525911.268287687
 20
1918675.089490873
 30
0.0
  0
MTEXT
  5
3F8E
330
3FD8
100
AcDbEntity
  8
Contours2
  6
Continuous
 62
   250
100
AcDbMText
 10
525883.370761
 20
1918685.478569
 30
0.0
 40
1.0
 41
0.0
 71
     1
 72
     1
  1
\fGaramond|b0|i0|c0|p23;241
 11
0.7071067811865476
 21
0.7071067811865475
 31
0.0
 73
     2
 44
0.722892
  0
MTEXT
  5
3F8F
330
3FD8
100
AcDbEntity
  8
Contours2
  6
Continuous
 62
   250
100
AcDbMText
 10
525888.057232
 20
1918683.545686
 30
0.0
 40
1.0
 41
0.0
 71
     1
 72
     1
  1
\fGaramond|b0|i0|c0|p23;242
 11
0.7071067811865476
 21
0.7071067811865475
 31
0.0
 73
     2
 44
0.722892
  0
MTEXT
  5
3F90
330
3FD8
100
AcDbEntity
  8
Contours2
  6
Continuous
 62
   250
100
AcDbMText
 10
525892.384966
 20
1918681.138061
 30
0.0
 40
1.0
 41
0.0
 71
     1
 72
     1
  1
\fGaramond|b0|i0|c0|p23;243
 11
0.7071067811865476
 21
0.7071067811865475
 31
0.0
 73
     2
 44
0.722892
  0
MTEXT
  5
3F91
330
3FD8
100
AcDbEntity
  8
Contours2
  6
Continuous
 62
   250
100
AcDbMText
 10
525899.083023
 20
1918679.44122
 30
0.0
 40
1.0
 41
0.0
 71
     1
 72
     1
  1
\fGaramond|b0|i0|c0|p23;244
 11
0.7071067811865476
 21
0.7071067811865475
 31
0.0
 73
     2
 44
0.722892
  0
MTEXT
  5
3F92
330
3FD8
100
AcDbEntity
  8
Contours2
  6
Continuous
 62
   250
100
AcDbMText
 10
525903.905625
 20
1918676.136845
 30
0.0
 40
1.0
 41
0.0
 71
     1
 72
     1
  1
\fGaramond|b0|i0|c0|p23;245
 11
0.7071067811865476
 21
0.7071067811865475
 31
0.0
 73
     2
 44
0.722892
  0
MTEXT
  5
3F93
330
3FD8
100
AcDbEntity
  8
Contours2
  6
Continuous
 62
   250
100
AcDbMText
 10
525909.531993
 20
1918673.68089
 30
0.0
 40
1.0
 41
0.0
 71
     1
 72
     1
  1
\fGaramond|b0|i0|c0|p23;246
 11
0.7071067811865476
 21
0.7071067811865475
 31
0.0
 73
     2
 44
0.722892
  0
MTEXT
  5
3F94
330
3FD8
100
AcDbEntity
  8
Contours2
  6
Continuous
 62
   250
100
AcDbMText
 10
525914.845786
 20
1918671.090975
 30
0.0
 40
1.0
 41
0.0
 71
     1
 72
     1
  1
\fGaramond|b0|i0|c0|p23;247
 11
0.7071067811865476
 21
0.7071067811865475
 31
0.0
 73
     2
 44
0.722892
  0
MTEXT
  5
3F95
330
3FD8
100
AcDbEntity
  8
Contours2
  6
Continuous
 62
   250
100
AcDbMText
 10
525920.159578
 20
1918668.858289
 30
0.0
 40
1.0
 41
0.0
 71
     1
 72
     1
  1
\fGaramond|b0|i0|c0|p23;248
 11
0.7071067811865476
 21
0.7071067811865475
 31
0.0
 73
     2
 44
0.722892
  0
MTEXT
  5
3F96
330
3FD8
100
AcDbEntity
  8
Contours2
  6
Continuous
 62
   250
100
AcDbMText
 10
525924.62495
 20
1918666.893525
 30
0.0
 40
1.0
 41
0.0
 71
     1
 72
     1
  1
\fGaramond|b0|i0|c0|p23;249
 11
0.7071067811865476
 21
0.7071067811865475
 31
0.0
 73
     2
 44
0.722892
  0
MTEXT
  5
3F97
330
3FD8
100
AcDbEntity
  8
Contours2
  6
Continuous
 62
   250
100
AcDbMText
 10
525933.421732
 20
1918662.830037
 30
0.0
 40
1.0
 41
0.0
 71
     1
 72
     1
  1
\fGaramond|b0|i0|c0|p23;250
 11
0.7071067811865476
 21
0.7071067811865475
 31
0.0
 73
     2
 44
0.722892
  0
MTEXT
  5
3FA6
330
3FD8
100
AcDbEntity
  8
Legend
  6
Continuous
 62
   250
370
    13
100
AcDbMText
 10
525871.170706
 20
1918740.524988
 30
0.0
 40
1.0
 41
0.0
 71
     1
 72
     1
  1
\fGaramond|b0|i0|c0|p23;slave\Pvillage
 73
     1
 44
1.0
  0
SPLINE
  5
3FAB
330
3FD8
100
AcDbEntity
  8
Contours2
100
AcDbSpline
210
0.0
220
0.0
230
1.0
 70
     8
 71
     3
 72
    11
 73
     7
 74
     0
 42
0.0000000001
 43
0.00000001
 40
0.0
 40
0.0
 40
0.0
 40
0.0
 40
0.25
 40
0.5
 40
0.75
 40
1.0
 40
1.0
 40
1.0
 40
1.0
 10
525956.1121238259
 20
1918762.482781574
 30
0.0
 10
525958.3823844231
 20
1918763.979089694
 30
0.0
 10
525960.6526450203
 20
1918763.153540386
 30
0.0
 10
525961.5813879919
 20
1918763.153540386
 30
0.0
 10
525962.6649214587
 20
1918763.153540386
 30
0.0
 10
525963.438873935
 20
1918763.927492862
 30
0.0
 10
525963.438873935
 20
1918763.927492862
 30
0.0
  0
MTEXT
  5
3FAD
330
3FD8
100
AcDbEntity
  8
Legend
 62
   250
100
AcDbMText
 10
525964.577513
 20
1918764.185477
 30
0.0
 40
1.0
 41
0.0
 71
     1
 72
     1
  1
\fGaramond|b0|i0|c0|p23;1-meter contours
 73
     2
 44
0.722892
  0
MTEXT
  5
423F
330
3FD8
100
AcDbEntity
  8
Coordinates
  6
ByBlock
100
AcDbMText
 10
525864.819477
 20
1918806.004358
 30
0.0
 40
1.0
 41
0.0
 71
     1
 72
     1
  1
\fGaramond|b0|i0|c0|p23;806
 73
     2
 44
0.725792
  0
VIEWPORT
  5
180
330
3FDC
100
AcDbEntity
 67
     1
  8
0
100
AcDbViewport
 10
50.0
 20
50.0
 30
0.0
 40
100.0
 41
100.0
 68
     1
 69
     1
 12
50.0
 22
50.0
 13
0.0
 23
0.0
 14
1.0
 24
1.0
 15
0.0
 25
0.0
 16
0.0
 26
0.0
 36
1.0
 17
0.0
 27
0.0
 37
0.0
 42
50.0
 43
0.0
 44
0.0
 45
100.0
 50
0.0
 51
0.0
 72
   100
 90
    32768
  1

281
     0
 71
     0
 74
     0
110
0.0
120
0.0
130
0.0
111
1.0
121
0.0
131
0.0
112
0.0
122
1.0
132
0.0
 79
     0
146
0.0
  0
ENDSEC
  0
SECTION
  2
OBJECTS
  0
DICTIONARY
  5
3FEB
330
0
100
AcDbDictionary
281
     1
  3
ACAD_GROUP
350
3FE9
  3
ACAD_LAYOUT
350
3FEC
  3
ACAD_MLINESTYLE
350
3FEA
  3
ACAD_PLOTSETTINGS
350
3FED
  3
ACAD_PLOTSTYLENAME
350
3FEE
  3
ACAD_TABLESTYLE
350
3FFC
  3
AcadDim
350
3FF5
  3
DWGPROPS
350
4494
  0
DICTIONARY
  5
4495
330
3CB0
100
AcDbDictionary
280
     1
281
     1
  3
ACAD_MTEXT_RT
360
4496
  0
DICTIONARY
  5
3FE9
102
{ACAD_REACTORS
330
3FEB
102
}
330
3FEB
100
AcDbDictionary
281
     1
  0
DICTIONARY
  5
3FEC
102
{ACAD_REACTORS
330
3FEB
102
}
330
3FEB
100
AcDbDictionary
281
     1
  3
Layout1
350
3FDF
  3
Model
350
3FDB
  0
DICTIONARY
  5
3FEA
102
{ACAD_REACTORS
330
3FEB
102
}
330
3FEB
100
AcDbDictionary
281
     1
  3
STANDARD
350
13
  0
DICTIONARY
  5
3FED
102
{ACAD_REACTORS
330
3FEB
102
}
330
3FEB
100
AcDbDictionary
281
     1
  0
ACDBDICTIONARYWDFLT
  5
3FEE
102
{ACAD_REACTORS
330
3FEB
102
}
330
3FEB
100
AcDbDictionary
281
     1
  3
Normal
350
3FD1
100
AcDbDictionaryWithDefault
340
3FD1
  0
DICTIONARY
  5
3FFC
102
{ACAD_REACTORS
330
3FEB
102
}
330
3FEB
100
AcDbDictionary
281
     1
  0
XRECORD
  5
3FF5
102
{ACAD_REACTORS
330
3FEB
102
}
330
3FEB
100
AcDbXrecord
280
     1
 90
   990106
  3
 
 60
     0
 61
     0
 62
     2
 63
     2
 64
     0
 65
     0
 66
     0
 67
     3
 68
     1
 69
     0
 70
     0
 71
     0
 72
     0
 40
0.0
170
     0
  0
XRECORD
  5
4494
102
{ACAD_REACTORS
330
3FEB
102
}
330
3FEB
100
AcDbXrecord
280
     1
  1
DWGPROPS COOKIE
  2

  3

  4
lcooper
  6

  7

  8

  9

300
=
301
=
302
=
303
=
304
=
305
=
306
=
307
=
308
=
309
=
 40
0.0
 41
2451789.537469
 42
2451789.537561
  1

 90
        0
  0
XRECORD
  5
4496
102
{ACAD_REACTORS
330
4495
102
}
330
4495
100
AcDbXrecord
280
     1
280
     1
 40
75906.0
  1
\fGaramond|b0|i0|c0|p23;vaulted\P\ptz;cellar
  0
LAYOUT
  5
3FDF
102
{ACAD_REACTORS
330
3FEC
330
3FEC
102
}
330
3FEC
100
AcDbPlotSettings
  1

  2

  4

  6

 40
0.0
 41
0.0
 42
0.0
 43
0.0
 44
0.0
 45
0.0
 46
0.0
 47
0.0
 48
0.0
 49
0.0
140
0.0
141
0.0
142
1.0
143
1.0
 70
   688
 72
     0
 73
     0
 74
     5
  7

 75
    16
147
1.0
148
0.0
149
0.0
100
AcDbLayout
  1
Layout1
 70
     1
 71
     1
 10
0.0
 20
0.0
 11
12.0
 21
9.0
 12
0.0
 22
0.0
 32
0.0
 14
1.000000E+20
 24
1.000000E+20
 34
1.000000E+20
 15
-1.000000E+20
 25
-1.000000E+20
 35
-1.000000E+20
146
0.0
 13
0.0
 23
0.0
 33
0.0
 16
1.0
 26
0.0
 36
0.0
 17
0.0
 27
1.0
 37
0.0
 76
     0
330
3FDC
331
180
  0
LAYOUT
  5
3FDB
102
{ACAD_REACTORS
330
3FEC
330
3FEC
102
}
330
3FEC
100
AcDbPlotSettings
  1

  2

  4

  6

 40
0.0
 41
0.0
 42
0.0
 43
0.0
 44
0.0
 45
0.0
 46
0.0
 47
0.0
 48
0.0
 49
0.0
140
0.0
141
0.0
142
1.0
143
1.0
 70
  1712
 72
     0
 73
     0
 74
     0
  7

 75
     0
147
1.0
148
0.0
149
0.0
100
AcDbLayout
  1
Model
 70
     1
 71
     0
 10
0.0
 20
0.0
 11
12.0
 21
9.0
 12
0.0
 22
0.0
 32
0.0
 14
0.0
 24
0.0
 34
0.0
 15
0.0
 25
0.0
 35
0.0
146
0.0
 13
0.0
 23
0.0
 33
0.0
 16
1.0
 26
0.0
 36
0.0
 17
0.0
 27
1.0
 37
0.0
 76
     0
330
3FD8
  0
MLINESTYLE
  5
13
102
{ACAD_REACTORS
330
3FEA
102
}
330
3FEA
100
AcDbMlineStyle
  2
STANDARD
 70
     0
  3

 62
   256
 51
90.0
 52
90.0
 71
     2
 49
0.5
 62
   256
  6
BYLAYER
 49
-0.5
 62
   256
  6
BYLAYER
  0
ACDBPLACEHOLDER
  5
3FD1
102
{ACAD_REACTORS
330
3FEE
102
}
330
3FEE
  0
ENDSEC
  0
SECTION
  2
THUMBNAILIMAGE
 90
    21584
310
28000000B4000000720000000100080000000000285000000004000000040000000100000E000000FFFFFF00009800003030300080808000E8582800C8C80000C8000000F8F8F800A8000000003848000078F8000000C8000048980000C80000FFFFFF00FFFFFF00FFFFFF00FFFFFF00FFFFFF00FFFFFF00FFFFFF00FFFFFF
310
00FFFFFF00FFFFFF00FFFFFF00FFFFFF00FFFFFF00FFFFFF00FFFFFF00FFFFFF00FFFFFF00FFFFFF00FFFFFF00FFFFFF00FFFFFF00FFFFFF00FFFFFF00FFFFFF00FFFFFF00FFFFFF00FFFFFF00FFFFFF00FFFFFF00FFFFFF00FFFFFF00FFFFFF00FFFFFF00FFFFFF00FFFFFF00FFFFFF00FFFFFF00FFFFFF00FFFFFF00FFFF
310
FF00FFFFFF00FFFFFF00FFFFFF00FFFFFF00FFFFFF00FFFFFF00FFFFFF00FFFFFF00FFFFFF00FFFFFF00FFFFFF00FFFFFF00FFFFFF00FFFFFF00FFFFFF00FFFFFF00FFFFFF00FFFFFF00FFFFFF00FFFFFF00FFFFFF00FFFFFF00FFFFFF00FFFFFF00FFFFFF00FFFFFF00FFFFFF00FFFFFF00FFFFFF00FFFFFF00FFFFFF00FF
310
FFFF00FFFFFF00FFFFFF00FFFFFF00FFFFFF00FFFFFF00FFFFFF00FFFFFF00FFFFFF00FFFFFF00FFFFFF00FFFFFF00FFFFFF00FFFFFF00FFFFFF00FFFFFF00FFFFFF00FFFFFF00FFFFFF00FFFFFF00FFFFFF00FFFFFF00FFFFFF00FFFFFF00FFFFFF00FFFFFF00FFFFFF00FFFFFF00FFFFFF00FFFFFF00FFFFFF00FFFFFF00
310
FFFFFF00FFFFFF00FFFFFF00FFFFFF00FFFFFF00FFFFFF00FFFFFF00FFFFFF00FFFFFF00FFFFFF00FFFFFF00FFFFFF00FFFFFF00FFFFFF00FFFFFF00FFFFFF00FFFFFF00FFFFFF00FFFFFF00FFFFFF00FFFFFF00FFFFFF00FFFFFF00FFFFFF00FFFFFF00FFFFFF00FFFFFF00FFFFFF00FFFFFF00FFFFFF00FFFFFF00FFFFFF
310
00FFFFFF00FFFFFF00FFFFFF00FFFFFF00FFFFFF00FFFFFF00FFFFFF00FFFFFF00FFFFFF00FFFFFF00FFFFFF00FFFFFF00FFFFFF00FFFFFF00FFFFFF00FFFFFF00FFFFFF00FFFFFF00FFFFFF00FFFFFF00FFFFFF00FFFFFF00FFFFFF00FFFFFF00FFFFFF00FFFFFF00FFFFFF00FFFFFF00FFFFFF00FFFFFF00FFFFFF00FFFF
310
FF00FFFFFF00FFFFFF00FFFFFF00FFFFFF00FFFFFF00FFFFFF00FFFFFF00FFFFFF00FFFFFF00FFFFFF00FFFFFF00FFFFFF00FFFFFF00FFFFFF00FFFFFF00FFFFFF00FFFFFF00FFFFFF00FFFFFF00FFFFFF00FFFFFF00FFFFFF00FFFFFF00FFFFFF00FFFFFF00FFFFFF00FFFFFF00FFFFFF00FFFFFF00FFFFFF00FFFFFF00FF
310
FFFF00FFFFFF00FFFFFF00FFFFFF00FFFFFF00FFFFFF00FFFFFF00FFFFFF00FFFFFF00FFFFFF00FFFFFF00FFFFFF00FFFFFF00FFFFFF00FFFFFF00FFFFFF00FFFFFF00FFFFFF00FFFFFF00FFFFFF00FFFFFF00FFFFFF00FFFFFF00FFFFFF00FFFFFF00FFFFFF00FFFFFF00FFFFFF00FFFFFF00FFFFFF00FFFFFF00FFFFFF00
310
FFFFFF00FFFFFF00FFFFFF00FFFFFF00FFFFFF00FFFFFF00FFFFFF00FFFFFF00FFFFFF00FFFFFF00FFFFFF00FFFFFF0007070707070707070707070707070707070707070707070707070707070707070707070707070707070707070707070707070707070707070707070707070707070707070707070707070707070707
310
07070707070707070707070707070707070707070707070707070707070707070707070707070707070707070707070707070707070707070707070707070707070707070707070707070707070707070707070707070707070707070707070707070707070707070707070707070707070707070707070707070707070707
310
0707070707070707070707070707070707070707070707070707070702020207070707070707070707070707070707070707070707070707070707070707070707070707070707070707070707070707070A0A0A0A070707070707070707070707070707070707070707070707070707070707070707070707070707070707
310
07070707070707070707070707070707070707070707070707070707070707070707070707070707070707070707070707070707070707070707070707070707070707070707070707070702020707070702020202070707020202020707070707070707070707070707070707070707070707070707070707070707070707
310
070707070707070A0A0A0A0707030707070707070707070707070707070707070707070707070707070707070707070707070707070707070707070707070707070707070707070707070707070707070707070707070707070707070707070707070707070707070707070707070707070707070707070707070707070707
310
070202070707020202020202020202020202020202070707020207070707070707070707070707070707070707070207070707070707070707070707070A0A0A0A0303070707070707070707070707070707070707070707070707070707070707070707070707070707070707070707070707070707070707070707070707
310
0707070707070707070707070707070707070707070707070707070707070707070707070707070707070707070707070707070707020202070707020202020202020202020202020202020202020202020707070707070707070707070707070707070202070707070707070701010707070A0A0A0A030707070707070707
310
07070707070707070707070707070707070707070707070707070707070707070707070707070707070707070707070707070707070707070707070707070707070707070707070707070707070707070707070707070707070707070707070707070707070707070707020202070707020202020202020202020202020202
310
02020202020202070707070707070707070707070707070707020207070707070101010101010707070A0A0A0A07070707070707070707070707070707070707070707070707070707070707070707070707070707070707070707070707070707070707070707070707070707070707070707070707070707070707070707
310
070707070707070707070707070707070707070707070707070707070707070707020207070702020207020207020207070707070202020202020202070707070707070707070707020707070707030207070707070701010101010707070A0A0A0A0707070707070707070707070707070707070707070707070707070707
310
07070707070707070707070707070707070707070707070707070707070707070707070707070707070707070707070707070707070707070707070707070707070707070707070707070707070707070707070707070202070707070707070707070707070707070707070702020202020707070707070707070207070202
310
07070707030307070702020701010202020207030A0A0A0A07070707070707070707070707070707070707070707070707070707070707070707070707070707070707070707070707070707070707070707070707070707070707070707070707070707070707070707070707070707070707070707070707070707070707
310
070707070707070707070702020207070707070707070707070707070707070707070702020207070707070707070707020207020207070707070303020202020707010202020201030A0A0A0A0707030707070707070707070707070707070707070707070707070707070707070707070707070707070707070707070707
310
0707070707070707070707070707070707070707070707070707070707070707070707070707070707070707070707070707070707070707070707070707070702020207070707070707070707070707070707070707070707070707070707070707020707020207030207070707070203030307070707010101070301070A
310
0A0A0A07030307070707070707070707070707070707070707070707070707070707070707070707070707070707070707070707070707070707070707070707070707070707070707070707070707070707070707070707070707070707070707070707070707070707070707070707070707070707020207070707070707
310
07070707070707070707070707070707070707070707070702020703020703030707070202020203030303070707010101010107070A0A0A0303070707070707070707070707070707070707070707070707070707070707070707070707070707070707070707070707070707070707070707070707070707070707070707
310
070707070707070707070707070707070707070707070707070707070707070707070707070707070707070202020707070707070707070707070707070707070707070707070707070207070302020703030707030307070702070707070303030303030301010707070A0A0A0A0707070707070707070707070707070707
310
07070707070707070707070707070707070707070707070707070707070707070707070707070707070707070707070707070707070707070707070707070707070707070707070707070707070707070707070707070707070707070707070702020207070707070707070707070707070707070707070707070207070702
310
02070303020703030707010107070707070707070707030303030707070707070A0A0A0A07070707070707070707070707070707070707070707070707070707070707070707070707070707070707070707070707070707070707070707070707070707070707070707070707070707070707070707070707070707070707
310
070707070707070707070707070707070707070707070702020707070707070707070707070707070707070707070707020207070202070703030703030701010103070707010707070707070707070707070707070A0A0A0A0707070307070707070707070707070707070707070707070707070707070707070707070707
310
07070707070707070707070707070707070707070707070707070707070707070707070707070707070707070707070707070707070707070707070707070707070707070707070707070707020207070707070707070707070707070707070707070207070202070703020707030307070101010101010301010107070707
310
07070707070707070707030A0A0A0A07070303070707070707070707070707070707070707070707070707070707070707070707070707070707070707070707070707070707070707070707070707070707070707070707070707070707070707070707070707070707070707070707070707070707070707070707070707
310
070202020707070707070707070707070707070702070707020207030207070703030703010101010202020101010101030707070707070707070707070303030A0A0A0A0303030707070707070707070707070707070707070707070707070707070707070707070707070707070707070707070707070707070707070707
310
070707070707070707070707070707070707070707070707070707070707070707070707070707070707070707070707070707070707020202070707070707070707070707070707070202070702020707030307070303070101010107020202070101070303030303030707070707070303030307070A0A0A030307070303
310
07070707070707070707070707070707070707070707070707070707070707070707070707070707070707070707070707070707070707070707070707070707070707070707070707070707070707070707070707070707070707070707070707070707070707070707070702020707070707070707070707070702070702
310
02070703020707030307070703030202010107020202070701070707030303030303030303030301020702030A0A0A0707070303070707070707070707070707070707070707070707070707070707070707070707070707070707070707070707070707070707070707070707070707070707070707070707070707070707
310
070707070707070707070707070707070707070707070707070707070707070707070202070707070707070707070207070202030302070707030307070303070703030202020101070303070707070707070707070303030303010101020202030A0A0A070707030307070707070707070707070707070707070707070707
310
07070707070707070707070707070707070707070707070707070707070707070707070707070707070707070707070707070707070707070707070707070707070707070707070707070707070707070707070707070202020707070707070707070702020702020703030707070303070703030707070303020207010703
310
03070707070707070707070707070707010101020303070A0A0A0A07030303070707070707070707070707070707070707070707070707070707070707070707070707070707070707070707070707070707070707070707070707070707070707070707070707070707070707070707070707070707070707070707070707
310
070707070707070707070707020202070707070707070707070202070702070303070707070303070703030707030303030707070703030707070707070202070707070702010103070707070A0A0A0A0303030707070707070707070707070707070707070707070707070707070707070707070707070707070707070707
310
07070707070707070707070707070707070707070707070707070707070707070707070707070707070707070707070707070707070707070707070707070707070702020707070707070707070707020707030307030307070703030707030307070303030307070707070303030707070702020202020302020207070707
310
07070A0A0A0A03070707070707070707070707070707070707070707070707070707070707070707070707070707070707070707070707070707070707070707070707070707070707070707070707070707070707070707070707070707070707070707070707070707070707070707070707070707070202070707070707
310
07070707070303030703030303030307070303070703030703030303070707070707030303030303030302020202020707070707070703030A0A0A0707030307070707070707070707070707070707070707070707070707070707070707070707070707070707070707070707070707070707070707070707070707070707
310
070707070707070707070707070707070707070707070707070707070707070707070707070707070707070702020207070707070707070707070703030307030303030303030703030703030703030303070707070707070703030303030307070707070707070707070703030A0A0A030303030707070707070707070707
310
07070707070707070707070707070707070707070707070707070707070707070707070707070707070707070707070707070707070707070707070707070707070707070707070707070707070707070707070707070707070707070707070707020202070707070707070707070707070703030307030303030303030307
310
03030703030303070707070707070707070707070707070707070707070707070303070303030303070707070707070707070707070707070707070707070707070707070707070707070707070707070707070707070707070707070707070707070707070707070707070707070707070707070707070707070707070707
310
070707070707070707070707070707070707070707070707020207070707070707070303030707070703030303030303030307030303030703030303070707070707070707070707070707070707070707070707070303030303030A0A07070707070707070707070707070707070707070707070707070707070707070707
310
07070707070707070707070707070707070707070707070707070707070707070707070707070707070707070707070707070707070707070707070707070707070707070707070707070707070202070707070707070303030303030303070703030303030703030703030303030303030707070707070707070707070707
310
0707070707070707070703030703030A0A070A0A0303070707070707070707070707070707070707070707070707070707070707070707070707070707070707070707070707070707070707070707070707070707070707070707070707070707070707070707070707070707070707070707070707070707070707070707
310
0707020202070707070703030307070703030303030307070303030307030303030303030303030707070707070707070707070707070707070707070202020606060303070A0A0A0A030307070707070707070707070707070707070707070707070707070707070707070707070707070707070707070707070707070707
310
07070707070707070707070707070707070707070707070707070707070707070707070707070707070707070707070707070707070707020202070707070303030703030303030307030303030303070303030307030303030307030307070707070707070707070707070707070707070202020606060603030A0A070303
310
07070707070707070707070707070707070707070707070707070707070707070707070707070707070707070707070707070707070707070707070707070707070707070707070707070707070707070707070707070707070707070707070707070707070707070707070707020207070303030703030303030303030303
310
070303030303030307030307030303030303030707070707070707070707070707070703030202020202060707070303070A0A03030A07070707070707070707070707070707070707070707070707070707070707070707070707070707070707070707070707070707070707070707070707070707070707070707070707
310
0707070707070707070707070707070707070707070707070707070707070707070707020207030303030303030707070707010303030307030303030303070303030303030307030307070707070707070707070707070303030302020202070202020603030A03030A0A0707070707070707070707070707070707070707
310
07070707070707070707070707070707070707070707070707070707070707070707070707070707070707070707070707070707070707070707070707070707070707070707070707070707070707070707070707070702020207030303030307070303030303030303030303030303030303030303070303030303030307
310
07070707070707070707070303030707070202020207020202060303070303070A0A070303070707070707070707070707070707070707070707070707070707070707070707070707070707070707070707070707070707070707070707070707070707070707070707070707070707070707070707070707070707070707
310
07070707070707070707070707020202070707030307070303030303030303030309030303030303030307030303030303030703030707070707070707070703030307070707070207020607070703030707030307070A03030707070707070707070707070707070707070707070707070707070707070707070707070707
310
070707070707070707070707070707070707070707070707070707070707070707070707070707070707070707070707070707070707070707070707070707070707070202070703030101010303070707070C0C07030309030307030303030307030303030303030703030707070707070707030307070707070707070707
310
0606060603030703030A0A0707030307070707070707070707070707070707070707070707070707070707070707070707070707070707070707070707070707070707070707070707070707070707070707070707070707070707070707070707070707070707070707070707070707070707070707070702020707030301
310
0103030707070707070C0C070303090303030303070303030307030303030303030707070707070703030707070707070707070707070606030307070303070A0A0303030A0A070707070707070707070707070707070707070707070707070707070707070707070707070707070707070707070707070707070707070707
310
0707070707070707070707070707070707070707070707070707070707070707070707070707070707070707070202020703030101010303070707030302020307070303030309030303070303030303030303030303030707070707030307070707070707070707070707070703030703030707030303030A0A0A0A0A0A07
310
07070707070707070707070707070707070707070707070707070707070707070707070707070707070707070707070707070707070707070707070707070707070707070707070707070707070707070707070707070707070707070707070707070202020703030101030301070703030302020303030703030303030303
310
0303030303070303030303030303030707030307070707070707070703030303030303030303030707030303070A0A0A0A0A0A0A0A0A0A070707070707070707070707070707070707070707070707070707070707070707070707070707070707070707070707070707070707070707070707070707070707070707070707
310
07070707070707070707070707070707070707070707070707020203030701010303010103030707070C0C0303030703030303030303070303030307030303030303030303030307030303030303030303030303030303030707030303030307070707070A0A0A0A0A0A0A0A0A0A0707070707070707070707070707070707
310
070707070707070707070707070707070707070707070707070707070707070707070707070707070707070707070707070707070707070707070707070707070707070707070707070707070707020203030707030301070103030707070C0C07070303030303030303030307030303030703030303030303030303030303
310
03030303030303070707070707070303030303030707070707030303030A0A0A0A0A0A0A07070707070707070707070707070707070707070707070707070707070707070707070707070707070707070707070707070707070707070707070707070707070707070707070707070707070707070707070707070707070707
310
0707070202020707070703030107030301070702020C070703030703030303030303070303030307070303030303030303030303030303030303030303030303030303030303030707070703030303030202030307070A0A070707070707070707070707070707070707070707070707070707070707070707070707070707
310
07070707070707070707070707070707070707070707070707070707070707070707070707070707070707070707070707070707070707070202020707070303010107030301010102020C03030303030703030303030303070303030307070303030303030303030303030303030303030303030303030303030307070303
310
03030303020202020707070707070707070707070707070707070707070707070707070707070707070707070707070707070707070707070707070707070707070707070707070707070707070707070707070707070707070707070707070707070707070707070707070707070202070707030301010303070101010303
310
03030303030303030303030303030307030303030703030707030303030307070707070707070707070703030303030703030303030307020202030207070703030707070707070707070707070707070707070707070707070707070707070707070707070707070707070707070707070707070707070707070707070707
310
07070707070707070707070707070707070707070707070707070707070707070707070702020707030307070103030707070303030301010303010303030303030303030703030303070703030707070707070707070707070707070703030303030703030303030303030202020707070703030303070707070707070707
310
07070707070707070707070707070707070707070707070707070707070707070707070707070707070707070707070707070707070707070707070707070707070707070707070707070707070707070707070707070707020202070703030707030301020207030202070C0C070303030301030303030303030703030303
310
07070303070707070707070707070707070303030303030303030303030303030303020303030303030307070707070707070707070707070707070707070707070707070707070707070707070707070707070707070707070707070707070707070707070707070707070707070707070707070707070707070707070707
310
0707070707070707070707070707020202070707070707030301020203030202070C0C0707030303030303030303030307030307030307070303070707070707070707070303030307030303030303030307030303030303030303030307070707070707070707070707070707070707070707070707070707070707070707
310
07070707070707070707070707070707070707070707070707070707070707070707070707070707070707070707070707070707070707070707070707070707070707070202070707070703030101070703030707070C0C070703030703030303030303030307030303030707070303030707070707030303030307030303
310
07030303030703030303030303070707070707070707070707070707070707070707070707070707070707070707070707070707070707070707070707070707070707070707070707070707070707070707070707070707070707070707070707070707070707070707070707070707070707070707070707020207070707
310
0703030101070303070707070C0C0707070303030303030303030303090703030303070707030303030303030303030707030101070303030703030303070707070707070707070707070707070707070707070707070707070707070707070707070707070707070707070707070707070707070707070707070707070707
310
07070707070707070707070707070707070707070707070707070707070707070707070707070707070707070707020202070707070303070101020203070202070302020707070303030303030303030303070303070303070707070303030303070707070101010103030303030303070707070707070707070707070707
310
07070707070707070707070707070707070707070707070707070707070707070707070707070707070707070707070707070707070707070707070707070707070707070707070707070707070707070707070707070707070707070707070707070702020207070707030307010102020707020203030202030707030303
310
03070303030303030307030303030707070707070707070707010101010101030703030307070707070707070707070707070707070707070707070707070707070707070707070707070707070707070707070707070707070707070707070707070707070707070707070707070707070707070707070707070707070707
310
07070707070707070707070707070707070707070707070707070202070707070707070701030307070303030707030303070703030303030303030303030703030703030707070707070707010101010101030307030307070707070707070707070707070707070707070707070707070707070707070707070707070707
310
0707070707070707070707070707070707070707070707070707070707070707070707070707070707070707070707070707070707070707070707070707070707070707070707070707070707070702020707070707070707010303030303030707070C0C0303070703030303030303030303030703030703030307070707
310
01010101010103030307070303070707070707070707070707070707070707070707070707070707070707070707070707070707070707070707070707070707070707070707070707070707070707070707070707070707070707070707070707070707070707070707070707070707070707070707070707070707070707
310
07070707020202070707070707070703030202030202070702020C0C030303030303030103030303030307030307070303010101010101010103030303030103030707070707070707070707070707070707070707070707070707070707070707070707070707070707070707070707070707070707070707070707070707
310
07070707070707070707070707070707070707070707070707070707070707070707070707070707070707070707070707070707070707070702020207070707070707030303020207020207070202030303030303030303030303030303030303030707070701010101010103070707030101010303070707070707070707
310
07070707070707070707070707070707070707070707070707070707070707070707070707070707070707070707070707070707070707070707070707070707070707070707070707070707070707070707070707070707070707070707070707070707070707070707070707070702020707070707070303030307070707
310
07070703030303030303030303030303030303030303030307070701020101010302020203010101010103030707070707070707070707070202070707070707070707070707070707070707070707070707070707070707070707070707070707070707070707070707070707070707070707070707070707070707070707
310
0707070707070707070707070707070707070707070707070707070707070707070707070702020702020202070307030307070702020303030303030C030303030303030301030303030303030307070202020201010202020101010101030707070707070707070707070702020207070707070707070707070707070707
310
07070707070707070707070707070707070707070707070707070707070707070707070707070707070707070707070707070707070707070707070707070707070707070707070707070707070707070707070707070707070202020702020202070703030107070703030303030303030307070303030303030303030303
310
03030303070202020202010101010101010103070707070707070707070707070202020207070707070707070707070707070707070707070707070707070707070707070707070707070707070707070707070707070707070707070707070707070707070707070707070707070707070707070707070707070707070707
310
07070707070707070707070707070702020207020202070703030101070303030303030303070703030307030303030303030303030303030303020201020202010101010103030707070707070707070707070202020207070707070707070707070707070707070707070707070707070707070707070707070707070707
310
07070707070707070707070707070707070707070707070707070707070707070707070707070707070707070707070707070707070707070707070707070707070707070702020707070707070707070103030307070303070707070C03030307030303030303070303030303030302010101010101010103030307070707
310
07070707070707020202020707070707070707070707070707070707070707070707070707070707070707070707070707070707070707070707070707070707070707070707070707070707070707070707070707070707070707070707070707070707070707070707070707070707070707070707070707070202070707
310
0707070707070303070702030307020207070C0C0703030703030303030303030303030303030101010101010702030307070707070707070707020202020207070707070707070707070707070707070707070707070707070707070707070707070707070707070707070707070707070707070707070707070707070707
310
07070707070707070707070707070707070707070707070707070707070707070707070707070707070707070707070202020707070707070707070303070702030307020303030303070703030703030303030703030303030303030101010303020202070707070707070707020202020207070707070707070707070707
310
0707070707070707070707070707070707070707070707070707070707070707070707070707070707070707070707070707070707070707070707070707070707070707070707070707070707070707070707070707070707070707070707070707070702020207070707070707070303010707070D030307030303030303
310
07030307070303030303090303030303020202030303030307020202070707070702020202020707070707070707070707070707070707070707070707070707070707070707070707070707070707070707070707070707070707070707070707070707070707070707070707070707070707070707070707070707070707
310
0707070707070707070707070707070707070707070707070707070202070707070707070707010107070707030307030307070C030303030301030303030303070303030302020203030307070707020202070702020202020707070707070707070707070707070707070707070707070707070707070707070707070707
310
0707070707070707070707070707070707070707070707070707070707070707070707070707070707070707070707070707070707070707070707070707070707070707070707070707070707070707020207070707070707070701010107020207030302030303070C030303030301030303030307030303030202020707
310
07070707070702020202020207070707070707070707070707070707070707070707070707070707070707070707070707070707070707070707070707070707070707070707070707070707070707070707070707070707070707070707070707070707070707070707070707070707070707070707070707070707070707
310
07070707070202020707070707070707070202020702020707030307030303030C03030303090303030303030703030302020207070707070707070702070207070707070707070707070707070707070707070707070707070707070707070707070707070707070707070707070707070707070707070707070707070707
310
07070707070707070707070707070707070707070707070707070707070707070707070707070707070707070707070707070707070707070707020202070707070707070707020202070D0D070703030707070303010103030303030303030303030703030202020707070707070707070707070707070707070707070707
310
07070707070707070707070707070707070707070707070707070707070707070707070707070707070707070707070707070707070707070707070707070707070707070707070707070707070707070707070707070707070707070707070707070707070707070707070707070707020207070707070707070707010107
310
0707070707030307070303010C030303030303030703030303030302020207070707070707070707070707070707070707070707070707070707070707070707070707070707070707070707070707070707070707070707070707070707070707070707070707070707070707070707070707070707070707070707070707
310
07070707070707070707070707070707070707070707070707070707070707070707070707070202070707070707070707070101070707070707030307070303010C03030703030303030303070303030202020707070707070707070707070707070707070707070707070707070707070707070707070707070707070707
310
070707070707070707070707070707070707070707070707070707070707070707070707070707070707070707070707070707070707070707070707070707070707070707070707070707070707070707070707070707070707020202070707070707070707070701010202070703030707010303010C0303070303030303
310
07030307030302020207070707070707070707070707070707070707070707070707070707070707070707070707070707070707070707070707070707070707070707070707070707070707070707070707070707070707070707070707070707070707070707070707070707070707070707070707070707070707070707
310
0707070707070707070707070707070702020207070707070707070707070101020207070303070703030C0C0703030703030303030707030307030202020707070707070707070707070202020202020202020202020202020202020202070707070707070707070707070707070707070707070707070707070707070707
310
0707070707070707070707070707070707070707070707070707070707070707070707070707070707070707070707070707070707070707070707070707070707070707070702020707070707070707070707010107070707030307070303010C070703030303030303070707030307020202070707070707070707070707
310
02020303030202020202020202020202020202020707070707070707070707070707070707070707070707070707070707070707070707070707070707070707070707070707070707070707070707070707070707070707070707070707070707070707070707070707070707070707070707070707070707070702020707
310
070707070707070707010101010703030707070303010C0C07030303030303030307070303070202020707070707070707070707070202030303030303070707070707070707070202070707070707070707070707070707070707070707070707070707070707070707070707070707070707070707070707070707070707
310
0707070707070707070707070707070707070707070707070707070707070707070707070707070707070707070707070202020707070707070707070707070101010103030707070303010C0C0707030303030307030307070303020202070707070707070707070707020203030303030302020202020202070707020207
310
07070707070707070707070707070707070707070707070707070707070707070707070707070707070707070707070707070707070707070707070707070707070707070707070707070707070707070707070707070707070707070707070707070707070202020707070707070707070707070701010303020207070303
310
01010C07070303030703030703030307070202020707070707070707070707070202070707030303020202020202020707070202070707070707070707070707070707070707070707070707070707070707070707070707070707070707070707070707070707070707070707070707070707070707070707070707070707
310
07070707070707070707070707070707070707070707070707070707020207070707070707070707070707070703030202070703030101010C07030303030303030703030307020202070707070707070707070707020207020202020202020202020202020207020207070707070707070707070707070707070707070707
310
070707070707070707070707070707070707070707070707070707070707070707070707070707070707070707070707070707070707070707070707070707070707070707070707070707070707070707020207070707070707070707070707070303010707070703030101010C0703030703030303030307030302020207
310
07070707070707070707070202070202020202020202020202020202070202070707070707070707070707070707070707070707070707070707070707070707070707070707070707070707070707070707070707070707070707070707070707070707070707070707070707070707070707070707070707070707070707
310
07070707070702020207070707070707070707070707070707010107070703030701010303070303070303070303030303020202070707070707070707070707020207010101010102020202020202020707020207070707070707070707070707070707070707070707070707070707070707070707070707070707070707
310
07070707070707070707070707070707070707070707070707070707070707070707070707070707070707070707070707070707070707070707070202020707070707070707070707070707070707010107070303070701030303070303070303070703030303020207070707070707070707070702020701010101010202
310
02020202020207070202070707070707070707070707070707070707070707070707070707070707070707070707070707070707070707070707070707070707070707070707070707070707070707070707070707070707070707070707070707070707070707070707070707070707070202070707070707070707070707
310
070707070707010107030307070103030303070303070303030707030302020707070707070707070707070202070A0A0A0A0A02020202020207070707020207070707070707070707070707070707070707070707070707070707070707070707070707070707070707070707070707070707070707070707070707070707
310
0707070707070707070707070707070707070707070707070707070707070707070707070707070202070707070707070707070707070707070707070101030307070703030303070703030703030303070202020707070707070707070707070202070A0A0A0A0A0202020202020707070702020707070707070707070707
310
07070707070707070707070707070707070707070707070707070707070707070707070707070707070707070707070707070707070707070707070707070707070707070707070707070707070707070707070707070707070707020202070707070707070707070707070707070707070701030307070703030703030707
310
030303070303030302020707070707070707070707070202070A0A050A0A07070707070707070707020207070707070707070707070707070707070707070707070707070707070707070707070707070707070707070707070707070707070707070707070707070707070707070707070707070707070707070707070707
310
07070707070707070707070707070707070202020707070707070707070707070707070707070707010303070707030307070303070703030307070303020207070707070707070707070702020707070507070202020202020202070702020707070707070707070707070707070707070707070707070707070707070707
310
07070707070707070707070707070707070707070707070707070707070707070707070707070707070707070707070707070707070707070707070707070707070707070707070202070707070707070707070707070707070707070707030307070707030307070303070707030307070707070707070707070707070707
310
07020207070707070702020202020202020707020207070707070707070707070707070707070707070707070707070707070707070707070707070707070707070707070707070707070707070707070707070707070707070707070707070707070707070707070707070707070707070707070707070707070707020207
310
07070707070707070707070707070707070707070303010707070303070707030307070703030302020207070707070707070707070702020707070B0B070202020207070707070702020707070707070707070707070707070707070707070707070707070707070707070707070707070707070707070707070707070707
310
07070707070707070707070707070707070707070707070707070707070707070707070707070707070707070707070707020202070707070707070707070707070707070707070707030301070707030301070707030307070703030302020707070707070707070707070202070707020207020202020707070707070202
310
07070707070707070707070707070707070707070707070707070707070707070707070707070707070707070707070707070707070707070707070707070707070707070707070707070707070707070707070707070707070707070707070707070707070702020207070707070707070707070707070707070707070707
310
07010107070303010707070703030307070703020207070707070707070707070702020707070202070202020202020207070702020707070707070707070707070707070707070707070707070707070707070707070707070707070707070707070707070707070707070707070707070707070707070707070707070707
310
070707070707070707070707070707070707070707070707070707070702020707070707070707070707070707070707070707070707070101070303010107070707030303070707070707070707070707070707070702020707070D0707020202020202020707070202070707070707070707070707070707070707070707
310
07070707070707070707070707070707070707070707070707070707070707070707070707070707070707070707070707070707070707070707070707070707070707070707070707070707070707070702020207070707070707070707070707070707070707070707070707010103030101070303070707030307020202
310
07070707070707070707070702020707020202070202020202020207070702020707070707070707070707070707070707070707070707070707070707070707070707070707070707070707070707070707070707070707070707070707070707070707070707070707070707070707070707070707070707070707070707
310
07070707070707020202070707070707070707070707070707070707070707070707070703030707010303030307070703030202020707070707070707070707070202070702020207020202020202020707070202070707070707070707070707070707070707070707070707070707070707070707070707070707070707
310
07070707070707070707070707070707070707070707070707070707070707070707070707070707070707070707070707070707070707070707070707020207070707070707070707070707070707070707070707070707070303010701030307030307070703020202070707070707070707070707020207070707070707
310
07070707070707070702020707070707070707070707070707070707070707070707070707070707070707070707070707070707070707070707070707070707070707070707070707070707070707070707070707070707070707070707070707070707070707070707070707070707070702020707070707070707070707
310
07070707070707070707070707070703030101030307070703030307070707070707070707070707070707070202020202020202020202020202020202020202070707070707070707070707070707070707070707070707070707070707070707070707070707070707070707070707070707070707070707070707070707
310
07070707070707070707070707070707070707070707070707070707070707070707070707070702020207070707070707070707070707070707070707070707070707070707010103030101070703030307020202070707070707070707070707070202020202020202020202020202020202020207070707070707070707
310
07070707070707070707070707070707070707070707070707070707070707070707070707070707070707070707070707070707070707070707070707070707070707070707070707070707070707070707070707070707070707070202020707070707070707070707070707070707070707070707070707070707030301
310
01010107070703030202020707070707070707070707070707070707070707070707070707070707070707070707070707070707070707070707070707070707070707070707070707070707070707070707070707070707070707070707070707070707070707070707070707070707070707070707070707070707070707
310
07070707070707070707070707070707070707020207070707070707070707070707070707070707070707070707070707070303010701030307070703020202070707070707070707070707070707070707070707070707070707070707070707070707070707070707070707070707070707070707070707070707070707
310
07070707070707070707070707070707070707070707070707070707070707070707070707070707070707070707070707070707070707070707070707070707070707070707070702020707070707070707070707070707070707070707070707070707070707070701010103030307070707070707070707070707070707
310
07070707070707070707070707070707070707070707070707070707070707070707070707070707070707070707070707070707070707070707070707070707070707070707070707070707070707070707070707070707070707070707070707070707070707070707070707070707070707070707070707070707020202
310
07070707070707070707070707070707070707070707070707070707070707070102020103030707020202070707070707070707070707070707070707070707070707070707070707070707070707070707070707070707070707070707070707070707070707070707070707070707070707070707070707070707070707
310
07070707070707070707070707070707070707070707070707070707070707070707070707070707070707070707070707070202020707070707070707070707070707070707070707070707070707070707070707070202010103030702020207070707070707070707070707070707070707070707070707070707070707
310
07070707070707070707070707070707070707070707070707070707070707070707070707070707070707070707070707070707070707070707070707070707070707070707070707070707070707070707070707070707070707070707070707070707070707070202070707070707070707070707070707070707070707
310
07070707070707070707070702020701010307020202070707070707070707070707070707070707070707070707070707070707070707070707070707070707070707070707070707070707070707070707070707070707070707070707070707070707070707070707070707070707070707070707070707070707070707
310
07070707070707070707070707070707070707070707070707070707070702020707070707070707070707070707070707070707070707070707070707070707070202010501010707070707070707070707070707070707070707070707070707070707070707070707070707070707070707070707070707070707070707
310
07070707070707070707070707070707070707070707070707070707070707070707070707070707070707070707070707070707070707070707070707070707070707070707070707070707070707070707020202070707070707070707070707070707070707070707070707070707070707070707070101050101070707
310
07070707070707070707070707070707070707070707070707070707070707070707070707070707070707070707070707070707070707070707070707070707070707070707070707070707070707070707070707070707070707070707070707070707070707070707070707070707070707070707070707070707070707
310
07070707070707070202020202020202020202020202020202020202020202020202020202020202020202020202020202020202020202020202020202020202020202020202020202020202020202020202020202020202020202020707070707070707070707070707070707070707070707070707070707070707070707
310
07070707070707070707070707070707070707070707070707070707070707070707070707070707070707070707070707070707070707070707070707070702020202020202020202020202020202020202020202020202020202020202020202020202020202020202020202020202020202020202020202020202020202
310
02020202020202020202020202020202020207070707070707070707070707070707070707070707070707070707070707070707070707070707070707070707070707070707070707070707070707070707070707070707070707070707070707070707070707070707070707070707070707070702020707020207070202
310
07070202070202070702020707020207070202070702020707020207070202070702020707020207070202070702020707020207070202070702020707020207070202070707070707070707070707070707070707070707070707070707070707070707070707070707070707070707070707070707070707070707070707
310
07070707070707070707070707070707070707070707070707070707070707070707070707070707070707070707070707070707070707070707070707070707070707070707070707070707070707070707070707070707070707070707070707070707070707070707070707070707070707070707070707070707070707
310
07070707070707070707070707070707070707070707070707070707070707070707070707070707070707070707070707070707070707070707070707070707070707070707070707070707070707070707070707070707070707070707070707070707070707070707070707070707070707070707070707070707070707
310
07070707070707070707070707070707070707070707070707070707070707070707070707070707070707070707070707070707070707070707070707070707070707070707070707070707070707070707070707070707070707070707070707070707070707070707070707070707070707070707070707070707070707
310
07070707070707070707070707070707070707070707070707070707070707070707070707070707070707070707070707070707070707070707070707070707070707070707070707070707070707070707070707070707070707070707070707070707070707070707070707070707070707070707070707070707070707
310
07070707070707070707070707070707070707070707070707070707070707070707070707070707070707070707070707070707070707070707070707070707070707070707070707070707070707070707070707070707070707070707070707070707070707070707070707070707070707070707070707070707070707
310
07070707070707070707070707070707070707070707070707070707070707070707070707070707070707070707070707070707070707070707070707070707070707070707070707070707070707070707070707070707070707070707070707070707070707070707070707070707070707070707070707070707070707
310
07070707070707070707070707070707070707070707070707070707070707070707070707070707070707070707070707070707070707070707070707070707070707070707070707070707070707070707070707070707070707070707070707070707070707070707070707070707070707070707070707070707070707
310
07070707070707070707070707070707070707070707070707070707070707070707070707070707070707070707070707070707070707070707070707070707070707070707070707070707070707070707070707070707020202020202020202020202020202070707070707070707070707070707070707070707070707
310
07070707070707070707070707070707070707070707070707070707070707070707070707070707070707070707070707070707070707070707070707070707070707070707070707070707070707070707070707070707070707070707070707070707070707070707070707070707070707070707070707070707070707
310
07070707070707070707070707070202020202020202020202020202020707070707070707070707070707070707070707070707070707070707070707070707070707070707070707070707070707070707070707070707070707070707070707070707070707070707070707070707070707070707070707070707070707
310
07070707070707070707070707070707070707070707070707070707070707070707070707070707070707070707070707070707070707070707070707070707070707020202020202020202020202020202070707070707070707070707070707070707070707070707070707070707070707070707070707070707070707
310
07070707070707070707070707070707070707070707070707070707070707070707070707070707070707070707070707070707070707070707070707070707070707070707070707070707070707070707070707070707070707070707070707070707070707070707070707070707070707070707070707020202020202
310
02020202020202020707070707070707070707070707070707070707070707070707070707070707070707070707070707070707070707070707070707070707070707070707070707070707070707070707070707070707070707070707070707070707070707070707070707070707070707070707070707070707070707
310
07070707070707070707070707070707070707070707070707070707070707070707070707070707070707070707070707070707070707070707070707070707070707070707070707070707070707070707070707070707070707070707070707070707070707070707070707070707070707070707070707070707070707
310
07070707070707070707070707070707070707070707070707070707070707070707070707070707070707070707070707070707070707070707070707070707070707070707070707070707070707070707070707070707070707070707070707070707070707070707070707070707070707070707070707070707070707
310
07070707070707070707070707070707070707070707070707070707070707070707070707070707070707070707070707070707070707070707070707070707070707070000000000000000000000000000000000000000000000000000000000000000000000000000000000000000000000000000000000000000000000
310
00000000000000000000000000000000000000000000000000000000000000000000000000000000000000000000000000000000000000000000000000000000000000000000000000000000000000000000000000000000000000000000000000000000000000000000000000000000000000000000000804
  0
ENDSEC
  0
EOF
