  0
SECTION
  2
HEADER
  9
$ACADVER
  1
AC1014
  9
$ACADMAINTVER
 70
     9
  9
$DWGCODEPAGE
  3
ANSI_1252
  9
$INSBASE
 10
0.0
 20
0.0
 30
0.0
  9
$EXTMIN
 10
-1434.987656
 20
-938.514994
 30
0.0
  9
$EXTMAX
 10
383.067134
 20
292.262565
 30
0.0
  9
$LIMMIN
 10
-4916.922169
 20
-4714.088122
  9
$LIMMAX
 10
3865.001647
 20
4067.835694
  9
$ORTHOMODE
 70
     0
  9
$REGENMODE
 70
     1
  9
$FILLMODE
 70
     1
  9
$QTEXTMODE
 70
     0
  9
$MIRRTEXT
 70
     0
  9
$DRAGMODE
 70
     2
  9
$LTSCALE
 40
1.0
  9
$OSMODE
 70
    37
  9
$ATTMODE
 70
     1
  9
$TEXTSIZE
 40
3.0
  9
$TRACEWID
 40
0.05
  9
$TEXTSTYLE
  7
STANDARD
  9
$CLAYER
  8
SCALE
  9
$CELTYPE
  6
BYLAYER
  9
$CECOLOR
 62
   250
  9
$CELTSCALE
 40
1.0
  9
$DELOBJ
 70
     1
  9
$DISPSILH
 70
     0
  9
$DIMSCALE
 40
1.0
  9
$DIMASZ
 40
3.0
  9
$DIMEXO
 40
1.5
  9
$DIMDLI
 40
0.0
  9
$DIMRND
 40
0.0
  9
$DIMDLE
 40
0.0
  9
$DIMEXE
 40
1.5
  9
$DIMTP
 40
0.0
  9
$DIMTM
 40
0.0
  9
$DIMTXT
 40
3.0
  9
$DIMCEN
 40
0.09
  9
$DIMTSZ
 40
0.0
  9
$DIMTOL
 70
     0
  9
$DIMLIM
 70
     0
  9
$DIMTIH
 70
     0
  9
$DIMTOH
 70
     0
  9
$DIMSE1
 70
     0
  9
$DIMSE2
 70
     0
  9
$DIMTAD
 70
     1
  9
$DIMZIN
 70
    11
  9
$DIMBLK
  1
TERMINATOROPEN_0_5
  9
$DIMASO
 70
     1
  9
$DIMSHO
 70
     1
  9
$DIMPOST
  1

  9
$DIMAPOST
  1

  9
$DIMALT
 70
     0
  9
$DIMALTD
 70
     4
  9
$DIMALTF
 40
1.0
  9
$DIMLFAC
 40
1.0
  9
$DIMTOFL
 70
     0
  9
$DIMTVP
 40
0.0
  9
$DIMTIX
 70
     0
  9
$DIMSOXD
 70
     0
  9
$DIMSAH
 70
     0
  9
$DIMBLK1
  1

  9
$DIMBLK2
  1

  9
$DIMSTYLE
  2
STANDARD
  9
$DIMCLRD
 70
     0
  9
$DIMCLRE
 70
     0
  9
$DIMCLRT
 70
     0
  9
$DIMTFAC
 40
1.0
  9
$DIMGAP
 40
1.5
  9
$DIMJUST
 70
     0
  9
$DIMSD1
 70
     0
  9
$DIMSD2
 70
     0
  9
$DIMTOLJ
 70
     0
  9
$DIMTZIN
 70
    11
  9
$DIMALTZ
 70
    15
  9
$DIMALTTZ
 70
    15
  9
$DIMFIT
 70
     5
  9
$DIMUPT
 70
     0
  9
$DIMUNIT
 70
     2
  9
$DIMDEC
 70
     4
  9
$DIMTDEC
 70
     4
  9
$DIMALTU
 70
     2
  9
$DIMALTTD
 70
     4
  9
$DIMTXSTY
  7
STYLE-GARAMOND
  9
$DIMAUNIT
 70
     0
  9
$LUNITS
 70
     2
  9
$LUPREC
 70
     4
  9
$SKETCHINC
 40
0.1
  9
$FILLETRAD
 40
0.0
  9
$AUNITS
 70
     0
  9
$AUPREC
 70
     4
  9
$MENU
  1
.
  9
$ELEVATION
 40
0.0
  9
$PELEVATION
 40
0.0
  9
$THICKNESS
 40
0.0
  9
$LIMCHECK
 70
     0
  9
$CHAMFERA
 40
0.0
  9
$CHAMFERB
 40
0.0
  9
$CHAMFERC
 40
0.0
  9
$CHAMFERD
 40
0.0
  9
$SKPOLY
 70
     0
  9
$TDCREATE
 40
2455265.467923739
  9
$TDUPDATE
 40
2455265.4680239
  9
$TDINDWG
 40
0.0
  9
$TDUSRTIMER
 40
0.0006630093
  9
$USRTIMER
 70
     1
  9
$ANGBASE
 50
0.0
  9
$ANGDIR
 70
     0
  9
$PDMODE
 70
     0
  9
$PDSIZE
 40
0.0
  9
$PLINEWID
 40
0.0
  9
$COORDS
 70
     1
  9
$SPLFRAME
 70
     0
  9
$SPLINETYPE
 70
     6
  9
$SPLINESEGS
 70
     8
  9
$ATTDIA
 70
     0
  9
$ATTREQ
 70
     1
  9
$HANDLING
 70
     1
  9
$HANDSEED
  5
14E9
  9
$SURFTAB1
 70
     6
  9
$SURFTAB2
 70
     6
  9
$SURFTYPE
 70
     6
  9
$SURFU
 70
     6
  9
$SURFV
 70
     6
  9
$UCSNAME
  2

  9
$UCSORG
 10
0.0
 20
0.0
 30
0.0
  9
$UCSXDIR
 10
1.0
 20
0.0
 30
0.0
  9
$UCSYDIR
 10
0.0
 20
1.0
 30
0.0
  9
$PUCSNAME
  2

  9
$PUCSORG
 10
0.0
 20
0.0
 30
0.0
  9
$PUCSXDIR
 10
1.0
 20
0.0
 30
0.0
  9
$PUCSYDIR
 10
0.0
 20
1.0
 30
0.0
  9
$USERI1
 70
     0
  9
$USERI2
 70
     0
  9
$USERI3
 70
     0
  9
$USERI4
 70
     0
  9
$USERI5
 70
     0
  9
$USERR1
 40
0.0
  9
$USERR2
 40
0.0
  9
$USERR3
 40
0.0
  9
$USERR4
 40
0.0
  9
$USERR5
 40
0.0
  9
$WORLDVIEW
 70
     1
  9
$SHADEDGE
 70
     3
  9
$SHADEDIF
 70
    70
  9
$TILEMODE
 70
     1
  9
$MAXACTVP
 70
    64
  9
$PINSBASE
 10
0.0
 20
0.0
 30
0.0
  9
$PLIMCHECK
 70
     0
  9
$PEXTMIN
 10
1.049744
 20
0.799667
 30
-0.001526
  9
$PEXTMAX
 10
9.450623
 20
7.200577
 30
0.0
  9
$PLIMMIN
 10
-0.25
 20
-0.25
  9
$PLIMMAX
 10
10.75
 20
8.25
  9
$UNITMODE
 70
     0
  9
$VISRETAIN
 70
     1
  9
$PLINEGEN
 70
     0
  9
$PSLTSCALE
 70
     0
  9
$TREEDEPTH
 70
  3020
  9
$PICKSTYLE
 70
     1
  9
$CMLSTYLE
  2
STANDARD
  9
$CMLJUST
 70
     0
  9
$CMLSCALE
 40
1.0
  9
$PROXYGRAPHICS
 70
     1
  9
$MEASUREMENT
 70
     0
  0
ENDSEC
  0
SECTION
  2
CLASSES
  0
CLASS
  1
ACDBDICTIONARYWDFLT
  2
AcDbDictionaryWithDefault
  3
ObjectDBX Classes
 90
        0
280
     0
281
     0
  0
CLASS
  1
SORTENTSTABLE
  2
AcDbSortentsTable
  3
ObjectDBX Classes
 90
        0
280
     0
281
     0
  0
CLASS
  1
XRECORD
  2
AcDbXrecord
  3
AutoCAD 2000
 90
        0
280
     0
281
     0
  0
CLASS
  1
LWPOLYLINE
  2
AcDbPolyline
  3
AutoCAD 2000
 90
        0
280
     0
281
     1
  0
CLASS
  1
HATCH
  2
AcDbHatch
  3
AutoCAD 2000
 90
        0
280
     0
281
     1
  0
CLASS
  1
ACDBPLACEHOLDER
  2
AcDbPlaceHolder
  3
ObjectDBX Classes
 90
        0
280
     0
281
     0
  0
CLASS
  1
LAYOUT
  2
AcDbLayout
  3
ObjectDBX Classes
 90
        0
280
     0
281
     0
  0
ENDSEC
  0
SECTION
  2
TABLES
  0
TABLE
  2
VPORT
  5
12B7
330
0
100
AcDbSymbolTable
 70
     1
  0
VPORT
  5
4B
330
12B7
100
AcDbSymbolTableRecord
100
AcDbViewportTableRecord
  2
*ACTIVE
 70
     0
 10
0.0
 20
0.0
 11
1.0
 21
1.0
 12
172.34063
 22
-22.313975
 13
0.0
 23
0.0
 14
0.328084
 24
0.328084
 15
0.328084
 25
0.328084
 16
0.0
 26
0.0
 36
1.0
 17
0.0
 27
0.0
 37
0.0
 40
295.496884
 41
1.590299
 42
50.0
 43
0.0
 44
0.0
 50
0.0
 51
0.0
 71
     0
 72
   100
 73
     1
 74
     2
 75
     0
 76
     0
 77
     0
 78
     1
  0
ENDTAB
  0
TABLE
  2
LTYPE
  5
129E
330
0
100
AcDbSymbolTable
 70
     3
  0
LTYPE
  5
129F
330
129E
100
AcDbSymbolTableRecord
100
AcDbLinetypeTableRecord
  2
BYBLOCK
 70
     0
  3

 72
    65
 73
     0
 40
0.0
  0
LTYPE
  5
12A0
330
129E
100
AcDbSymbolTableRecord
100
AcDbLinetypeTableRecord
  2
BYLAYER
 70
     0
  3

 72
    65
 73
     0
 40
0.0
  0
LTYPE
  5
129D
330
129E
100
AcDbSymbolTableRecord
100
AcDbLinetypeTableRecord
  2
CONTINUOUS
 70
     0
  3
Solid line
 72
    65
 73
     0
 40
0.0
  0
LTYPE
  5
12BE
330
129E
100
AcDbSymbolTableRecord
100
AcDbLinetypeTableRecord
  2
DGN_STYLE_4
 70
     0
  3
Dgn Style 4
 72
    65
 73
     4
 40
7.534223
 49
3.764759
 74
     0
 49
-1.882379
 74
     0
 49
0.004706
 74
     0
 49
-1.882379
 74
     0
  0
LTYPE
  5
12BF
330
129E
100
AcDbSymbolTableRecord
100
AcDbLinetypeTableRecord
  2
DGN_STYLE_2
 70
     0
  3
Dgn Style 2
 72
    65
 73
     2
 40
4.705948
 49
2.823569
 74
     0
 49
-1.882379
 74
     0
  0
ENDTAB
  0
TABLE
  2
LAYER
  5
1297
102
{ACAD_XDICTIONARY
360
1298
102
}
330
0
100
AcDbSymbolTable
 70
    20
  0
LAYER
  5
1296
330
1297
100
AcDbSymbolTableRecord
100
AcDbLayerTableRecord
  2
0
 70
     0
 62
     7
  6
CONTINUOUS
  0
LAYER
  5
19E
330
1297
100
AcDbSymbolTableRecord
100
AcDbLayerTableRecord
  2
PHASEIII_STPS
 70
     0
 62
   178
  6
CONTINUOUS
  0
LAYER
  5
210
330
1297
100
AcDbSymbolTableRecord
100
AcDbLayerTableRecord
  2
PHASEIII_UNITS
 70
     0
 62
   178
  6
DGN_STYLE_4
  0
LAYER
  5
241
330
1297
100
AcDbSymbolTableRecord
100
AcDbLayerTableRecord
  2
PHASEIII_UNIT_NUMBERS
 70
     0
 62
   250
  6
CONTINUOUS
  0
LAYER
  5
26E
330
1297
100
AcDbSymbolTableRecord
100
AcDbLayerTableRecord
  2
PHASE_II_UNITS
 70
     0
 62
    12
  6
DGN_STYLE_4
  0
LAYER
  5
27A
330
1297
100
AcDbSymbolTableRecord
100
AcDbLayerTableRecord
  2
PHASEII_UNIT_NUMBERS
 70
     0
 62
    12
  6
CONTINUOUS
  0
LAYER
  5
294
330
1297
100
AcDbSymbolTableRecord
100
AcDbLayerTableRecord
  2
PHASEI_STPS
 70
     0
 62
    94
  6
CONTINUOUS
  0
LAYER
  5
2EC
330
1297
100
AcDbSymbolTableRecord
100
AcDbLayerTableRecord
  2
PHASEI_STP_NUMBERS
 70
     0
 62
   250
  6
CONTINUOUS
  0
LAYER
  5
31A
330
1297
100
AcDbSymbolTableRecord
100
AcDbLayerTableRecord
  2
EXCAVATION_BOUNDARY
 70
     0
 62
    30
  6
DGN_STYLE_2
  0
LAYER
  5
35C
330
1297
100
AcDbSymbolTableRecord
100
AcDbLayerTableRecord
  2
FEATURES
 70
     0
 62
   253
  6
CONTINUOUS
  0
LAYER
  5
324
330
1297
100
AcDbSymbolTableRecord
100
AcDbLayerTableRecord
  2
STRIPPED_BLOCK
 70
     0
 62
    54
  6
DGN_STYLE_2
  0
LAYER
  5
365
330
1297
100
AcDbSymbolTableRecord
100
AcDbLayerTableRecord
  2
FEATURE_NUMBERS
 70
     0
 62
   250
  6
CONTINUOUS
  0
LAYER
  5
3DC
330
1297
100
AcDbSymbolTableRecord
100
AcDbLayerTableRecord
  2
SITE_ISOLATION_FENCE
 70
     0
 62
    46
  6
CONTINUOUS
  0
LAYER
  5
400
330
1297
100
AcDbSymbolTableRecord
100
AcDbLayerTableRecord
  2
GRID_COORDINATES
 70
     0
 62
   250
  6
CONTINUOUS
  0
LAYER
  5
401
330
1297
100
AcDbSymbolTableRecord
100
AcDbLayerTableRecord
  2
NORTH_ARRORW
 70
     0
 62
   250
  6
CONTINUOUS
  0
LAYER
  5
402
330
1297
100
AcDbSymbolTableRecord
100
AcDbLayerTableRecord
  2
LEGEND
 70
     0
 62
   250
  6
CONTINUOUS
  0
LAYER
  5
E0A
330
1297
100
AcDbSymbolTableRecord
100
AcDbLayerTableRecord
  2
PHASEI_LABELS
 70
     0
 62
     7
  6
CONTINUOUS
  0
LAYER
  5
E90
330
1297
100
AcDbSymbolTableRecord
100
AcDbLayerTableRecord
  2
TRANSECTS
 70
     0
 62
     7
  6
CONTINUOUS
  0
LAYER
  5
11C9
330
1297
100
AcDbSymbolTableRecord
100
AcDbLayerTableRecord
  2
PHASE_II_STPS
 70
     0
 62
     5
  6
CONTINUOUS
  0
LAYER
  5
1222
330
1297
100
AcDbSymbolTableRecord
100
AcDbLayerTableRecord
  2
SCALE
 70
     0
 62
     7
  6
CONTINUOUS
  0
ENDTAB
  0
TABLE
  2
STYLE
  5
12A2
330
0
100
AcDbSymbolTable
 70
     3
  0
STYLE
  5
12A1
330
12A2
100
AcDbSymbolTableRecord
100
AcDbTextStyleTableRecord
  2
STANDARD
 70
     0
 40
0.0
 41
1.0
 50
0.0
 71
     0
 42
3.0
  3
txt.shx
  4

  0
STYLE
  5
E8F
330
12A2
100
AcDbSymbolTableRecord
100
AcDbTextStyleTableRecord
  2
ROMANS
 70
     0
 40
3.0
 41
1.0
 50
0.0
 71
     0
 42
0.2
  3
romans.shx
  4

  0
STYLE
  5
12C1
330
12A2
100
AcDbSymbolTableRecord
100
AcDbTextStyleTableRecord
  2
STYLE-GARAMOND
 70
     0
 40
0.0
 41
1.0
 50
0.0
 71
     0
 42
0.2
  3

  4

1001
ACAD
1000
Garamond
1071
       23
  0
ENDTAB
  0
TABLE
  2
VIEW
  5
12B5
330
0
100
AcDbSymbolTable
 70
     0
  0
ENDTAB
  0
TABLE
  2
UCS
  5
12B6
330
0
100
AcDbSymbolTable
 70
     0
  0
ENDTAB
  0
TABLE
  2
APPID
  5
12B4
330
0
100
AcDbSymbolTable
 70
     7
  0
APPID
  5
12BC
330
12B4
100
AcDbSymbolTableRecord
100
AcDbRegAppTableRecord
  2
ACAD
 70
     0
  0
APPID
  5
12B3
330
12B4
100
AcDbSymbolTableRecord
100
AcDbRegAppTableRecord
  2
ACAD_PSEXT
 70
     0
  0
APPID
  5
14C1
330
12B4
100
AcDbSymbolTableRecord
100
AcDbRegAppTableRecord
  2
AVE_ENTITY_MATERIAL
 70
     0
  0
APPID
  5
14C2
330
12B4
100
AcDbSymbolTableRecord
100
AcDbRegAppTableRecord
  2
AVE_MATERIAL
 70
     0
  0
APPID
  5
14C3
330
12B4
100
AcDbSymbolTableRecord
100
AcDbRegAppTableRecord
  2
AVE_FINISH
 70
     0
  0
APPID
  5
14C4
330
12B4
100
AcDbSymbolTableRecord
100
AcDbRegAppTableRecord
  2
AVE_GLOBAL
 70
     0
  0
APPID
  5
14C5
330
12B4
100
AcDbSymbolTableRecord
100
AcDbRegAppTableRecord
  2
AVE_RENDER
 70
     0
  0
ENDTAB
  0
TABLE
  2
DIMSTYLE
  5
12A4
330
0
100
AcDbSymbolTable
 70
     1
  0
DIMSTYLE
105
12A3
330
12A4
100
AcDbSymbolTableRecord
100
AcDbDimStyleTableRecord
  2
STANDARD
 70
     0
  3

  4

  5

  6

  7

 40
1.0
 41
0.18
 42
0.0625
 43
0.38
 44
0.18
 45
0.0
 46
0.0
 47
0.0
 48
0.0
140
0.18
141
0.09
142
0.0
143
25.4
144
1.0
145
0.0
146
1.0
147
0.09
 71
     0
 72
     0
 73
     1
 74
     1
 75
     0
 76
     0
 77
     0
 78
     0
170
     0
171
     2
172
     0
173
     0
174
     0
175
     0
176
     0
177
     0
178
     0
270
     2
271
     4
272
     4
273
     2
274
     2
340
12A1
275
     0
280
     0
281
     0
282
     0
283
     1
284
     0
285
     0
286
     0
287
     3
288
     0
  0
ENDTAB
  0
TABLE
  2
BLOCK_RECORD
  5
12A7
330
0
100
AcDbSymbolTable
 70
     1
  0
BLOCK_RECORD
  5
12A8
102
{ACAD_XDICTIONARY
360
12E9
102
}
330
12A7
100
AcDbSymbolTableRecord
100
AcDbBlockTableRecord
  2
*MODEL_SPACE
  0
BLOCK_RECORD
  5
12AD
330
12A7
100
AcDbSymbolTableRecord
100
AcDbBlockTableRecord
  2
*PAPER_SPACE
  0
BLOCK_RECORD
  5
12C2
330
12A7
100
AcDbSymbolTableRecord
100
AcDbBlockTableRecord
  2
TERMINATOROPEN_0_5
  0
ENDTAB
  0
ENDSEC
  0
SECTION
  2
BLOCKS
  0
BLOCK
  5
12A9
330
12A8
100
AcDbEntity
  8
0
100
AcDbBlockBegin
  2
*MODEL_SPACE
 70
     0
 10
0.0
 20
0.0
 30
0.0
  3
*MODEL_SPACE
  1

  0
ENDBLK
  5
12AA
330
12A8
100
AcDbEntity
  8
0
100
AcDbBlockEnd
  0
BLOCK
  5
12AE
330
12AD
100
AcDbEntity
 67
     1
  8
0
100
AcDbBlockBegin
  2
*PAPER_SPACE
 70
     0
 10
0.0
 20
0.0
 30
0.0
  3
*PAPER_SPACE
  1

  0
ENDBLK
  5
12AF
330
12AD
100
AcDbEntity
 67
     1
  8
0
100
AcDbBlockEnd
  0
BLOCK
  5
12C6
330
12C2
100
AcDbEntity
  8
0
100
AcDbBlockBegin
  2
TERMINATOROPEN_0_5
 70
     0
 10
0.0
 20
0.0
 30
0.0
  3
TERMINATOROPEN_0_5
  1

  0
LINE
  5
12C3
330
12C2
100
AcDbEntity
  8
0
  6
BYBLOCK
 62
     0
100
AcDbLine
 10
0.0
 20
0.0
 30
0.0
 11
-1.0
 21
0.0
 31
0.0
  0
LINE
  5
12C4
330
12C2
100
AcDbEntity
  8
0
  6
BYBLOCK
 62
     0
100
AcDbLine
 10
0.0
 20
0.0
 30
0.0
 11
-1.0
 21
0.25
 31
0.0
  0
LINE
  5
12C5
330
12C2
100
AcDbEntity
  8
0
  6
BYBLOCK
 62
     0
100
AcDbLine
 10
0.0
 20
0.0
 30
0.0
 11
-1.0
 21
-0.25
 31
0.0
  0
ENDBLK
  5
12C7
330
12C2
100
AcDbEntity
  8
0
100
AcDbBlockEnd
  0
ENDSEC
  0
SECTION
  2
ENTITIES
  0
HATCH
  5
101
330
12A8
100
AcDbEntity
  8
PHASEIII_STPS
  6
CONTINUOUS
 62
   250
100
AcDbHatch
 10
0.0
 20
0.0
 30
0.0
210
0.0
220
0.0
230
1.0
  2
SOLID
 70
     1
 71
     0
 91
        1
 92
        1
 93
        1
 72
     2
 10
0.0
 20
0.0
 40
0.4977517310035963
 50
0.0
 51
360.0
 73
     1
 97
        0
 75
     0
 76
     1
 98
        0
  0
HATCH
  5
102
330
12A8
100
AcDbEntity
  8
PHASEIII_STPS
  6
CONTINUOUS
 62
   250
100
AcDbHatch
 10
0.0
 20
0.0
 30
0.0
210
0.0
220
0.0
230
1.0
  2
SOLID
 70
     1
 71
     0
 91
        1
 92
        1
 93
        1
 72
     2
 10
0.0
 20
25.0
 40
0.4977517310035963
 50
0.0
 51
360.0
 73
     1
 97
        0
 75
     0
 76
     1
 98
        0
  0
HATCH
  5
103
330
12A8
100
AcDbEntity
  8
PHASEIII_STPS
  6
CONTINUOUS
 62
   250
100
AcDbHatch
 10
0.0
 20
0.0
 30
0.0
210
0.0
220
0.0
230
1.0
  2
SOLID
 70
     1
 71
     0
 91
        1
 92
        1
 93
        1
 72
     2
 10
0.0
 20
50.00000000000001
 40
0.4977517310035963
 50
0.0
 51
360.0
 73
     1
 97
        0
 75
     0
 76
     1
 98
        0
  0
HATCH
  5
104
330
12A8
100
AcDbEntity
  8
PHASEIII_STPS
  6
CONTINUOUS
 62
   250
100
AcDbHatch
 10
0.0
 20
0.0
 30
0.0
210
0.0
220
0.0
230
1.0
  2
SOLID
 70
     1
 71
     0
 91
        1
 92
        1
 93
        1
 72
     2
 10
0.0
 20
75.00000000000003
 40
0.4977517310035963
 50
0.0
 51
360.0
 73
     1
 97
        0
 75
     0
 76
     1
 98
        0
  0
HATCH
  5
105
330
12A8
100
AcDbEntity
  8
PHASEIII_STPS
  6
CONTINUOUS
 62
   250
100
AcDbHatch
 10
0.0
 20
0.0
 30
0.0
210
0.0
220
0.0
230
1.0
  2
SOLID
 70
     1
 71
     0
 91
        1
 92
        1
 93
        1
 72
     2
 10
0.0
 20
100.0
 40
0.4977517310035963
 50
0.0
 51
360.0
 73
     1
 97
        0
 75
     0
 76
     1
 98
        0
  0
HATCH
  5
107
330
12A8
100
AcDbEntity
  8
PHASEIII_STPS
  6
CONTINUOUS
 62
   250
100
AcDbHatch
 10
0.0
 20
0.0
 30
0.0
210
0.0
220
0.0
230
1.0
  2
SOLID
 70
     1
 71
     0
 91
        1
 92
        1
 93
        1
 72
     2
 10
0.0
 20
125.0
 40
0.4977517310035963
 50
0.0
 51
360.0
 73
     1
 97
        0
 75
     0
 76
     1
 98
        0
  0
HATCH
  5
108
330
12A8
100
AcDbEntity
  8
PHASEIII_STPS
  6
CONTINUOUS
 62
   250
100
AcDbHatch
 10
0.0
 20
0.0
 30
0.0
210
0.0
220
0.0
230
1.0
  2
SOLID
 70
     1
 71
     0
 91
        1
 92
        1
 93
        1
 72
     2
 10
0.0
 20
150.0000000000001
 40
0.4977517310035963
 50
0.0
 51
360.0
 73
     1
 97
        0
 75
     0
 76
     1
 98
        0
  0
HATCH
  5
109
330
12A8
100
AcDbEntity
  8
PHASEIII_STPS
  6
CONTINUOUS
 62
   250
100
AcDbHatch
 10
0.0
 20
0.0
 30
0.0
210
0.0
220
0.0
230
1.0
  2
SOLID
 70
     1
 71
     0
 91
        1
 92
        1
 93
        1
 72
     2
 10
0.0
 20
175.0000000000001
 40
0.4977517310035963
 50
0.0
 51
360.0
 73
     1
 97
        0
 75
     0
 76
     1
 98
        0
  0
TEXT
  5
10A
330
12A8
100
AcDbEntity
  8
GRID_COORDINATES
  6
CONTINUOUS
 62
   250
100
AcDbText
 10
0.0
 20
170.365171
 30
0.0
 40
2.0
  1
0, 175
  7
STYLE-GARAMOND
 11
0.0
 21
172.365171
 31
0.0
100
AcDbText
 73
     3
  0
TEXT
  5
10B
330
12A8
100
AcDbEntity
  8
GRID_COORDINATES
  6
CONTINUOUS
 62
   250
100
AcDbText
 10
0.0
 20
-4.016805
 30
0.0
 40
2.0
  1
0, 0
  7
STYLE-GARAMOND
 11
0.0
 21
-2.016805
 31
0.0
100
AcDbText
 73
     3
  0
HATCH
  5
10C
330
12A8
100
AcDbEntity
  8
PHASEIII_STPS
  6
CONTINUOUS
 62
   250
100
AcDbHatch
 10
0.0
 20
0.0
 30
0.0
210
0.0
220
0.0
230
1.0
  2
SOLID
 70
     1
 71
     0
 91
        1
 92
        1
 93
        1
 72
     2
 10
0.0
 20
-25.0
 40
0.4977517310035963
 50
0.0
 51
360.0
 73
     1
 97
        0
 75
     0
 76
     1
 98
        0
  0
HATCH
  5
10D
330
12A8
100
AcDbEntity
  8
PHASEIII_STPS
  6
CONTINUOUS
 62
   250
100
AcDbHatch
 10
0.0
 20
0.0
 30
0.0
210
0.0
220
0.0
230
1.0
  2
SOLID
 70
     1
 71
     0
 91
        1
 92
        1
 93
        1
 72
     2
 10
0.0
 20
-50.0
 40
0.4977517310035963
 50
0.0
 51
360.0
 73
     1
 97
        0
 75
     0
 76
     1
 98
        0
  0
HATCH
  5
10E
330
12A8
100
AcDbEntity
  8
PHASEIII_STPS
  6
CONTINUOUS
 62
   250
100
AcDbHatch
 10
0.0
 20
0.0
 30
0.0
210
0.0
220
0.0
230
1.0
  2
SOLID
 70
     1
 71
     0
 91
        1
 92
        1
 93
        1
 72
     2
 10
0.0
 20
-75.0
 40
0.4977517310035963
 50
0.0
 51
360.0
 73
     1
 97
        0
 75
     0
 76
     1
 98
        0
  0
HATCH
  5
10F
330
12A8
100
AcDbEntity
  8
PHASEIII_STPS
  6
CONTINUOUS
 62
   250
100
AcDbHatch
 10
0.0
 20
0.0
 30
0.0
210
0.0
220
0.0
230
1.0
  2
SOLID
 70
     1
 71
     0
 91
        1
 92
        1
 93
        1
 72
     2
 10
0.0
 20
-100.0
 40
0.4977517310035963
 50
0.0
 51
360.0
 73
     1
 97
        0
 75
     0
 76
     1
 98
        0
  0
HATCH
  5
110
330
12A8
100
AcDbEntity
  8
PHASEIII_STPS
  6
CONTINUOUS
 62
   250
100
AcDbHatch
 10
0.0
 20
0.0
 30
0.0
210
0.0
220
0.0
230
1.0
  2
SOLID
 70
     1
 71
     0
 91
        1
 92
        1
 93
        1
 72
     2
 10
-75.0
 20
0.0
 40
0.4977517310035963
 50
0.0
 51
360.0
 73
     1
 97
        0
 75
     0
 76
     1
 98
        0
  0
HATCH
  5
111
330
12A8
100
AcDbEntity
  8
PHASEIII_STPS
  6
CONTINUOUS
 62
   250
100
AcDbHatch
 10
0.0
 20
0.0
 30
0.0
210
0.0
220
0.0
230
1.0
  2
SOLID
 70
     1
 71
     0
 91
        1
 92
        1
 93
        1
 72
     2
 10
-75.0
 20
25.0
 40
0.4977517310035963
 50
0.0
 51
360.0
 73
     1
 97
        0
 75
     0
 76
     1
 98
        0
  0
HATCH
  5
112
330
12A8
100
AcDbEntity
  8
PHASEIII_STPS
  6
CONTINUOUS
 62
   250
100
AcDbHatch
 10
0.0
 20
0.0
 30
0.0
210
0.0
220
0.0
230
1.0
  2
SOLID
 70
     1
 71
     0
 91
        1
 92
        1
 93
        1
 72
     2
 10
-75.0
 20
50.00000000000001
 40
0.4977517310035963
 50
0.0
 51
360.0
 73
     1
 97
        0
 75
     0
 76
     1
 98
        0
  0
HATCH
  5
113
330
12A8
100
AcDbEntity
  8
PHASEIII_STPS
  6
CONTINUOUS
 62
   250
100
AcDbHatch
 10
0.0
 20
0.0
 30
0.0
210
0.0
220
0.0
230
1.0
  2
SOLID
 70
     1
 71
     0
 91
        1
 92
        1
 93
        1
 72
     2
 10
-75.0
 20
75.00000000000003
 40
0.4977517310035963
 50
0.0
 51
360.0
 73
     1
 97
        0
 75
     0
 76
     1
 98
        0
  0
HATCH
  5
114
330
12A8
100
AcDbEntity
  8
PHASEIII_STPS
  6
CONTINUOUS
 62
   250
100
AcDbHatch
 10
0.0
 20
0.0
 30
0.0
210
0.0
220
0.0
230
1.0
  2
SOLID
 70
     1
 71
     0
 91
        1
 92
        1
 93
        1
 72
     2
 10
-75.0
 20
100.0
 40
0.4977517310035963
 50
0.0
 51
360.0
 73
     1
 97
        0
 75
     0
 76
     1
 98
        0
  0
HATCH
  5
116
330
12A8
100
AcDbEntity
  8
PHASEIII_STPS
  6
CONTINUOUS
 62
   250
100
AcDbHatch
 10
0.0
 20
0.0
 30
0.0
210
0.0
220
0.0
230
1.0
  2
SOLID
 70
     1
 71
     0
 91
        1
 92
        1
 93
        1
 72
     2
 10
-75.0
 20
150.0000000000001
 40
0.4977517310035963
 50
0.0
 51
360.0
 73
     1
 97
        0
 75
     0
 76
     1
 98
        0
  0
HATCH
  5
117
330
12A8
100
AcDbEntity
  8
PHASEIII_STPS
  6
CONTINUOUS
 62
   250
100
AcDbHatch
 10
0.0
 20
0.0
 30
0.0
210
0.0
220
0.0
230
1.0
  2
SOLID
 70
     1
 71
     0
 91
        1
 92
        1
 93
        1
 72
     2
 10
-75.0
 20
175.0000000000001
 40
0.4977517310035963
 50
0.0
 51
360.0
 73
     1
 97
        0
 75
     0
 76
     1
 98
        0
  0
TEXT
  5
118
330
12A8
100
AcDbEntity
  8
GRID_COORDINATES
  6
CONTINUOUS
 62
   250
100
AcDbText
 10
-75.0
 20
-4.723372
 30
0.0
 40
2.0
  1
-75, 0
  7
STYLE-GARAMOND
 11
-75.0
 21
-2.723372
 31
0.0
100
AcDbText
 73
     3
  0
TEXT
  5
119
330
12A8
100
AcDbEntity
  8
GRID_COORDINATES
  6
CONTINUOUS
 62
   250
100
AcDbText
 10
-75.0
 20
170.365171
 30
0.0
 40
2.0
  1
-75, 175
  7
STYLE-GARAMOND
 11
-75.0
 21
172.365171
 31
0.0
100
AcDbText
 73
     3
  0
TEXT
  5
11A
330
12A8
100
AcDbEntity
  8
GRID_COORDINATES
  6
CONTINUOUS
 62
   250
100
AcDbText
 10
0.0
 20
-103.990717
 30
0.0
 40
2.0
  1
0, -100
  7
STYLE-GARAMOND
 11
0.0
 21
-101.990717
 31
0.0
100
AcDbText
 73
     3
  0
HATCH
  5
11B
330
12A8
100
AcDbEntity
  8
PHASEIII_STPS
  6
CONTINUOUS
 62
   250
100
AcDbHatch
 10
0.0
 20
0.0
 30
0.0
210
0.0
220
0.0
230
1.0
  2
SOLID
 70
     1
 71
     0
 91
        1
 92
        1
 93
        1
 72
     2
 10
-75.0
 20
-25.0
 40
0.4977517310035963
 50
0.0
 51
360.0
 73
     1
 97
        0
 75
     0
 76
     1
 98
        0
  0
HATCH
  5
11C
330
12A8
100
AcDbEntity
  8
PHASEIII_STPS
  6
CONTINUOUS
 62
   250
100
AcDbHatch
 10
0.0
 20
0.0
 30
0.0
210
0.0
220
0.0
230
1.0
  2
SOLID
 70
     1
 71
     0
 91
        1
 92
        1
 93
        1
 72
     2
 10
-75.0
 20
-50.0
 40
0.4977517310035963
 50
0.0
 51
360.0
 73
     1
 97
        0
 75
     0
 76
     1
 98
        0
  0
HATCH
  5
11D
330
12A8
100
AcDbEntity
  8
PHASEIII_STPS
  6
CONTINUOUS
 62
   250
100
AcDbHatch
 10
0.0
 20
0.0
 30
0.0
210
0.0
220
0.0
230
1.0
  2
SOLID
 70
     1
 71
     0
 91
        1
 92
        1
 93
        1
 72
     2
 10
-75.0
 20
-75.0
 40
0.4977517310035963
 50
0.0
 51
360.0
 73
     1
 97
        0
 75
     0
 76
     1
 98
        0
  0
MTEXT
  5
11E
330
12A8
100
AcDbEntity
  8
GRID_COORDINATES
  6
CONTINUOUS
 62
   250
100
AcDbMText
 10
-75.0
 20
-77.640455
 30
0.0
 40
2.0
 41
0.0
 71
     1
 72
     1
  1
-75, -75
  7
STYLE-GARAMOND
1001
ACAD
1000
MTEXTBEGIN
1070
    73
1070
     2
1070
    44
1040
1.092126
1000
MTEXTEND
  0
HATCH
  5
120
330
12A8
100
AcDbEntity
  8
PHASEIII_STPS
  6
CONTINUOUS
 62
   250
100
AcDbHatch
 10
0.0
 20
0.0
 30
0.0
210
0.0
220
0.0
230
1.0
  2
SOLID
 70
     1
 71
     0
 91
        1
 92
        1
 93
        1
 72
     2
 10
50.0
 20
0.0
 40
0.4977517310035963
 50
0.0
 51
360.0
 73
     1
 97
        0
 75
     0
 76
     1
 98
        0
  0
HATCH
  5
121
330
12A8
100
AcDbEntity
  8
PHASEIII_STPS
  6
CONTINUOUS
 62
   250
100
AcDbHatch
 10
0.0
 20
0.0
 30
0.0
210
0.0
220
0.0
230
1.0
  2
SOLID
 70
     1
 71
     0
 91
        1
 92
        1
 93
        1
 72
     2
 10
50.0
 20
25.0
 40
0.4977517310035963
 50
0.0
 51
360.0
 73
     1
 97
        0
 75
     0
 76
     1
 98
        0
  0
HATCH
  5
122
330
12A8
100
AcDbEntity
  8
PHASEIII_STPS
  6
CONTINUOUS
 62
   250
100
AcDbHatch
 10
0.0
 20
0.0
 30
0.0
210
0.0
220
0.0
230
1.0
  2
SOLID
 70
     1
 71
     0
 91
        1
 92
        1
 93
        1
 72
     2
 10
50.0
 20
50.00000000000001
 40
0.4977517310035963
 50
0.0
 51
360.0
 73
     1
 97
        0
 75
     0
 76
     1
 98
        0
  0
HATCH
  5
123
330
12A8
100
AcDbEntity
  8
PHASEIII_STPS
  6
CONTINUOUS
 62
   250
100
AcDbHatch
 10
0.0
 20
0.0
 30
0.0
210
0.0
220
0.0
230
1.0
  2
SOLID
 70
     1
 71
     0
 91
        1
 92
        1
 93
        1
 72
     2
 10
50.0
 20
75.00000000000003
 40
0.4977517310035963
 50
0.0
 51
360.0
 73
     1
 97
        0
 75
     0
 76
     1
 98
        0
  0
HATCH
  5
124
330
12A8
100
AcDbEntity
  8
PHASEIII_STPS
  6
CONTINUOUS
 62
   250
100
AcDbHatch
 10
0.0
 20
0.0
 30
0.0
210
0.0
220
0.0
230
1.0
  2
SOLID
 70
     1
 71
     0
 91
        1
 92
        1
 93
        1
 72
     2
 10
50.0
 20
100.0
 40
0.4977517310035963
 50
0.0
 51
360.0
 73
     1
 97
        0
 75
     0
 76
     1
 98
        0
  0
HATCH
  5
125
330
12A8
100
AcDbEntity
  8
PHASEIII_STPS
  6
CONTINUOUS
 62
   250
100
AcDbHatch
 10
0.0
 20
0.0
 30
0.0
210
0.0
220
0.0
230
1.0
  2
SOLID
 70
     1
 71
     0
 91
        1
 92
        1
 93
        1
 72
     2
 10
50.0
 20
125.0
 40
0.4977517310035963
 50
0.0
 51
360.0
 73
     1
 97
        0
 75
     0
 76
     1
 98
        0
  0
HATCH
  5
126
330
12A8
100
AcDbEntity
  8
PHASEIII_STPS
  6
CONTINUOUS
 62
   250
100
AcDbHatch
 10
0.0
 20
0.0
 30
0.0
210
0.0
220
0.0
230
1.0
  2
SOLID
 70
     1
 71
     0
 91
        1
 92
        1
 93
        1
 72
     2
 10
50.0
 20
150.0000000000001
 40
0.4977517310035963
 50
0.0
 51
360.0
 73
     1
 97
        0
 75
     0
 76
     1
 98
        0
  0
TEXT
  5
127
330
12A8
100
AcDbEntity
  8
GRID_COORDINATES
  6
CONTINUOUS
 62
   250
100
AcDbText
 10
50.0
 20
144.811126
 30
0.0
 40
2.0
  1
50, 150
  7
STYLE-GARAMOND
 11
50.0
 21
146.811126
 31
0.0
100
AcDbText
 73
     3
  0
TEXT
  5
128
330
12A8
100
AcDbEntity
  8
GRID_COORDINATES
  6
CONTINUOUS
 62
   250
100
AcDbText
 10
50.0
 20
-4.016805
 30
0.0
 40
2.0
  1
50, 0
  7
STYLE-GARAMOND
 11
50.0
 21
-2.016805
 31
0.0
100
AcDbText
 73
     3
  0
HATCH
  5
129
330
12A8
100
AcDbEntity
  8
PHASEIII_STPS
  6
CONTINUOUS
 62
   250
100
AcDbHatch
 10
0.0
 20
0.0
 30
0.0
210
0.0
220
0.0
230
1.0
  2
SOLID
 70
     1
 71
     0
 91
        1
 92
        1
 93
        1
 72
     2
 10
50.0
 20
-25.0
 40
0.4977517310035963
 50
0.0
 51
360.0
 73
     1
 97
        0
 75
     0
 76
     1
 98
        0
  0
HATCH
  5
12A
330
12A8
100
AcDbEntity
  8
PHASEIII_STPS
  6
CONTINUOUS
 62
   250
100
AcDbHatch
 10
0.0
 20
0.0
 30
0.0
210
0.0
220
0.0
230
1.0
  2
SOLID
 70
     1
 71
     0
 91
        1
 92
        1
 93
        1
 72
     2
 10
50.0
 20
-50.0
 40
0.4977517310035963
 50
0.0
 51
360.0
 73
     1
 97
        0
 75
     0
 76
     1
 98
        0
  0
HATCH
  5
12B
330
12A8
100
AcDbEntity
  8
PHASEIII_STPS
  6
CONTINUOUS
 62
   250
100
AcDbHatch
 10
0.0
 20
0.0
 30
0.0
210
0.0
220
0.0
230
1.0
  2
SOLID
 70
     1
 71
     0
 91
        1
 92
        1
 93
        1
 72
     2
 10
50.0
 20
-75.0
 40
0.4977517310035963
 50
0.0
 51
360.0
 73
     1
 97
        0
 75
     0
 76
     1
 98
        0
  0
TEXT
  5
12C
330
12A8
100
AcDbEntity
  8
GRID_COORDINATES
  6
CONTINUOUS
 62
   250
100
AcDbText
 10
50.0
 20
-80.839128
 30
0.0
 40
2.0
  1
50, -75
  7
STYLE-GARAMOND
 11
50.0
 21
-78.839128
 31
0.0
100
AcDbText
 73
     3
  0
HATCH
  5
12D
330
12A8
100
AcDbEntity
  8
PHASEIII_STPS
  6
CONTINUOUS
 62
   250
100
AcDbHatch
 10
0.0
 20
0.0
 30
0.0
210
0.0
220
0.0
230
1.0
  2
SOLID
 70
     1
 71
     0
 91
        1
 92
        1
 93
        1
 72
     2
 10
125.0
 20
0.0
 40
0.4977517310035963
 50
0.0
 51
360.0
 73
     1
 97
        0
 75
     0
 76
     1
 98
        0
  0
TEXT
  5
12E
330
12A8
100
AcDbEntity
  8
GRID_COORDINATES
  6
CONTINUOUS
 62
   250
100
AcDbText
 10
125.0
 20
-5.322709
 30
0.0
 40
2.0
  1
125, 0
  7
STYLE-GARAMOND
 11
125.0
 21
-3.322709
 31
0.0
100
AcDbText
 73
     3
  0
HATCH
  5
12F
330
12A8
100
AcDbEntity
  8
PHASEIII_STPS
  6
CONTINUOUS
 62
   250
100
AcDbHatch
 10
0.0
 20
0.0
 30
0.0
210
0.0
220
0.0
230
1.0
  2
SOLID
 70
     1
 71
     0
 91
        1
 92
        1
 93
        1
 72
     2
 10
125.0
 20
25.0
 40
0.4977517310035963
 50
0.0
 51
360.0
 73
     1
 97
        0
 75
     0
 76
     1
 98
        0
  0
TEXT
  5
130
330
12A8
100
AcDbEntity
  8
GRID_COORDINATES
  6
CONTINUOUS
 62
   250
100
AcDbText
 10
125.0
 20
19.849431
 30
0.0
 40
2.0
  1
125, 25
  7
STYLE-GARAMOND
 11
125.0
 21
21.849431
 31
0.0
100
AcDbText
 73
     3
  0
HATCH
  5
131
330
12A8
100
AcDbEntity
  8
PHASEIII_STPS
  6
CONTINUOUS
 62
   250
100
AcDbHatch
 10
0.0
 20
0.0
 30
0.0
210
0.0
220
0.0
230
1.0
  2
SOLID
 70
     1
 71
     0
 91
        1
 92
        1
 93
        1
 72
     2
 10
-50.0
 20
0.0
 40
0.4977517310035963
 50
0.0
 51
360.0
 73
     1
 97
        0
 75
     0
 76
     1
 98
        0
  0
MTEXT
  5
132
330
12A8
100
AcDbEntity
  8
GRID_COORDINATES
  6
CONTINUOUS
 62
   250
100
AcDbMText
 10
-50.0
 20
-3.322709
 30
0.0
 40
2.0
 41
0.0
 71
     1
 72
     1
  1
-50, 0
  7
STYLE-GARAMOND
1001
ACAD
1000
MTEXTBEGIN
1070
    73
1070
     2
1070
    44
1040
1.092126
1000
MTEXTEND
  0
HATCH
  5
134
330
12A8
100
AcDbEntity
  8
PHASEIII_STPS
  6
CONTINUOUS
 62
   250
100
AcDbHatch
 10
0.0
 20
0.0
 30
0.0
210
0.0
220
0.0
230
1.0
  2
SOLID
 70
     1
 71
     0
 91
        1
 92
        1
 93
        1
 72
     2
 10
-50.0
 20
25.0
 40
0.4977517310035963
 50
0.0
 51
360.0
 73
     1
 97
        0
 75
     0
 76
     1
 98
        0
  0
HATCH
  5
135
330
12A8
100
AcDbEntity
  8
PHASEIII_STPS
  6
CONTINUOUS
 62
   250
100
AcDbHatch
 10
0.0
 20
0.0
 30
0.0
210
0.0
220
0.0
230
1.0
  2
SOLID
 70
     1
 71
     0
 91
        1
 92
        1
 93
        1
 72
     2
 10
-50.0
 20
50.00000000000001
 40
0.4977517310035963
 50
0.0
 51
360.0
 73
     1
 97
        0
 75
     0
 76
     1
 98
        0
  0
HATCH
  5
136
330
12A8
100
AcDbEntity
  8
PHASEIII_STPS
  6
CONTINUOUS
 62
   250
100
AcDbHatch
 10
0.0
 20
0.0
 30
0.0
210
0.0
220
0.0
230
1.0
  2
SOLID
 70
     1
 71
     0
 91
        1
 92
        1
 93
        1
 72
     2
 10
-50.0
 20
75.00000000000003
 40
0.4977517310035963
 50
0.0
 51
360.0
 73
     1
 97
        0
 75
     0
 76
     1
 98
        0
  0
HATCH
  5
137
330
12A8
100
AcDbEntity
  8
PHASEIII_STPS
  6
CONTINUOUS
 62
   250
100
AcDbHatch
 10
0.0
 20
0.0
 30
0.0
210
0.0
220
0.0
230
1.0
  2
SOLID
 70
     1
 71
     0
 91
        1
 92
        1
 93
        1
 72
     2
 10
-50.0
 20
100.0
 40
0.4977517310035963
 50
0.0
 51
360.0
 73
     1
 97
        0
 75
     0
 76
     1
 98
        0
  0
HATCH
  5
138
330
12A8
100
AcDbEntity
  8
PHASEIII_STPS
  6
CONTINUOUS
 62
   250
100
AcDbHatch
 10
0.0
 20
0.0
 30
0.0
210
0.0
220
0.0
230
1.0
  2
SOLID
 70
     1
 71
     0
 91
        1
 92
        1
 93
        1
 72
     2
 10
-50.0
 20
125.0
 40
0.4977517310035963
 50
0.0
 51
360.0
 73
     1
 97
        0
 75
     0
 76
     1
 98
        0
  0
HATCH
  5
139
330
12A8
100
AcDbEntity
  8
PHASEIII_STPS
  6
CONTINUOUS
 62
   250
100
AcDbHatch
 10
0.0
 20
0.0
 30
0.0
210
0.0
220
0.0
230
1.0
  2
SOLID
 70
     1
 71
     0
 91
        1
 92
        1
 93
        1
 72
     2
 10
-50.0
 20
150.0000000000001
 40
0.4977517310035963
 50
0.0
 51
360.0
 73
     1
 97
        0
 75
     0
 76
     1
 98
        0
  0
HATCH
  5
13A
330
12A8
100
AcDbEntity
  8
PHASEIII_STPS
  6
CONTINUOUS
 62
   250
100
AcDbHatch
 10
0.0
 20
0.0
 30
0.0
210
0.0
220
0.0
230
1.0
  2
SOLID
 70
     1
 71
     0
 91
        1
 92
        1
 93
        1
 72
     2
 10
-50.0
 20
175.0000000000001
 40
0.4977517310035963
 50
0.0
 51
360.0
 73
     1
 97
        0
 75
     0
 76
     1
 98
        0
  0
HATCH
  5
13B
330
12A8
100
AcDbEntity
  8
PHASEIII_STPS
  6
CONTINUOUS
 62
   250
100
AcDbHatch
 10
0.0
 20
0.0
 30
0.0
210
0.0
220
0.0
230
1.0
  2
SOLID
 70
     1
 71
     0
 91
        1
 92
        1
 93
        1
 72
     2
 10
-50.0
 20
200.0000000000001
 40
0.4977517310035963
 50
0.0
 51
360.0
 73
     1
 97
        0
 75
     0
 76
     1
 98
        0
  0
MTEXT
  5
13C
330
12A8
100
AcDbEntity
  8
GRID_COORDINATES
  6
CONTINUOUS
 62
   250
100
AcDbMText
 10
-50.0
 20
196.556069
 30
0.0
 40
2.0
 41
0.0
 71
     1
 72
     1
  1
-50, 200
  7
STYLE-GARAMOND
1001
ACAD
1000
MTEXTBEGIN
1070
    73
1070
     2
1070
    44
1040
1.092126
1000
MTEXTEND
  0
HATCH
  5
13E
330
12A8
100
AcDbEntity
  8
PHASEIII_STPS
  6
CONTINUOUS
 62
   250
100
AcDbHatch
 10
0.0
 20
0.0
 30
0.0
210
0.0
220
0.0
230
1.0
  2
SOLID
 70
     1
 71
     0
 91
        1
 92
        1
 93
        1
 72
     2
 10
-50.0
 20
-25.0
 40
0.4977517310035963
 50
0.0
 51
360.0
 73
     1
 97
        0
 75
     0
 76
     1
 98
        0
  0
HATCH
  5
13F
330
12A8
100
AcDbEntity
  8
PHASEIII_STPS
  6
CONTINUOUS
 62
   250
100
AcDbHatch
 10
0.0
 20
0.0
 30
0.0
210
0.0
220
0.0
230
1.0
  2
SOLID
 70
     1
 71
     0
 91
        1
 92
        1
 93
        1
 72
     2
 10
-50.0
 20
-50.0
 40
0.4977517310035963
 50
0.0
 51
360.0
 73
     1
 97
        0
 75
     0
 76
     1
 98
        0
  0
MTEXT
  5
140
330
12A8
100
AcDbEntity
  8
GRID_COORDINATES
  6
CONTINUOUS
 62
   250
100
AcDbMText
 10
-50.0
 20
-53.067652
 30
0.0
 40
2.0
 41
0.0
 71
     1
 72
     1
  1
-50, -50
  7
STYLE-GARAMOND
1001
ACAD
1000
MTEXTBEGIN
1070
    73
1070
     2
1070
    44
1040
1.092126
1000
MTEXTEND
  0
HATCH
  5
142
330
12A8
100
AcDbEntity
  8
PHASEIII_STPS
  6
CONTINUOUS
 62
   250
100
AcDbHatch
 10
0.0
 20
0.0
 30
0.0
210
0.0
220
0.0
230
1.0
  2
SOLID
 70
     1
 71
     0
 91
        1
 92
        1
 93
        1
 72
     2
 10
-100.0
 20
0.0
 40
0.4977517310035963
 50
0.0
 51
360.0
 73
     1
 97
        0
 75
     0
 76
     1
 98
        0
  0
MTEXT
  5
143
330
12A8
100
AcDbEntity
  8
GRID_COORDINATES
  6
CONTINUOUS
 62
   250
100
AcDbMText
 10
-100.0
 20
-3.322709
 30
0.0
 40
2.0
 41
0.0
 71
     1
 72
     1
  1
-100, 0
  7
STYLE-GARAMOND
1001
ACAD
1000
MTEXTBEGIN
1070
    73
1070
     2
1070
    44
1040
1.092126
1000
MTEXTEND
  0
HATCH
  5
145
330
12A8
100
AcDbEntity
  8
PHASEIII_STPS
  6
CONTINUOUS
 62
   250
100
AcDbHatch
 10
0.0
 20
0.0
 30
0.0
210
0.0
220
0.0
230
1.0
  2
SOLID
 70
     1
 71
     0
 91
        1
 92
        1
 93
        1
 72
     2
 10
-100.0
 20
25.0
 40
0.4977517310035963
 50
0.0
 51
360.0
 73
     1
 97
        0
 75
     0
 76
     1
 98
        0
  0
HATCH
  5
146
330
12A8
100
AcDbEntity
  8
PHASEIII_STPS
  6
CONTINUOUS
 62
   250
100
AcDbHatch
 10
0.0
 20
0.0
 30
0.0
210
0.0
220
0.0
230
1.0
  2
SOLID
 70
     1
 71
     0
 91
        1
 92
        1
 93
        1
 72
     2
 10
-100.0
 20
50.00000000000001
 40
0.4977517310035963
 50
0.0
 51
360.0
 73
     1
 97
        0
 75
     0
 76
     1
 98
        0
  0
MTEXT
  5
147
330
12A8
100
AcDbEntity
  8
GRID_COORDINATES
  6
CONTINUOUS
 62
   250
100
AcDbMText
 10
-100.0
 20
47.021571
 30
0.0
 40
2.0
 41
0.0
 71
     1
 72
     1
  1
-100, 50
  7
STYLE-GARAMOND
1001
ACAD
1000
MTEXTBEGIN
1070
    73
1070
     2
1070
    44
1040
1.092126
1000
MTEXTEND
  0
HATCH
  5
149
330
12A8
100
AcDbEntity
  8
PHASEIII_STPS
  6
CONTINUOUS
 62
   250
100
AcDbHatch
 10
0.0
 20
0.0
 30
0.0
210
0.0
220
0.0
230
1.0
  2
SOLID
 70
     1
 71
     0
 91
        1
 92
        1
 93
        1
 72
     2
 10
-100.0
 20
-25.0
 40
0.4977517310035963
 50
0.0
 51
360.0
 73
     1
 97
        0
 75
     0
 76
     1
 98
        0
  0
HATCH
  5
14A
330
12A8
100
AcDbEntity
  8
PHASEIII_STPS
  6
CONTINUOUS
 62
   250
100
AcDbHatch
 10
0.0
 20
0.0
 30
0.0
210
0.0
220
0.0
230
1.0
  2
SOLID
 70
     1
 71
     0
 91
        1
 92
        1
 93
        1
 72
     2
 10
-100.0
 20
-50.0
 40
0.4977517310035963
 50
0.0
 51
360.0
 73
     1
 97
        0
 75
     0
 76
     1
 98
        0
  0
MTEXT
  5
14B
330
12A8
100
AcDbEntity
  8
GRID_COORDINATES
  6
CONTINUOUS
 62
   250
100
AcDbMText
 10
-100.0
 20
-53.666988
 30
0.0
 40
2.0
 41
0.0
 71
     1
 72
     1
  1
-100, -50
  7
STYLE-GARAMOND
1001
ACAD
1000
MTEXTBEGIN
1070
    73
1070
     2
1070
    44
1040
1.092126
1000
MTEXTEND
  0
HATCH
  5
14D
330
12A8
100
AcDbEntity
  8
PHASEIII_STPS
  6
CONTINUOUS
 62
   250
100
AcDbHatch
 10
0.0
 20
0.0
 30
0.0
210
0.0
220
0.0
230
1.0
  2
SOLID
 70
     1
 71
     0
 91
        1
 92
        1
 93
        1
 72
     2
 10
25.0
 20
0.0
 40
0.4977517310035963
 50
0.0
 51
360.0
 73
     1
 97
        0
 75
     0
 76
     1
 98
        0
  0
TEXT
  5
14E
330
12A8
100
AcDbEntity
  8
GRID_COORDINATES
  6
CONTINUOUS
 62
   250
100
AcDbText
 10
25.0
 20
-5.322709
 30
0.0
 40
2.0
  1
25, 0
  7
STYLE-GARAMOND
 11
25.0
 21
-3.322709
 31
0.0
100
AcDbText
 73
     3
  0
HATCH
  5
14F
330
12A8
100
AcDbEntity
  8
PHASEIII_STPS
  6
CONTINUOUS
 62
   250
100
AcDbHatch
 10
0.0
 20
0.0
 30
0.0
210
0.0
220
0.0
230
1.0
  2
SOLID
 70
     1
 71
     0
 91
        1
 92
        1
 93
        1
 72
     2
 10
25.0
 20
25.0
 40
0.4977517310035963
 50
0.0
 51
360.0
 73
     1
 97
        0
 75
     0
 76
     1
 98
        0
  0
HATCH
  5
150
330
12A8
100
AcDbEntity
  8
PHASEIII_STPS
  6
CONTINUOUS
 62
   250
100
AcDbHatch
 10
0.0
 20
0.0
 30
0.0
210
0.0
220
0.0
230
1.0
  2
SOLID
 70
     1
 71
     0
 91
        1
 92
        1
 93
        1
 72
     2
 10
25.0
 20
50.00000000000001
 40
0.4977517310035963
 50
0.0
 51
360.0
 73
     1
 97
        0
 75
     0
 76
     1
 98
        0
  0
HATCH
  5
151
330
12A8
100
AcDbEntity
  8
PHASEIII_STPS
  6
CONTINUOUS
 62
   250
100
AcDbHatch
 10
0.0
 20
0.0
 30
0.0
210
0.0
220
0.0
230
1.0
  2
SOLID
 70
     1
 71
     0
 91
        1
 92
        1
 93
        1
 72
     2
 10
25.0
 20
75.00000000000003
 40
0.4977517310035963
 50
0.0
 51
360.0
 73
     1
 97
        0
 75
     0
 76
     1
 98
        0
  0
HATCH
  5
152
330
12A8
100
AcDbEntity
  8
PHASEIII_STPS
  6
CONTINUOUS
 62
   250
100
AcDbHatch
 10
0.0
 20
0.0
 30
0.0
210
0.0
220
0.0
230
1.0
  2
SOLID
 70
     1
 71
     0
 91
        1
 92
        1
 93
        1
 72
     2
 10
25.0
 20
100.0
 40
0.4977517310035963
 50
0.0
 51
360.0
 73
     1
 97
        0
 75
     0
 76
     1
 98
        0
  0
HATCH
  5
153
330
12A8
100
AcDbEntity
  8
PHASEIII_STPS
  6
CONTINUOUS
 62
   250
100
AcDbHatch
 10
0.0
 20
0.0
 30
0.0
210
0.0
220
0.0
230
1.0
  2
SOLID
 70
     1
 71
     0
 91
        1
 92
        1
 93
        1
 72
     2
 10
25.0
 20
125.0
 40
0.4977517310035963
 50
0.0
 51
360.0
 73
     1
 97
        0
 75
     0
 76
     1
 98
        0
  0
HATCH
  5
154
330
12A8
100
AcDbEntity
  8
PHASEIII_STPS
  6
CONTINUOUS
 62
   250
100
AcDbHatch
 10
0.0
 20
0.0
 30
0.0
210
0.0
220
0.0
230
1.0
  2
SOLID
 70
     1
 71
     0
 91
        1
 92
        1
 93
        1
 72
     2
 10
25.0
 20
150.0000000000001
 40
0.4977517310035963
 50
0.0
 51
360.0
 73
     1
 97
        0
 75
     0
 76
     1
 98
        0
  0
HATCH
  5
155
330
12A8
100
AcDbEntity
  8
PHASEIII_STPS
  6
CONTINUOUS
 62
   250
100
AcDbHatch
 10
0.0
 20
0.0
 30
0.0
210
0.0
220
0.0
230
1.0
  2
SOLID
 70
     1
 71
     0
 91
        1
 92
        1
 93
        1
 72
     2
 10
25.0
 20
175.0000000000001
 40
0.4977517310035963
 50
0.0
 51
360.0
 73
     1
 97
        0
 75
     0
 76
     1
 98
        0
  0
TEXT
  5
156
330
12A8
100
AcDbEntity
  8
GRID_COORDINATES
  6
CONTINUOUS
 62
   250
100
AcDbText
 10
25.0
 20
170.365171
 30
0.0
 40
2.0
  1
25, 175
  7
STYLE-GARAMOND
 11
25.0
 21
172.365171
 31
0.0
100
AcDbText
 73
     3
  0
HATCH
  5
157
330
12A8
100
AcDbEntity
  8
PHASEIII_STPS
  6
CONTINUOUS
 62
   250
100
AcDbHatch
 10
0.0
 20
0.0
 30
0.0
210
0.0
220
0.0
230
1.0
  2
SOLID
 70
     1
 71
     0
 91
        1
 92
        1
 93
        1
 72
     2
 10
25.0
 20
-25.0
 40
0.4977517310035963
 50
0.0
 51
360.0
 73
     1
 97
        0
 75
     0
 76
     1
 98
        0
  0
HATCH
  5
158
330
12A8
100
AcDbEntity
  8
PHASEIII_STPS
  6
CONTINUOUS
 62
   250
100
AcDbHatch
 10
0.0
 20
0.0
 30
0.0
210
0.0
220
0.0
230
1.0
  2
SOLID
 70
     1
 71
     0
 91
        1
 92
        1
 93
        1
 72
     2
 10
25.0
 20
-50.0
 40
0.4977517310035963
 50
0.0
 51
360.0
 73
     1
 97
        0
 75
     0
 76
     1
 98
        0
  0
HATCH
  5
159
330
12A8
100
AcDbEntity
  8
PHASEIII_STPS
  6
CONTINUOUS
 62
   250
100
AcDbHatch
 10
0.0
 20
0.0
 30
0.0
210
0.0
220
0.0
230
1.0
  2
SOLID
 70
     1
 71
     0
 91
        1
 92
        1
 93
        1
 72
     2
 10
25.0
 20
-75.0
 40
0.4977517310035963
 50
0.0
 51
360.0
 73
     1
 97
        0
 75
     0
 76
     1
 98
        0
  0
TEXT
  5
15A
330
12A8
100
AcDbEntity
  8
GRID_COORDINATES
  6
CONTINUOUS
 62
   250
100
AcDbText
 10
25.0
 20
-81.438465
 30
0.0
 40
2.0
  1
25, -75
  7
STYLE-GARAMOND
 11
25.0
 21
-79.438465
 31
0.0
100
AcDbText
 73
     3
  0
HATCH
  5
15B
330
12A8
100
AcDbEntity
  8
PHASEIII_STPS
  6
CONTINUOUS
 62
   250
100
AcDbHatch
 10
0.0
 20
0.0
 30
0.0
210
0.0
220
0.0
230
1.0
  2
SOLID
 70
     1
 71
     0
 91
        1
 92
        1
 93
        1
 72
     2
 10
-25.0
 20
0.0
 40
0.4977517310035963
 50
0.0
 51
360.0
 73
     1
 97
        0
 75
     0
 76
     1
 98
        0
  0
MTEXT
  5
15C
330
12A8
100
AcDbEntity
  8
GRID_COORDINATES
  6
CONTINUOUS
 62
   250
100
AcDbMText
 10
-25.0
 20
-3.622377
 30
0.0
 40
2.0
 41
0.0
 71
     1
 72
     1
  1
-25, 0
  7
STYLE-GARAMOND
1001
ACAD
1000
MTEXTBEGIN
1070
    73
1070
     2
1070
    44
1040
1.092126
1000
MTEXTEND
  0
HATCH
  5
15E
330
12A8
100
AcDbEntity
  8
PHASEIII_STPS
  6
CONTINUOUS
 62
   250
100
AcDbHatch
 10
0.0
 20
0.0
 30
0.0
210
0.0
220
0.0
230
1.0
  2
SOLID
 70
     1
 71
     0
 91
        1
 92
        1
 93
        1
 72
     2
 10
-25.0
 20
25.0
 40
0.4977517310035963
 50
0.0
 51
360.0
 73
     1
 97
        0
 75
     0
 76
     1
 98
        0
  0
HATCH
  5
15F
330
12A8
100
AcDbEntity
  8
PHASEIII_STPS
  6
CONTINUOUS
 62
   250
100
AcDbHatch
 10
0.0
 20
0.0
 30
0.0
210
0.0
220
0.0
230
1.0
  2
SOLID
 70
     1
 71
     0
 91
        1
 92
        1
 93
        1
 72
     2
 10
-25.0
 20
50.00000000000001
 40
0.4977517310035963
 50
0.0
 51
360.0
 73
     1
 97
        0
 75
     0
 76
     1
 98
        0
  0
HATCH
  5
160
330
12A8
100
AcDbEntity
  8
PHASEIII_STPS
  6
CONTINUOUS
 62
   250
100
AcDbHatch
 10
0.0
 20
0.0
 30
0.0
210
0.0
220
0.0
230
1.0
  2
SOLID
 70
     1
 71
     0
 91
        1
 92
        1
 93
        1
 72
     2
 10
-25.0
 20
75.00000000000003
 40
0.4977517310035963
 50
0.0
 51
360.0
 73
     1
 97
        0
 75
     0
 76
     1
 98
        0
  0
HATCH
  5
161
330
12A8
100
AcDbEntity
  8
PHASEIII_STPS
  6
CONTINUOUS
 62
   250
100
AcDbHatch
 10
0.0
 20
0.0
 30
0.0
210
0.0
220
0.0
230
1.0
  2
SOLID
 70
     1
 71
     0
 91
        1
 92
        1
 93
        1
 72
     2
 10
-25.0
 20
100.0
 40
0.4977517310035963
 50
0.0
 51
360.0
 73
     1
 97
        0
 75
     0
 76
     1
 98
        0
  0
HATCH
  5
162
330
12A8
100
AcDbEntity
  8
PHASEIII_STPS
  6
CONTINUOUS
 62
   250
100
AcDbHatch
 10
0.0
 20
0.0
 30
0.0
210
0.0
220
0.0
230
1.0
  2
SOLID
 70
     1
 71
     0
 91
        1
 92
        1
 93
        1
 72
     2
 10
-25.0
 20
125.0
 40
0.4977517310035963
 50
0.0
 51
360.0
 73
     1
 97
        0
 75
     0
 76
     1
 98
        0
  0
HATCH
  5
163
330
12A8
100
AcDbEntity
  8
PHASEIII_STPS
  6
CONTINUOUS
 62
   250
100
AcDbHatch
 10
0.0
 20
0.0
 30
0.0
210
0.0
220
0.0
230
1.0
  2
SOLID
 70
     1
 71
     0
 91
        1
 92
        1
 93
        1
 72
     2
 10
-25.0
 20
150.0000000000001
 40
0.4977517310035963
 50
0.0
 51
360.0
 73
     1
 97
        0
 75
     0
 76
     1
 98
        0
  0
HATCH
  5
164
330
12A8
100
AcDbEntity
  8
PHASEIII_STPS
  6
CONTINUOUS
 62
   250
100
AcDbHatch
 10
0.0
 20
0.0
 30
0.0
210
0.0
220
0.0
230
1.0
  2
SOLID
 70
     1
 71
     0
 91
        1
 92
        1
 93
        1
 72
     2
 10
-25.0
 20
175.0000000000001
 40
0.4977517310035963
 50
0.0
 51
360.0
 73
     1
 97
        0
 75
     0
 76
     1
 98
        0
  0
HATCH
  5
165
330
12A8
100
AcDbEntity
  8
PHASEIII_STPS
  6
CONTINUOUS
 62
   250
100
AcDbHatch
 10
0.0
 20
0.0
 30
0.0
210
0.0
220
0.0
230
1.0
  2
SOLID
 70
     1
 71
     0
 91
        1
 92
        1
 93
        1
 72
     2
 10
-25.0
 20
200.0000000000001
 40
0.4977517310035963
 50
0.0
 51
360.0
 73
     1
 97
        0
 75
     0
 76
     1
 98
        0
  0
MTEXT
  5
166
330
12A8
100
AcDbEntity
  8
GRID_COORDINATES
  6
CONTINUOUS
 62
   250
100
AcDbMText
 10
-25.0
 20
196.556069
 30
0.0
 40
2.0
 41
0.0
 71
     1
 72
     1
  1
-25, 200
  7
STYLE-GARAMOND
1001
ACAD
1000
MTEXTBEGIN
1070
    73
1070
     2
1070
    44
1040
1.092126
1000
MTEXTEND
  0
HATCH
  5
168
330
12A8
100
AcDbEntity
  8
PHASEIII_STPS
  6
CONTINUOUS
 62
   250
100
AcDbHatch
 10
0.0
 20
0.0
 30
0.0
210
0.0
220
0.0
230
1.0
  2
SOLID
 70
     1
 71
     0
 91
        1
 92
        1
 93
        1
 72
     2
 10
-25.0
 20
-25.0
 40
0.4977517310035963
 50
0.0
 51
360.0
 73
     1
 97
        0
 75
     0
 76
     1
 98
        0
  0
HATCH
  5
169
330
12A8
100
AcDbEntity
  8
PHASEIII_STPS
  6
CONTINUOUS
 62
   250
100
AcDbHatch
 10
0.0
 20
0.0
 30
0.0
210
0.0
220
0.0
230
1.0
  2
SOLID
 70
     1
 71
     0
 91
        1
 92
        1
 93
        1
 72
     2
 10
-25.0
 20
-50.0
 40
0.4977517310035963
 50
0.0
 51
360.0
 73
     1
 97
        0
 75
     0
 76
     1
 98
        0
  0
MTEXT
  5
16A
330
12A8
100
AcDbEntity
  8
GRID_COORDINATES
  6
CONTINUOUS
 62
   250
100
AcDbMText
 10
-25.0
 20
-53.067652
 30
0.0
 40
2.0
 41
0.0
 71
     1
 72
     1
  1
-25, -50
  7
STYLE-GARAMOND
1001
ACAD
1000
MTEXTBEGIN
1070
    73
1070
     2
1070
    44
1040
1.092126
1000
MTEXTEND
  0
HATCH
  5
16C
330
12A8
100
AcDbEntity
  8
PHASEIII_STPS
  6
CONTINUOUS
 62
   250
100
AcDbHatch
 10
0.0
 20
0.0
 30
0.0
210
0.0
220
0.0
230
1.0
  2
SOLID
 70
     1
 71
     0
 91
        1
 92
        1
 93
        1
 72
     2
 10
-125.0
 20
0.0
 40
0.4977517310035963
 50
0.0
 51
360.0
 73
     1
 97
        0
 75
     0
 76
     1
 98
        0
  0
MTEXT
  5
16D
330
12A8
100
AcDbEntity
  8
GRID_COORDINATES
  6
CONTINUOUS
 62
   250
100
AcDbMText
 10
-125.0
 20
-3.322709
 30
0.0
 40
2.0
 41
0.0
 71
     1
 72
     1
  1
-125, 0
  7
STYLE-GARAMOND
1001
ACAD
1000
MTEXTBEGIN
1070
    73
1070
     2
1070
    44
1040
1.092126
1000
MTEXTEND
  0
HATCH
  5
16F
330
12A8
100
AcDbEntity
  8
PHASEIII_STPS
  6
CONTINUOUS
 62
   250
100
AcDbHatch
 10
0.0
 20
0.0
 30
0.0
210
0.0
220
0.0
230
1.0
  2
SOLID
 70
     1
 71
     0
 91
        1
 92
        1
 93
        1
 72
     2
 10
-125.0
 20
25.0
 40
0.4977517310035963
 50
0.0
 51
360.0
 73
     1
 97
        0
 75
     0
 76
     1
 98
        0
  0
HATCH
  5
170
330
12A8
100
AcDbEntity
  8
PHASEIII_STPS
  6
CONTINUOUS
 62
   250
100
AcDbHatch
 10
0.0
 20
0.0
 30
0.0
210
0.0
220
0.0
230
1.0
  2
SOLID
 70
     1
 71
     0
 91
        1
 92
        1
 93
        1
 72
     2
 10
-125.0
 20
50.00000000000001
 40
0.4977517310035963
 50
0.0
 51
360.0
 73
     1
 97
        0
 75
     0
 76
     1
 98
        0
  0
MTEXT
  5
171
330
12A8
100
AcDbEntity
  8
GRID_COORDINATES
  6
CONTINUOUS
 62
   250
100
AcDbMText
 10
-125.0
 20
47.021571
 30
0.0
 40
2.0
 41
0.0
 71
     1
 72
     1
  1
-125, 50
  7
STYLE-GARAMOND
1001
ACAD
1000
MTEXTBEGIN
1070
    73
1070
     2
1070
    44
1040
1.092126
1000
MTEXTEND
  0
HATCH
  5
173
330
12A8
100
AcDbEntity
  8
PHASEIII_STPS
  6
CONTINUOUS
 62
   250
100
AcDbHatch
 10
0.0
 20
0.0
 30
0.0
210
0.0
220
0.0
230
1.0
  2
SOLID
 70
     1
 71
     0
 91
        1
 92
        1
 93
        1
 72
     2
 10
-125.0
 20
-25.0
 40
0.4977517310035963
 50
0.0
 51
360.0
 73
     1
 97
        0
 75
     0
 76
     1
 98
        0
  0
HATCH
  5
174
330
12A8
100
AcDbEntity
  8
PHASEIII_STPS
  6
CONTINUOUS
 62
   250
100
AcDbHatch
 10
0.0
 20
0.0
 30
0.0
210
0.0
220
0.0
230
1.0
  2
SOLID
 70
     1
 71
     0
 91
        1
 92
        1
 93
        1
 72
     2
 10
-125.0
 20
-50.0
 40
0.4977517310035963
 50
0.0
 51
360.0
 73
     1
 97
        0
 75
     0
 76
     1
 98
        0
  0
MTEXT
  5
175
330
12A8
100
AcDbEntity
  8
GRID_COORDINATES
  6
CONTINUOUS
 62
   250
100
AcDbMText
 10
-125.0
 20
-53.666988
 30
0.0
 40
2.0
 41
0.0
 71
     1
 72
     1
  1
-125, -50
  7
STYLE-GARAMOND
1001
ACAD
1000
MTEXTBEGIN
1070
    73
1070
     2
1070
    44
1040
1.092126
1000
MTEXTEND
  0
HATCH
  5
177
330
12A8
100
AcDbEntity
  8
PHASEIII_STPS
  6
CONTINUOUS
 62
   250
100
AcDbHatch
 10
0.0
 20
0.0
 30
0.0
210
0.0
220
0.0
230
1.0
  2
SOLID
 70
     1
 71
     0
 91
        1
 92
        1
 93
        1
 72
     2
 10
74.99999999999997
 20
0.0
 40
0.4977517310035963
 50
0.0
 51
360.0
 73
     1
 97
        0
 75
     0
 76
     1
 98
        0
  0
TEXT
  5
178
330
12A8
100
AcDbEntity
  8
GRID_COORDINATES
  6
CONTINUOUS
 62
   250
100
AcDbText
 10
75.0
 20
-4.016805
 30
0.0
 40
2.0
  1
75, 0
  7
STYLE-GARAMOND
 11
75.0
 21
-2.016805
 31
0.0
100
AcDbText
 73
     3
  0
HATCH
  5
179
330
12A8
100
AcDbEntity
  8
PHASEIII_STPS
  6
CONTINUOUS
 62
   250
100
AcDbHatch
 10
0.0
 20
0.0
 30
0.0
210
0.0
220
0.0
230
1.0
  2
SOLID
 70
     1
 71
     0
 91
        1
 92
        1
 93
        1
 72
     2
 10
74.99999999999997
 20
25.0
 40
0.4977517310035963
 50
0.0
 51
360.0
 73
     1
 97
        0
 75
     0
 76
     1
 98
        0
  0
HATCH
  5
17A
330
12A8
100
AcDbEntity
  8
PHASEIII_STPS
  6
CONTINUOUS
 62
   250
100
AcDbHatch
 10
0.0
 20
0.0
 30
0.0
210
0.0
220
0.0
230
1.0
  2
SOLID
 70
     1
 71
     0
 91
        1
 92
        1
 93
        1
 72
     2
 10
74.99999999999997
 20
50.00000000000001
 40
0.4977517310035963
 50
0.0
 51
360.0
 73
     1
 97
        0
 75
     0
 76
     1
 98
        0
  0
HATCH
  5
17B
330
12A8
100
AcDbEntity
  8
PHASEIII_STPS
  6
CONTINUOUS
 62
   250
100
AcDbHatch
 10
0.0
 20
0.0
 30
0.0
210
0.0
220
0.0
230
1.0
  2
SOLID
 70
     1
 71
     0
 91
        1
 92
        1
 93
        1
 72
     2
 10
74.99999999999997
 20
75.00000000000003
 40
0.4977517310035963
 50
0.0
 51
360.0
 73
     1
 97
        0
 75
     0
 76
     1
 98
        0
  0
HATCH
  5
17C
330
12A8
100
AcDbEntity
  8
PHASEIII_STPS
  6
CONTINUOUS
 62
   250
100
AcDbHatch
 10
0.0
 20
0.0
 30
0.0
210
0.0
220
0.0
230
1.0
  2
SOLID
 70
     1
 71
     0
 91
        1
 92
        1
 93
        1
 72
     2
 10
74.99999999999997
 20
100.0
 40
0.4977517310035963
 50
0.0
 51
360.0
 73
     1
 97
        0
 75
     0
 76
     1
 98
        0
  0
HATCH
  5
17D
330
12A8
100
AcDbEntity
  8
PHASEIII_STPS
  6
CONTINUOUS
 62
   250
100
AcDbHatch
 10
0.0
 20
0.0
 30
0.0
210
0.0
220
0.0
230
1.0
  2
SOLID
 70
     1
 71
     0
 91
        1
 92
        1
 93
        1
 72
     2
 10
74.99999999999997
 20
125.0
 40
0.4977517310035963
 50
0.0
 51
360.0
 73
     1
 97
        0
 75
     0
 76
     1
 98
        0
  0
TEXT
  5
17E
330
12A8
100
AcDbEntity
  8
GRID_COORDINATES
  6
CONTINUOUS
 62
   250
100
AcDbText
 10
75.0
 20
119.638986
 30
0.0
 40
2.0
  1
75, 125
  7
STYLE-GARAMOND
 11
75.0
 21
121.638986
 31
0.0
100
AcDbText
 73
     3
  0
HATCH
  5
17F
330
12A8
100
AcDbEntity
  8
PHASEIII_STPS
  6
CONTINUOUS
 62
   250
100
AcDbHatch
 10
0.0
 20
0.0
 30
0.0
210
0.0
220
0.0
230
1.0
  2
SOLID
 70
     1
 71
     0
 91
        1
 92
        1
 93
        1
 72
     2
 10
74.99999999999997
 20
-25.0
 40
0.4977517310035963
 50
0.0
 51
360.0
 73
     1
 97
        0
 75
     0
 76
     1
 98
        0
  0
HATCH
  5
180
330
12A8
100
AcDbEntity
  8
PHASEIII_STPS
  6
CONTINUOUS
 62
   250
100
AcDbHatch
 10
0.0
 20
0.0
 30
0.0
210
0.0
220
0.0
230
1.0
  2
SOLID
 70
     1
 71
     0
 91
        1
 92
        1
 93
        1
 72
     2
 10
74.99999999999997
 20
-50.0
 40
0.4977517310035963
 50
0.0
 51
360.0
 73
     1
 97
        0
 75
     0
 76
     1
 98
        0
  0
TEXT
  5
181
330
12A8
100
AcDbEntity
  8
GRID_COORDINATES
  6
CONTINUOUS
 62
   250
100
AcDbText
 10
75.0
 20
-55.067652
 30
0.0
 40
2.0
  1
75, -50
  7
STYLE-GARAMOND
 11
75.0
 21
-53.067652
 31
0.0
100
AcDbText
 73
     3
  0
HATCH
  5
182
330
12A8
100
AcDbEntity
  8
PHASEIII_STPS
  6
CONTINUOUS
 62
   250
100
AcDbHatch
 10
0.0
 20
0.0
 30
0.0
210
0.0
220
0.0
230
1.0
  2
SOLID
 70
     1
 71
     0
 91
        1
 92
        1
 93
        1
 72
     2
 10
99.99999999999997
 20
0.0
 40
0.4977517310035963
 50
0.0
 51
360.0
 73
     1
 97
        0
 75
     0
 76
     1
 98
        0
  0
TEXT
  5
183
330
12A8
100
AcDbEntity
  8
GRID_COORDINATES
  6
CONTINUOUS
 62
   250
100
AcDbText
 10
100.0
 20
-4.016805
 30
0.0
 40
2.0
  1
100, 0
  7
STYLE-GARAMOND
 11
100.0
 21
-2.016805
 31
0.0
100
AcDbText
 73
     3
  0
HATCH
  5
184
330
12A8
100
AcDbEntity
  8
PHASEIII_STPS
  6
CONTINUOUS
 62
   250
100
AcDbHatch
 10
0.0
 20
0.0
 30
0.0
210
0.0
220
0.0
230
1.0
  2
SOLID
 70
     1
 71
     0
 91
        1
 92
        1
 93
        1
 72
     2
 10
99.99999999999997
 20
25.0
 40
0.4977517310035963
 50
0.0
 51
360.0
 73
     1
 97
        0
 75
     0
 76
     1
 98
        0
  0
HATCH
  5
185
330
12A8
100
AcDbEntity
  8
PHASEIII_STPS
  6
CONTINUOUS
 62
   250
100
AcDbHatch
 10
0.0
 20
0.0
 30
0.0
210
0.0
220
0.0
230
1.0
  2
SOLID
 70
     1
 71
     0
 91
        1
 92
        1
 93
        1
 72
     2
 10
99.99999999999997
 20
50.00000000000001
 40
0.4977517310035963
 50
0.0
 51
360.0
 73
     1
 97
        0
 75
     0
 76
     1
 98
        0
  0
HATCH
  5
186
330
12A8
100
AcDbEntity
  8
PHASEIII_STPS
  6
CONTINUOUS
 62
   250
100
AcDbHatch
 10
0.0
 20
0.0
 30
0.0
210
0.0
220
0.0
230
1.0
  2
SOLID
 70
     1
 71
     0
 91
        1
 92
        1
 93
        1
 72
     2
 10
99.99999999999997
 20
75.00000000000003
 40
0.4977517310035963
 50
0.0
 51
360.0
 73
     1
 97
        0
 75
     0
 76
     1
 98
        0
  0
HATCH
  5
187
330
12A8
100
AcDbEntity
  8
PHASEIII_STPS
  6
CONTINUOUS
 62
   250
100
AcDbHatch
 10
0.0
 20
0.0
 30
0.0
210
0.0
220
0.0
230
1.0
  2
SOLID
 70
     1
 71
     0
 91
        1
 92
        1
 93
        1
 72
     2
 10
99.99999999999997
 20
100.0
 40
0.4977517310035963
 50
0.0
 51
360.0
 73
     1
 97
        0
 75
     0
 76
     1
 98
        0
  0
TEXT
  5
188
330
12A8
100
AcDbEntity
  8
GRID_COORDINATES
  6
CONTINUOUS
 62
   250
100
AcDbText
 10
99.154081
 20
96.264856
 30
0.0
 40
2.0
  1
100, 100
  7
STYLE-GARAMOND
 11
99.154081
 21
98.264856
 31
0.0
100
AcDbText
 73
     3
  0
HATCH
  5
189
330
12A8
100
AcDbEntity
  8
PHASEIII_STPS
  6
CONTINUOUS
 62
   250
100
AcDbHatch
 10
0.0
 20
0.0
 30
0.0
210
0.0
220
0.0
230
1.0
  2
SOLID
 70
     1
 71
     0
 91
        1
 92
        1
 93
        1
 72
     2
 10
99.99999999999997
 20
-25.0
 40
0.4977517310035963
 50
0.0
 51
360.0
 73
     1
 97
        0
 75
     0
 76
     1
 98
        0
  0
HATCH
  5
18A
330
12A8
100
AcDbEntity
  8
PHASEIII_STPS
  6
CONTINUOUS
 62
   250
100
AcDbHatch
 10
0.0
 20
0.0
 30
0.0
210
0.0
220
0.0
230
1.0
  2
SOLID
 70
     1
 71
     0
 91
        1
 92
        1
 93
        1
 72
     2
 10
99.99999999999997
 20
-50.0
 40
0.4977517310035963
 50
0.0
 51
360.0
 73
     1
 97
        0
 75
     0
 76
     1
 98
        0
  0
TEXT
  5
18B
330
12A8
100
AcDbEntity
  8
GRID_COORDINATES
  6
CONTINUOUS
 62
   250
100
AcDbText
 10
100.0
 20
-55.067652
 30
0.0
 40
2.0
  1
100, -50
  7
STYLE-GARAMOND
 11
100.0
 21
-53.067652
 31
0.0
100
AcDbText
 73
     3
  0
LWPOLYLINE
  5
211
330
12A8
100
AcDbEntity
  8
PHASEIII_UNITS
100
AcDbPolyline
 90
        4
 70
   129
 43
0.0
 10
-30.0
 20
155.0
 10
-25.0
 20
155.0
 10
-25.0
 20
150.0
 10
-30.0
 20
150.0
  0
LWPOLYLINE
  5
212
330
12A8
100
AcDbEntity
  8
PHASEIII_UNITS
100
AcDbPolyline
 90
        5
 70
   128
 43
0.0
 10
30.0
 20
155.0
 10
30.0
 20
150.0
 10
35.0
 20
150.0
 10
35.0
 20
155.0
 10
30.0
 20
154.848586
  0
LWPOLYLINE
  5
213
330
12A8
100
AcDbEntity
  8
PHASEIII_UNITS
100
AcDbPolyline
 90
        4
 70
   129
 43
0.0
 10
-60.0
 20
125.0
 10
-55.0
 20
125.0
 10
-55.0
 20
120.0
 10
-60.0
 20
120.0
  0
LWPOLYLINE
  5
214
330
12A8
100
AcDbEntity
  8
PHASEIII_UNITS
100
AcDbPolyline
 90
        4
 70
   129
 43
0.0
 10
-30.0
 20
125.0
 10
-30.0
 20
120.0
 10
-25.0
 20
120.0
 10
-25.0
 20
125.0
  0
LWPOLYLINE
  5
216
330
12A8
100
AcDbEntity
  8
PHASEIII_UNITS
100
AcDbPolyline
 90
        4
 70
   129
 43
0.0
 10
55.0
 20
125.0
 10
55.0
 20
120.0
 10
50.0
 20
120.0
 10
50.0
 20
125.0
  0
LWPOLYLINE
  5
217
330
12A8
100
AcDbEntity
  8
PHASEIII_UNITS
100
AcDbPolyline
 90
        4
 70
   129
 43
0.0
 10
-30.0
 20
95.0
 10
-35.0
 20
95.0
 10
-35.0
 20
90.0
 10
-30.0
 20
90.0
  0
LWPOLYLINE
  5
218
330
12A8
100
AcDbEntity
  8
PHASEIII_UNITS
100
AcDbPolyline
 90
        4
 70
   129
 43
0.0
 10
-55.0
 20
95.0
 10
-60.0
 20
95.0
 10
-60.0
 20
90.0
 10
-55.0
 20
90.0
  0
LWPOLYLINE
  5
219
330
12A8
100
AcDbEntity
  8
PHASEIII_UNITS
100
AcDbPolyline
 90
        4
 70
   129
 43
0.0
 10
35.0
 20
95.0
 10
30.0
 20
95.0
 10
30.0
 20
90.0
 10
35.0
 20
90.0
  0
LWPOLYLINE
  5
21B
330
12A8
100
AcDbEntity
  8
PHASEIII_UNITS
100
AcDbPolyline
 90
        4
 70
   129
 43
0.0
 10
40.0
 20
65.0
 10
35.0
 20
65.0
 10
35.0
 20
60.0
 10
40.0
 20
60.0
  0
LWPOLYLINE
  5
21C
330
12A8
100
AcDbEntity
  8
PHASEIII_UNITS
100
AcDbPolyline
 90
        4
 70
   129
 43
0.0
 10
60.0
 20
65.0
 10
55.0
 20
65.0
 10
55.0
 20
60.0
 10
60.0
 20
60.0
  0
LWPOLYLINE
  5
21D
330
12A8
100
AcDbEntity
  8
PHASEIII_UNITS
100
AcDbPolyline
 90
        4
 70
   129
 43
0.0
 10
-60.0
 20
30.0
 10
-65.0
 20
30.0
 10
-65.0
 20
25.0
 10
-60.0
 20
25.0
  0
LWPOLYLINE
  5
21E
330
12A8
100
AcDbEntity
  8
PHASEIII_UNITS
100
AcDbPolyline
 90
        4
 70
   129
 43
0.0
 10
-30.0
 20
30.0
 10
-35.0
 20
30.0
 10
-35.0
 20
25.0
 10
-30.0
 20
25.0
  0
LWPOLYLINE
  5
21F
330
12A8
100
AcDbEntity
  8
PHASEIII_UNITS
100
AcDbPolyline
 90
        4
 70
   129
 43
0.0
 10
35.0
 20
35.0
 10
30.0
 20
35.0
 10
30.0
 20
30.0
 10
35.0
 20
30.0
  0
LWPOLYLINE
  5
220
330
12A8
100
AcDbEntity
  8
PHASEIII_UNITS
100
AcDbPolyline
 90
        4
 70
   129
 43
0.0
 10
0.0
 20
30.0
 10
-5.0
 20
30.0
 10
-5.0
 20
25.0
 10
0.0
 20
25.0
  0
LWPOLYLINE
  5
221
330
12A8
100
AcDbEntity
  8
PHASEIII_UNITS
100
AcDbPolyline
 90
        4
 70
   129
 43
0.0
 10
65.0
 20
35.0
 10
60.0
 20
35.0
 10
60.0
 20
30.0
 10
65.0
 20
30.0
  0
LWPOLYLINE
  5
223
330
12A8
100
AcDbEntity
  8
PHASEIII_UNITS
100
AcDbPolyline
 90
        4
 70
   129
 43
0.0
 10
-21.0
 20
65.0
 10
-26.0
 20
65.0
 10
-26.0
 20
60.0
 10
-21.0
 20
60.0
  0
LWPOLYLINE
  5
224
330
12A8
100
AcDbEntity
  8
PHASEIII_UNITS
100
AcDbPolyline
 90
        4
 70
   129
 43
0.0
 10
0.0
 20
65.0
 10
-5.0
 20
65.0
 10
-5.0
 20
60.0
 10
0.0
 20
60.0
  0
LWPOLYLINE
  5
225
330
12A8
100
AcDbEntity
  8
PHASEIII_UNITS
100
AcDbPolyline
 90
        4
 70
   129
 43
0.0
 10
-55.0
 20
55.0
 10
-60.0
 20
55.0
 10
-60.0
 20
50.0
 10
-55.0
 20
50.0
  0
LWPOLYLINE
  5
226
330
12A8
100
AcDbEntity
  8
PHASEIII_UNITS
100
AcDbPolyline
 90
        4
 70
   129
 43
0.0
 10
-55.0
 20
5.0
 10
-60.0
 20
5.0
 10
-60.0
 20
0.0
 10
-55.0
 20
0.0
  0
LWPOLYLINE
  5
228
330
12A8
100
AcDbEntity
  8
PHASEIII_UNITS
100
AcDbPolyline
 90
        4
 70
   129
 43
0.0
 10
35.0
 20
0.0
 10
35.0
 20
-5.0
 10
30.0
 20
-5.0
 10
30.0
 20
0.0
  0
LWPOLYLINE
  5
229
330
12A8
100
AcDbEntity
  8
PHASEIII_UNITS
100
AcDbPolyline
 90
        4
 70
   129
 43
0.0
 10
65.0
 20
5.0
 10
60.0
 20
5.0
 10
60.0
 20
0.0
 10
65.0
 20
0.0
  0
LWPOLYLINE
  5
22A
330
12A8
100
AcDbEntity
  8
PHASEIII_UNITS
100
AcDbPolyline
 90
        4
 70
   129
 43
0.0
 10
-55.0
 20
-30.0
 10
-60.0
 20
-30.0
 10
-60.0
 20
-35.0
 10
-55.0
 20
-35.0
  0
LWPOLYLINE
  5
22B
330
12A8
100
AcDbEntity
  8
PHASEIII_UNITS
100
AcDbPolyline
 90
        5
 70
   128
 43
0.0
 10
-30.0
 20
-25.0
 10
-30.0
 20
-30.0
 10
-25.0
 20
-30.0
 10
-25.0
 20
-25.0
 10
-30.0
 20
-25.008016
  0
LWPOLYLINE
  5
22C
330
12A8
100
AcDbEntity
  8
PHASEIII_UNITS
100
AcDbPolyline
 90
        4
 70
   129
 43
0.0
 10
10.0
 20
-30.0
 10
5.0
 20
-30.0
 10
5.0
 20
-35.0
 10
10.0
 20
-35.0
  0
LWPOLYLINE
  5
22D
330
12A8
100
AcDbEntity
  8
PHASEIII_UNITS
100
AcDbPolyline
 90
        4
 70
   129
 43
0.0
 10
35.0
 20
-25.0
 10
30.0
 20
-25.0
 10
30.0
 20
-30.0
 10
35.0
 20
-30.0
  0
LWPOLYLINE
  5
22E
330
12A8
100
AcDbEntity
  8
PHASEIII_UNITS
100
AcDbPolyline
 90
        4
 70
   129
 43
0.0
 10
-3.0
 20
-55.0
 10
-8.0
 20
-55.0
 10
-8.0
 20
-60.0
 10
-3.0
 20
-60.0
  0
LWPOLYLINE
  5
22F
330
12A8
100
AcDbEntity
  8
PHASEIII_UNITS
100
AcDbPolyline
 90
        4
 70
   129
 43
0.0
 10
35.0
 20
-55.0
 10
30.0
 20
-55.0
 10
30.0
 20
-60.0
 10
35.0
 20
-60.0
  0
LWPOLYLINE
  5
230
330
12A8
100
AcDbEntity
  8
PHASEIII_UNITS
100
AcDbPolyline
 90
        4
 70
   129
 43
0.0
 10
62.0
 20
-35.0
 10
57.0
 20
-35.0
 10
57.0
 20
-40.0
 10
62.0
 20
-40.0
  0
LWPOLYLINE
  5
231
330
12A8
100
AcDbEntity
  8
PHASEIII_UNITS
100
AcDbPolyline
 90
        4
 70
   129
 43
0.0
 10
-120.0
 20
35.0
 10
-125.0
 20
35.0
 10
-125.0
 20
30.0
 10
-120.0
 20
30.0
  0
LWPOLYLINE
  5
232
330
12A8
100
AcDbEntity
  8
PHASEIII_UNITS
100
AcDbPolyline
 90
        4
 70
   129
 43
0.0
 10
-90.0
 20
35.0
 10
-95.0
 20
35.0
 10
-95.0
 20
30.0
 10
-90.0
 20
30.0
  0
LWPOLYLINE
  5
233
330
12A8
100
AcDbEntity
  8
PHASEIII_UNITS
100
AcDbPolyline
 90
        4
 70
   129
 43
0.0
 10
-85.0
 20
65.0
 10
-90.0
 20
65.0
 10
-90.0
 20
60.0
 10
-85.0
 20
60.0
  0
LWPOLYLINE
  5
234
330
12A8
100
AcDbEntity
  8
PHASEIII_UNITS
100
AcDbPolyline
 90
        4
 70
   129
 43
0.0
 10
5.0
 20
95.0
 10
0.0
 20
95.0
 10
0.0
 20
90.0
 10
5.0
 20
90.0
  0
LWPOLYLINE
  5
235
330
12A8
100
AcDbEntity
  8
PHASEIII_UNITS
100
AcDbPolyline
 90
        4
 70
   129
 43
0.0
 10
5.0
 20
120.0
 10
0.0
 20
120.0
 10
0.0
 20
115.0
 10
5.0
 20
115.0
  0
LWPOLYLINE
  5
236
330
12A8
100
AcDbEntity
  8
PHASEIII_UNITS
100
AcDbPolyline
 90
        4
 70
   129
 43
0.0
 10
5.0
 20
155.0
 10
0.0
 20
155.0
 10
0.0
 20
150.0
 10
5.0
 20
150.0
  0
LWPOLYLINE
  5
237
330
12A8
100
AcDbEntity
  8
PHASEIII_UNITS
100
AcDbPolyline
 90
        4
 70
   129
 43
0.0
 10
65.0
 20
95.0
 10
60.0
 20
95.0
 10
60.0
 20
90.0
 10
65.0
 20
90.0
  0
LWPOLYLINE
  5
238
330
12A8
100
AcDbEntity
  8
PHASEIII_UNITS
100
AcDbPolyline
 90
        4
 70
   129
 43
0.0
 10
90.0
 20
90.0
 10
85.0
 20
90.0
 10
85.0
 20
85.0
 10
90.0
 20
85.0
  0
LWPOLYLINE
  5
239
330
12A8
100
AcDbEntity
  8
PHASEIII_UNITS
100
AcDbPolyline
 90
        4
 70
   129
 43
0.0
 10
95.0
 20
65.0
 10
90.0
 20
65.0
 10
90.0
 20
60.0
 10
95.0
 20
60.0
  0
LWPOLYLINE
  5
23A
330
12A8
100
AcDbEntity
  8
PHASEIII_UNITS
100
AcDbPolyline
 90
        4
 70
   129
 43
0.0
 10
95.0
 20
35.0
 10
90.0
 20
35.0
 10
90.0
 20
30.0
 10
95.0
 20
30.0
  0
LWPOLYLINE
  5
23B
330
12A8
100
AcDbEntity
  8
PHASEIII_UNITS
100
AcDbPolyline
 90
        4
 70
   129
 43
0.0
 10
95.0
 20
5.0
 10
90.0
 20
5.0
 10
90.0
 20
0.0
 10
95.0
 20
0.0
  0
LWPOLYLINE
  5
23C
330
12A8
100
AcDbEntity
  8
PHASEIII_UNITS
100
AcDbPolyline
 90
        4
 70
   129
 43
0.0
 10
-100.0
 20
-30.0
 10
-105.0
 20
-30.0
 10
-105.0
 20
-35.0
 10
-100.0
 20
-35.0
  0
LWPOLYLINE
  5
23D
330
12A8
100
AcDbEntity
  8
PHASEIII_UNITS
100
AcDbPolyline
 90
        4
 70
   129
 43
0.0
 10
-85.0
 20
5.0
 10
-90.0
 20
5.0
 10
-90.0
 20
0.0
 10
-85.0
 20
0.0
  0
LWPOLYLINE
  5
23F
330
12A8
100
AcDbEntity
  8
PHASEIII_UNITS
100
AcDbPolyline
 90
        4
 70
   129
 43
0.0
 10
-30.0
 20
0.0
 10
-30.0
 20
-5.0
 10
-25.0
 20
-5.0
 10
-25.0
 20
0.0
  0
LWPOLYLINE
  5
240
330
12A8
100
AcDbEntity
  8
PHASEIII_UNITS
100
AcDbPolyline
 90
        4
 70
   129
 43
0.0
 10
-115.0
 20
0.0
 10
-115.0
 20
-5.0
 10
-120.0
 20
-5.0
 10
-120.0
 20
0.0
  0
TEXT
  5
242
330
12A8
100
AcDbEntity
  8
PHASEIII_UNIT_NUMBERS
 62
     7
100
AcDbText
 10
-29.329963
 20
156.531398
 30
0.0
 40
2.0
  1
41
  7
STYLE-GARAMOND
 11
-29.329963
 21
158.531398
 31
0.0
100
AcDbText
 73
     3
  0
TEXT
  5
243
330
12A8
100
AcDbEntity
  8
PHASEIII_UNIT_NUMBERS
 62
     7
100
AcDbText
 10
0.689624
 20
156.406635
 30
0.0
 40
2.0
  1
42
  7
STYLE-GARAMOND
 11
0.689624
 21
158.406635
 31
0.0
100
AcDbText
 73
     3
  0
TEXT
  5
244
330
12A8
100
AcDbEntity
  8
PHASEIII_UNIT_NUMBERS
 62
     7
100
AcDbText
 10
30.666128
 20
156.160915
 30
0.0
 40
2.0
  1
43
  7
STYLE-GARAMOND
 11
30.666128
 21
158.160915
 31
0.0
100
AcDbText
 73
     3
  0
TEXT
  5
246
330
12A8
100
AcDbEntity
  8
PHASEIII_UNIT_NUMBERS
 62
     7
100
AcDbText
 10
-58.879582
 20
125.715128
 30
0.0
 40
2.0
  1
38
  7
STYLE-GARAMOND
 11
-58.879582
 21
127.715128
 31
0.0
100
AcDbText
 73
     3
  0
TEXT
  5
247
330
12A8
100
AcDbEntity
  8
PHASEIII_UNIT_NUMBERS
 62
     7
100
AcDbText
 10
-29.186172
 20
125.590365
 30
0.0
 40
2.0
  1
37
  7
STYLE-GARAMOND
 11
-29.186172
 21
127.590365
 31
0.0
100
AcDbText
 73
     3
  0
TEXT
  5
248
330
12A8
100
AcDbEntity
  8
PHASEIII_UNIT_NUMBERS
 62
     7
100
AcDbText
 10
1.188673
 20
121.102729
 30
0.0
 40
2.0
  1
36
  7
STYLE-GARAMOND
 11
1.188673
 21
123.102729
 31
0.0
100
AcDbText
 73
     3
  0
TEXT
  5
249
330
12A8
100
AcDbEntity
  8
PHASEIII_UNIT_NUMBERS
 62
     7
100
AcDbText
 10
50.84404
 20
126.467505
 30
0.0
 40
2.0
  1
35
  7
STYLE-GARAMOND
 11
50.84404
 21
128.467505
 31
0.0
100
AcDbText
 73
     3
  0
TEXT
  5
24A
330
12A8
100
AcDbEntity
  8
PHASEIII_UNIT_NUMBERS
 62
     7
100
AcDbText
 10
-58.879582
 20
96.649333
 30
0.0
 40
2.0
  1
39
  7
STYLE-GARAMOND
 11
-58.879582
 21
98.649333
 31
0.0
100
AcDbText
 73
     3
  0
TEXT
  5
24B
330
12A8
100
AcDbEntity
  8
PHASEIII_UNIT_NUMBERS
 62
     7
100
AcDbText
 10
-34.186175
 20
96.649333
 30
0.0
 40
2.0
  1
40
  7
STYLE-GARAMOND
 11
-34.186175
 21
98.649333
 31
0.0
100
AcDbText
 73
     3
  0
TEXT
  5
24C
330
12A8
100
AcDbEntity
  8
PHASEIII_UNIT_NUMBERS
 62
     7
100
AcDbText
 10
0.996773
 20
96.649333
 30
0.0
 40
2.0
  1
31
  7
STYLE-GARAMOND
 11
0.996773
 21
98.649333
 31
0.0
100
AcDbText
 73
     3
  0
TEXT
  5
24D
330
12A8
100
AcDbEntity
  8
PHASEIII_UNIT_NUMBERS
 62
     7
100
AcDbText
 10
30.690183
 20
96.649333
 30
0.0
 40
2.0
  1
32
  7
STYLE-GARAMOND
 11
30.690183
 21
98.649333
 31
0.0
100
AcDbText
 73
     3
  0
TEXT
  5
24E
330
12A8
100
AcDbEntity
  8
PHASEIII_UNIT_NUMBERS
 62
     7
100
AcDbText
 10
61.256928
 20
96.649333
 30
0.0
 40
2.0
  1
33
  7
STYLE-GARAMOND
 11
61.256928
 21
98.649333
 31
0.0
100
AcDbText
 73
     3
  0
TEXT
  5
24F
330
12A8
100
AcDbEntity
  8
PHASEIII_UNIT_NUMBERS
 62
     7
100
AcDbText
 10
86.084611
 20
91.658844
 30
0.0
 40
2.0
  1
34
  7
STYLE-GARAMOND
 11
86.084611
 21
93.658844
 31
0.0
100
AcDbText
 73
     3
  0
TEXT
  5
250
330
12A8
100
AcDbEntity
  8
PHASEIII_UNIT_NUMBERS
 62
     7
100
AcDbText
 10
-58.879582
 20
57.101609
 30
0.0
 40
2.0
  1
29
  7
STYLE-GARAMOND
 11
-58.879582
 21
59.101609
 31
0.0
100
AcDbText
 73
     3
  0
TEXT
  5
251
330
12A8
100
AcDbEntity
  8
PHASEIII_UNIT_NUMBERS
 62
     7
100
AcDbText
 10
-25.011394
 20
66.708301
 30
0.0
 40
2.0
  1
28
  7
STYLE-GARAMOND
 11
-25.011394
 21
68.708301
 31
0.0
100
AcDbText
 73
     3
  0
TEXT
  5
252
330
12A8
100
AcDbEntity
  8
PHASEIII_UNIT_NUMBERS
 62
     7
100
AcDbText
 10
-4.05134
 20
66.708301
 30
0.0
 40
2.0
  1
27
  7
STYLE-GARAMOND
 11
-4.05134
 21
68.708301
 31
0.0
100
AcDbText
 73
     3
  0
TEXT
  5
253
330
12A8
100
AcDbEntity
  8
PHASEIII_UNIT_NUMBERS
 62
     7
100
AcDbText
 10
35.872572
 20
66.708301
 30
0.0
 40
2.0
  1
26
  7
STYLE-GARAMOND
 11
35.872572
 21
68.708301
 31
0.0
100
AcDbText
 73
     3
  0
TEXT
  5
254
330
12A8
100
AcDbEntity
  8
PHASEIII_UNIT_NUMBERS
 62
     7
100
AcDbText
 10
55.834529
 20
66.708301
 30
0.0
 40
2.0
  1
25
  7
STYLE-GARAMOND
 11
55.834529
 21
68.708301
 31
0.0
100
AcDbText
 73
     3
  0
TEXT
  5
255
330
12A8
100
AcDbEntity
  8
PHASEIII_UNIT_NUMBERS
 62
     7
100
AcDbText
 10
90.518428
 20
66.708301
 30
0.0
 40
2.0
  1
24
  7
STYLE-GARAMOND
 11
90.518428
 21
68.708301
 31
0.0
100
AcDbText
 73
     3
  0
TEXT
  5
256
330
12A8
100
AcDbEntity
  8
PHASEIII_UNIT_NUMBERS
 62
     7
100
AcDbText
 10
-89.263941
 20
66.708301
 30
0.0
 40
2.0
  1
30
  7
STYLE-GARAMOND
 11
-89.263941
 21
68.708301
 31
0.0
100
AcDbText
 73
     3
  0
TEXT
  5
257
330
12A8
100
AcDbEntity
  8
PHASEIII_UNIT_NUMBERS
 62
     7
100
AcDbText
 10
-94.379193
 20
36.139653
 30
0.0
 40
2.0
  1
18
  7
STYLE-GARAMOND
 11
-94.379193
 21
38.139653
 31
0.0
100
AcDbText
 73
     3
  0
TEXT
  5
258
330
12A8
100
AcDbEntity
  8
PHASEIII_UNIT_NUMBERS
 62
     7
100
AcDbText
 10
-64.186734
 20
31.523451
 30
0.0
 40
2.0
  1
17
  7
STYLE-GARAMOND
 11
-64.186734
 21
33.523451
 31
0.0
100
AcDbText
 73
     3
  0
TEXT
  5
259
330
12A8
100
AcDbEntity
  8
PHASEIII_UNIT_NUMBERS
 62
     7
100
AcDbText
 10
-34.243799
 20
31.523451
 30
0.0
 40
2.0
  1
16
  7
STYLE-GARAMOND
 11
-34.243799
 21
33.523451
 31
0.0
100
AcDbText
 73
     3
  0
TEXT
  5
25A
330
12A8
100
AcDbEntity
  8
PHASEIII_UNIT_NUMBERS
 62
     7
100
AcDbText
 10
-4.176103
 20
31.523451
 30
0.0
 40
2.0
  1
20
  7
STYLE-GARAMOND
 11
-4.176103
 21
33.523451
 31
0.0
100
AcDbText
 73
     3
  0
TEXT
  5
25B
330
12A8
100
AcDbEntity
  8
PHASEIII_UNIT_NUMBERS
 62
     7
100
AcDbText
 10
31.006845
 20
36.638702
 30
0.0
 40
2.0
  1
21
  7
STYLE-GARAMOND
 11
31.006845
 21
38.638702
 31
0.0
100
AcDbText
 73
     3
  0
TEXT
  5
25C
330
12A8
100
AcDbEntity
  8
PHASEIII_UNIT_NUMBERS
 62
     7
100
AcDbText
 10
60.201207
 20
36.638702
 30
0.0
 40
2.0
  1
22
  7
STYLE-GARAMOND
 11
60.201207
 21
38.638702
 31
0.0
100
AcDbText
 73
     3
  0
TEXT
  5
25D
330
12A8
100
AcDbEntity
  8
PHASEIII_UNIT_NUMBERS
 62
     7
100
AcDbText
 10
91.391763
 20
36.638702
 30
0.0
 40
2.0
  1
23
  7
STYLE-GARAMOND
 11
91.391763
 21
38.638702
 31
0.0
100
AcDbText
 73
     3
  0
TEXT
  5
25E
330
12A8
100
AcDbEntity
  8
PHASEIII_UNIT_NUMBERS
 62
     7
100
AcDbText
 10
-124.322127
 20
36.638702
 30
0.0
 40
2.0
  1
19
  7
STYLE-GARAMOND
 11
-124.322127
 21
38.638702
 31
0.0
100
AcDbText
 73
     3
  0
TEXT
  5
25F
330
12A8
100
AcDbEntity
  8
PHASEIII_UNIT_NUMBERS
 62
     7
100
AcDbText
 10
-119.139738
 20
1.580516
 30
0.0
 40
2.0
  1
15
  7
STYLE-GARAMOND
 11
-119.139738
 21
3.580516
 31
0.0
100
AcDbText
 73
     3
  0
TEXT
  5
260
330
12A8
100
AcDbEntity
  8
PHASEIII_UNIT_NUMBERS
 62
     7
100
AcDbText
 10
-88.697754
 20
6.446243
 30
0.0
 40
2.0
  1
14
  7
STYLE-GARAMOND
 11
-88.697754
 21
8.446243
 31
0.0
100
AcDbText
 73
     3
  0
TEXT
  5
261
330
12A8
100
AcDbEntity
  8
PHASEIII_UNIT_NUMBERS
 62
     7
100
AcDbText
 10
-59.378631
 20
6.446243
 30
0.0
 40
2.0
  1
13
  7
STYLE-GARAMOND
 11
-59.378631
 21
8.446243
 31
0.0
100
AcDbText
 73
     3
  0
TEXT
  5
262
330
12A8
100
AcDbEntity
  8
PHASEIII_UNIT_NUMBERS
 62
     7
100
AcDbText
 10
-29.310934
 20
1.705278
 30
0.0
 40
2.0
  1
1
  7
STYLE-GARAMOND
 11
-29.310934
 21
3.705278
 31
0.0
100
AcDbText
 73
     3
  0
TEXT
  5
263
330
12A8
100
AcDbEntity
  8
PHASEIII_UNIT_NUMBERS
 62
     7
100
AcDbText
 10
30.824459
 20
1.705278
 30
0.0
 40
2.0
  1
2
  7
STYLE-GARAMOND
 11
30.824459
 21
3.705278
 31
0.0
100
AcDbText
 73
     3
  0
TEXT
  5
264
330
12A8
100
AcDbEntity
  8
PHASEIII_UNIT_NUMBERS
 62
     7
100
AcDbText
 10
60.268345
 20
6.945292
 30
0.0
 40
2.0
  1
10
  7
STYLE-GARAMOND
 11
60.268345
 21
8.945292
 31
0.0
100
AcDbText
 73
     3
  0
TEXT
  5
265
330
12A8
100
AcDbEntity
  8
PHASEIII_UNIT_NUMBERS
 62
     7
100
AcDbText
 10
90.585566
 20
6.945292
 30
0.0
 40
2.0
  1
9
  7
STYLE-GARAMOND
 11
90.585566
 21
8.945292
 31
0.0
100
AcDbText
 73
     3
  0
TEXT
  5
266
330
12A8
100
AcDbEntity
  8
PHASEIII_UNIT_NUMBERS
 62
     7
100
AcDbText
 10
-104.053022
 20
-28.110992
 30
0.0
 40
2.0
  1
12
  7
STYLE-GARAMOND
 11
-104.053022
 21
-26.110992
 31
0.0
100
AcDbText
 73
     3
  0
TEXT
  5
267
330
12A8
100
AcDbEntity
  8
PHASEIII_UNIT_NUMBERS
 62
     7
100
AcDbText
 10
-59.263383
 20
-28.110992
 30
0.0
 40
2.0
  1
11
  7
STYLE-GARAMOND
 11
-59.263383
 21
-26.110992
 31
0.0
100
AcDbText
 73
     3
  0
TEXT
  5
268
330
12A8
100
AcDbEntity
  8
PHASEIII_UNIT_NUMBERS
 62
     7
100
AcDbText
 10
-28.8214
 20
-23.245265
 30
0.0
 40
2.0
  1
8
  7
STYLE-GARAMOND
 11
-28.8214
 21
-21.245265
 31
0.0
100
AcDbText
 73
     3
  0
TEXT
  5
269
330
12A8
100
AcDbEntity
  8
PHASEIII_UNIT_NUMBERS
 62
     7
100
AcDbText
 10
6.236786
 20
-28.235754
 30
0.0
 40
2.0
  1
6
  7
STYLE-GARAMOND
 11
6.236786
 21
-26.235754
 31
0.0
100
AcDbText
 73
     3
  0
TEXT
  5
26A
330
12A8
100
AcDbEntity
  8
PHASEIII_UNIT_NUMBERS
 62
     7
100
AcDbText
 10
30.814945
 20
-22.99574
 30
0.0
 40
2.0
  1
3
  7
STYLE-GARAMOND
 11
30.814945
 21
-20.99574
 31
0.0
100
AcDbText
 73
     3
  0
TEXT
  5
26B
330
12A8
100
AcDbEntity
  8
PHASEIII_UNIT_NUMBERS
 62
     7
100
AcDbText
 10
57.888348
 20
-32.851956
 30
0.0
 40
2.0
  1
5
  7
STYLE-GARAMOND
 11
57.888348
 21
-30.851956
 31
0.0
100
AcDbText
 73
     3
  0
TEXT
  5
26C
330
12A8
100
AcDbEntity
  8
PHASEIII_UNIT_NUMBERS
 62
     7
100
AcDbText
 10
-6.33063
 20
-53.314864
 30
0.0
 40
2.0
  1
7
  7
STYLE-GARAMOND
 11
-6.33063
 21
-51.314864
 31
0.0
100
AcDbText
 73
     3
  0
TEXT
  5
26D
330
12A8
100
AcDbEntity
  8
PHASEIII_UNIT_NUMBERS
 62
     7
100
AcDbText
 10
31.597087
 20
-53.314864
 30
0.0
 40
2.0
  1
4
  7
STYLE-GARAMOND
 11
31.597087
 21
-51.314864
 31
0.0
100
AcDbText
 73
     3
  0
LWPOLYLINE
  5
26F
330
12A8
100
AcDbEntity
  8
PHASE_II_UNITS
100
AcDbPolyline
 90
        4
 70
   129
 43
0.0
 10
0.0
 20
0.0
 10
0.0
 20
5.0
 10
5.0
 20
5.0
 10
5.0
 20
0.0
  0
LWPOLYLINE
  5
274
330
12A8
100
AcDbEntity
  8
PHASE_II_UNITS
100
AcDbPolyline
 90
        5
 70
   128
 43
0.0
 10
5.0
 20
-5.0
 10
5.0
 20
-10.0
 10
10.0
 20
-10.0
 10
10.0
 20
-5.0
 10
5.0
 20
-4.926345
  0
LWPOLYLINE
  5
279
330
12A8
100
AcDbEntity
  8
PHASE_II_UNITS
100
AcDbPolyline
 90
        4
 70
   129
 43
0.0
 10
-85.0
 20
50.0
 10
-85.0
 20
55.0
 10
-90.0
 20
55.0
 10
-90.0
 20
50.0
  0
TEXT
  5
27B
330
12A8
100
AcDbEntity
  8
PHASEII_UNIT_NUMBERS
100
AcDbText
 10
-88.218323
 20
55.786166
 30
0.0
 40
2.0
  1
1
  7
STYLE-GARAMOND
 11
-88.218323
 21
57.786166
 31
0.0
100
AcDbText
 73
     3
  0
TEXT
  5
27C
330
12A8
100
AcDbEntity
  8
PHASEII_UNIT_NUMBERS
100
AcDbText
 10
1.733843
 20
6.332598
 30
0.0
 40
2.0
  1
3
  7
STYLE-GARAMOND
 11
1.733843
 21
8.332598
 31
0.0
100
AcDbText
 73
     3
  0
TEXT
  5
27D
330
12A8
100
AcDbEntity
  8
PHASEII_UNIT_NUMBERS
100
AcDbText
 10
16.424018
 20
6.332598
 30
0.0
 40
2.0
  1
6
  7
STYLE-GARAMOND
 11
16.424018
 21
8.332598
 31
0.0
100
AcDbText
 73
     3
  0
TEXT
  5
27E
330
12A8
100
AcDbEntity
  8
PHASEII_UNIT_NUMBERS
100
AcDbText
 10
6.865342
 20
-4.232254
 30
0.0
 40
2.0
  1
5
  7
STYLE-GARAMOND
 11
6.865342
 21
-2.232254
 31
0.0
100
AcDbText
 73
     3
  0
LWPOLYLINE
  5
280
330
12A8
100
AcDbEntity
  8
PHASE_II_UNITS
100
AcDbPolyline
 90
        4
 70
   128
 43
0.0
 10
-130.0
 20
0.18257
 10
-130.0
 20
5.18257
 10
-125.0
 20
5.18257
 10
-124.911958
 20
0.18257
  0
LINE
  5
281
330
12A8
100
AcDbEntity
  8
PHASE_II_UNITS
100
AcDbLine
 10
-130.0
 20
0.182705
 30
0.0
 11
-124.861074
 21
0.18257
 31
0.0
  0
TEXT
  5
282
330
12A8
100
AcDbEntity
  8
PHASEII_UNIT_NUMBERS
100
AcDbText
 10
-128.244858
 20
6.476792
 30
0.0
 40
2.0
  1
2
  7
STYLE-GARAMOND
 11
-128.244858
 21
8.476792
 31
0.0
100
AcDbText
 73
     3
  0
LWPOLYLINE
  5
288
330
12A8
100
AcDbEntity
  8
PHASE_II_UNITS
100
AcDbPolyline
 90
        4
 70
   129
 43
0.0
 10
18.0
 20
35.0
 10
18.0
 20
40.0
 10
23.0
 20
40.0
 10
23.0
 20
35.0
  0
TEXT
  5
289
330
12A8
100
AcDbEntity
  8
PHASEII_UNIT_NUMBERS
100
AcDbText
 10
19.401691
 20
41.635977
 30
0.0
 40
2.0
  1
4
  7
STYLE-GARAMOND
 11
19.401691
 21
43.635977
 31
0.0
100
AcDbText
 73
     3
  0
LINE
  5
28D
330
12A8
100
AcDbEntity
  8
PHASE_II_UNITS
100
AcDbLine
 10
15.0
 20
0.0
 30
0.0
 11
15.0
 21
5.0
 31
0.0
  0
LINE
  5
291
330
12A8
100
AcDbEntity
  8
PHASE_II_UNITS
100
AcDbLine
 10
15.0
 20
5.0
 30
0.0
 11
20.0
 21
5.0
 31
0.0
  0
LINE
  5
292
330
12A8
100
AcDbEntity
  8
PHASE_II_UNITS
100
AcDbLine
 10
20.0
 20
5.0
 30
0.0
 11
20.0
 21
0.0
 31
0.0
  0
LINE
  5
293
330
12A8
100
AcDbEntity
  8
PHASE_II_UNITS
100
AcDbLine
 10
20.0
 20
0.0
 30
0.0
 11
15.0
 21
0.0
 31
0.0
  0
HATCH
  5
2D8
330
12A8
100
AcDbEntity
  8
PHASEI_STPS
  6
CONTINUOUS
 62
     7
100
AcDbHatch
 10
0.0
 20
0.0
 30
0.0
210
0.0
220
0.0
230
1.0
  2
SOLID
 70
     1
 71
     0
 91
        1
 92
        1
 93
        1
 72
     2
 10
-128.1414890741697
 20
46.57477909307102
 40
0.2378991845865966
 50
0.0
 51
360.0
 73
     1
 97
        0
 75
     0
 76
     1
 98
        0
  0
HATCH
  5
2DD
330
12A8
100
AcDbEntity
  8
PHASEI_STPS
  6
CONTINUOUS
 62
     7
100
AcDbHatch
 10
0.0
 20
0.0
 30
0.0
210
0.0
220
0.0
230
1.0
  2
SOLID
 70
     1
 71
     0
 91
        1
 92
        1
 93
        1
 72
     2
 10
-133.9922793723331
 20
-7.775983413552808
 40
0.2378991845865966
 50
0.0
 51
360.0
 73
     1
 97
        0
 75
     0
 76
     1
 98
        0
  0
HATCH
  5
2DF
330
12A8
100
AcDbEntity
  8
PHASEI_STPS
  6
CONTINUOUS
 62
     7
100
AcDbHatch
 10
0.0
 20
0.0
 30
0.0
210
0.0
220
0.0
230
1.0
  2
SOLID
 70
     1
 71
     0
 91
        1
 92
        1
 93
        1
 72
     2
 10
-90.88119296481281
 20
20.86209541429998
 40
0.2378991845865966
 50
0.0
 51
360.0
 73
     1
 97
        0
 75
     0
 76
     1
 98
        0
  0
HATCH
  5
2E3
330
12A8
100
AcDbEntity
  8
PHASEI_STPS
  6
CONTINUOUS
 62
     7
100
AcDbHatch
 10
0.0
 20
0.0
 30
0.0
210
0.0
220
0.0
230
1.0
  2
SOLID
 70
     1
 71
     0
 91
        1
 92
        1
 93
        1
 72
     2
 10
265.4011425601942
 20
28.56050370135717
 40
0.2378991845865966
 50
0.0
 51
360.0
 73
     1
 97
        0
 75
     0
 76
     1
 98
        0
  0
LWPOLYLINE
  5
31B
330
12A8
100
AcDbEntity
  8
EXCAVATION_BOUNDARY
 62
     1
100
AcDbPolyline
 90
        3
 70
   128
 43
0.0
 10
-31.639962
 20
155.877763
 10
36.460178
 20
155.877763
 10
36.460178
 20
125.0
  0
LINE
  5
31E
330
12A8
100
AcDbEntity
  8
EXCAVATION_BOUNDARY
 62
     1
100
AcDbLine
 10
66.623254
 20
95.784831
 30
0.0
 11
55.0
 21
95.784831
 31
0.0
  0
LINE
  5
320
330
12A8
100
AcDbEntity
  8
EXCAVATION_BOUNDARY
 62
     1
100
AcDbLine
 10
94.998312
 20
5.0
 30
0.0
 11
94.998312
 21
90.653998
 31
0.0
  0
LWPOLYLINE
  5
321
330
12A8
100
AcDbEntity
  8
EXCAVATION_BOUNDARY
 62
     1
100
AcDbPolyline
 90
       18
 70
   128
 43
0.0
 10
95.0
 20
0.242511
 10
95.0
 20
-2.478385
 10
63.746878
 20
-2.478385
 10
64.142078
 20
-41.310443
 10
36.544347
 20
-41.591309
 10
36.743577
 20
-61.167533
 10
-9.094649
 20
-61.634036
 10
-9.359651
 20
-35.595101
 10
-108.367683
 20
-36.602722
 10
-108.682517
 20
-5.667327
 10
-125.010978
 20
-5.833504
 10
-125.439171
 20
36.240368
 10
-96.632743
 20
36.533536
 10
-96.925911
 20
65.339964
 10
-60.944011
 20
65.706157
 10
-61.549184
 20
125.169927
 10
-30.941885
 20
125.481422
 10
-31.639962
 20
155.877763
  0
LINE
  5
31C
330
12A8
100
AcDbEntity
  8
EXCAVATION_BOUNDARY
 62
     1
100
AcDbLine
 10
54.962271
 20
125.0
 30
0.0
 11
36.460178
 21
125.0
 31
0.0
  0
LINE
  5
31D
330
12A8
100
AcDbEntity
  8
EXCAVATION_BOUNDARY
 62
     1
100
AcDbLine
 10
55.0
 20
125.0
 30
0.0
 11
55.0
 21
95.795986
 31
0.0
  0
LWPOLYLINE
  5
322
330
12A8
100
AcDbEntity
  8
EXCAVATION_BOUNDARY
 62
     1
100
AcDbPolyline
 90
        3
 70
   128
 43
0.0
 10
66.623254
 20
95.784831
 10
66.623254
 20
90.653998
 10
94.998312
 20
90.653998
  0
LINE
  5
32D
330
12A8
100
AcDbEntity
  8
STRIPPED_BLOCK
100
AcDbLine
 10
18.0
 20
40.0
 30
0.0
 11
18.0
 21
25.0
 31
0.0
  0
LINE
  5
32F
330
12A8
100
AcDbEntity
  8
STRIPPED_BLOCK
100
AcDbLine
 10
-5.241519
 20
25.0
 30
0.0
 11
18.0
 21
25.0
 31
0.0
  0
LINE
  5
330
330
12A8
100
AcDbEntity
  8
STRIPPED_BLOCK
100
AcDbLine
 10
18.0
 20
40.0
 30
0.0
 11
30.0
 21
40.0
 31
0.0
  0
LINE
  5
331
330
12A8
100
AcDbEntity
  8
STRIPPED_BLOCK
100
AcDbLine
 10
30.0
 20
35.0
 30
0.0
 11
30.0
 21
40.0
 31
0.0
  0
LWPOLYLINE
  5
332
330
12A8
100
AcDbEntity
  8
STRIPPED_BLOCK
100
AcDbPolyline
 90
        4
 70
   128
 43
0.0
 10
65.0
 20
29.98909
 10
65.0
 20
38.320849
 10
50.974961
 20
38.320849
 10
50.974961
 20
35.0
  0
LINE
  5
333
330
12A8
100
AcDbEntity
  8
STRIPPED_BLOCK
100
AcDbLine
 10
30.0
 20
35.0
 30
0.0
 11
50.974961
 21
35.0
 31
0.0
  0
LWPOLYLINE
  5
334
330
12A8
100
AcDbEntity
  8
STRIPPED_BLOCK
100
AcDbPolyline
 90
        5
 70
   128
 43
0.0
 10
35.0
 20
-30.0
 10
35.0
 20
30.0
 10
51.524308
 20
30.0
 10
51.524308
 20
26.967683
 10
65.0
 20
26.967683
  0
LINE
  5
335
330
12A8
100
AcDbEntity
  8
STRIPPED_BLOCK
100
AcDbLine
 10
65.0
 20
30.263764
 30
0.0
 11
65.0
 21
26.967683
 31
0.0
  0
LWPOLYLINE
  5
336
330
12A8
100
AcDbEntity
  8
STRIPPED_BLOCK
100
AcDbPolyline
 90
        3
 70
   128
 43
0.0
 10
35.0
 20
-29.981259
 10
-25.0
 20
-30.0
 10
-25.017179
 20
25.0
  0
LINE
  5
337
330
12A8
100
AcDbEntity
  8
STRIPPED_BLOCK
100
AcDbLine
 10
-5.0
 20
25.0
 30
0.0
 11
-25.017179
 21
25.0
 31
0.0
  0
LINE
  5
33A
330
12A8
100
AcDbEntity
  8
STRIPPED_BLOCK
100
AcDbLine
 10
-35.0
 20
25.247675
 30
0.0
 11
-125.328809
 21
25.396307
 31
0.0
  0
LINE
  5
33B
330
12A8
100
AcDbEntity
  8
STRIPPED_BLOCK
100
AcDbLine
 10
-35.0
 20
25.247675
 30
0.0
 11
-35.0
 21
36.240368
 31
0.0
  0
LINE
  5
33C
330
12A8
100
AcDbEntity
  8
STRIPPED_BLOCK
100
AcDbLine
 10
-125.439171
 20
36.240368
 30
0.0
 11
-35.0
 21
36.240368
 31
0.0
  0
LINE
  5
33F
330
12A8
100
AcDbEntity
  8
STRIPPED_BLOCK
100
AcDbLine
 10
-54.858897
 20
95.0
 30
0.0
 11
-61.242256
 21
95.011438
 31
0.0
  0
LINE
  5
340
330
12A8
100
AcDbEntity
  8
STRIPPED_BLOCK
100
AcDbLine
 10
-55.0
 20
95.0
 30
0.0
 11
-42.701332
 21
95.0
 31
0.0
  0
LINE
  5
341
330
12A8
100
AcDbEntity
  8
STRIPPED_BLOCK
100
AcDbLine
 10
-42.701332
 20
125.361744
 30
0.0
 11
-42.701332
 21
95.0
 31
0.0
  0
SPLINE
  5
360
330
12A8
100
AcDbEntity
  8
FEATURES
100
AcDbSpline
210
0.0
220
0.0
230
1.0
 70
    11
 71
     3
 72
   115
 73
   111
 74
     0
 42
0.0000000001
 43
0.00000001
 40
0.0
 40
0.0
 40
0.0
 40
0.0
 40
0.0047619047619048
 40
0.0095238095238095
 40
0.0142857142857143
 40
0.019047619047619
 40
0.0238095238095238
 40
0.0285714285714286
 40
0.0333333333333333
 40
0.0380952380952381
 40
0.0428571428571429
 40
0.0476190476190476
 40
0.0523809523809524
 40
0.0571428571428571
 40
0.0619047619047619
 40
0.0666666666666667
 40
0.0714285714285714
 40
0.0761904761904762
 40
0.0809523809523809
 40
0.0857142857142857
 40
0.0904761904761904
 40
0.0952380952380952
 40
0.1
 40
0.1047619047619047
 40
0.1095238095238095
 40
0.1142857142857142
 40
0.119047619047619
 40
0.1238095238095238
 40
0.1285714285714285
 40
0.1333333333333333
 40
0.1380952380952381
 40
0.1428571428571428
 40
0.1476190476190476
 40
0.1523809523809524
 40
0.1571428571428572
 40
0.1619047619047619
 40
0.1666666666666667
 40
0.1714285714285715
 40
0.1761904761904763
 40
0.180952380952381
 40
0.1857142857142858
 40
0.1904761904761906
 40
0.1952380952380953
 40
0.2000000000000001
 40
0.2047619047619049
 40
0.2095238095238097
 40
0.2142857142857144
 40
0.2190476190476192
 40
0.223809523809524
 40
0.2285714285714288
 40
0.2333333333333335
 40
0.2380952380952383
 40
0.2428571428571431
 40
0.2476190476190478
 40
0.2523809523809526
 40
0.2571428571428573
 40
0.2619047619047621
 40
0.2666666666666668
 40
0.2714285714285716
 40
0.2761904761904763
 40
0.2809523809523811
 40
0.2857142857142858
 40
0.2904761904761906
 40
0.2952380952380953
 40
0.3
 40
0.3047619047619048
 40
0.3095238095238095
 40
0.3142857142857143
 40
0.319047619047619
 40
0.3238095238095238
 40
0.3285714285714285
 40
0.3333333333333333
 40
0.338095238095238
 40
0.3428571428571427
 40
0.3476190476190475
 40
0.3523809523809522
 40
0.357142857142857
 40
0.3619047619047617
 40
0.3666666666666665
 40
0.3714285714285712
 40
0.376190476190476
 40
0.3809523809523807
 40
0.3857142857142855
 40
0.3904761904761902
 40
0.3952380952380949
 40
0.3999999999999997
 40
0.4047619047619044
 40
0.4095238095238092
 40
0.4142857142857139
 40
0.4190476190476187
 40
0.4238095238095234
 40
0.4285714285714282
 40
0.4333333333333329
 40
0.4380952380952376
 40
0.4428571428571424
 40
0.4476190476190471
 40
0.4523809523809519
 40
0.4571428571428566
 40
0.4619047619047614
 40
0.4666666666666661
 40
0.4714285714285709
 40
0.4761904761904756
 40
0.4809523809523804
 40
0.4857142857142851
 40
0.4904761904761898
 40
0.4952380952380946
 40
0.5
 40
0.5
 40
0.5
 40
1.0
 40
1.0
 40
1.0
 40
1.0
 10
60.0
 20
33.77710747874241
 30
0.0
 10
59.7237871046363
 20
33.57138179914512
 30
0.0
 10
59.60035169687796
 20
33.40680125546729
 30
0.0
 10
59.46663000513971
 20
33.3450835515881
 30
0.0
 10
59.29176317748201
 20
33.33479726760824
 30
0.0
 10
58.93174323818678
 20
33.58166808312499
 30
0.0
 10
58.46886045909287
 20
33.9828331583397
 30
0.0
 10
58.21170335959627
 20
34.40457080151414
 30
0.0
 10
58.16027193969691
 20
34.6205827650913
 30
0.0
 10
58.20141707561638
 20
34.80573587672885
 30
0.0
 10
58.23227592755597
 20
34.97031642040669
 30
0.0
 10
58.02655024795868
 20
35.15546953204424
 30
0.0
 10
57.71796172856276
 20
35.61835231113815
 30
0.0
 10
57.54309490090506
 20
36.07094880625218
 30
0.0
 10
57.53280861692517
 20
36.40010989360784
 30
0.0
 10
57.61509888876409
 20
36.73955726494337
 30
0.0
 10
57.67681659264329
 20
36.8732789566816
 30
0.0
 10
57.64595774070369
 20
36.94528294454066
 30
0.0
 10
57.4402320611064
 20
37.01728693239971
 30
0.0
 10
57.15221610967018
 20
37.10986348821849
 30
0.0
 10
56.90534529415348
 20
37.02757321637957
 30
0.0
 10
56.61732934271726
 20
36.62640814116486
 30
0.0
 10
56.40131737914012
 20
36.31781962176893
 30
0.0
 10
56.27788197138173
 20
35.84465055869516
 30
0.0
 10
56.19559169954283
 20
35.56692089123882
 30
0.0
 10
55.61955979667042
 20
35.36119521164154
 30
0.0
 10
55.62984608065025
 20
35.04232040826574
 30
0.0
 10
55.58870094473079
 20
34.6205827650913
 30
0.0
 10
55.57841466075095
 20
34.37371194957455
 30
0.0
 10
55.26982614135503
 20
34.29142167773563
 30
0.0
 10
54.62179025062355
 20
34.38399823355441
 30
0.0
 10
54.39549200306655
 20
34.43542965345374
 30
0.0
 10
54.28234287928802
 20
34.38399823355441
 30
0.0
 10
54.13833490356993
 20
34.1576999859974
 30
0.0
 10
53.9428955079525
 20
34.11655485007794
 30
0.0
 10
53.59316185263711
 20
34.17827255395713
 30
0.0
 10
53.33600475314051
 20
34.2399902578363
 30
0.0
 10
53.19199677742239
 20
34.20913140589671
 30
0.0
 10
53.14056535752306
 20
34.03426457823902
 30
0.0
 10
53.18171049344252
 20
33.96226059037997
 30
0.0
 10
53.49029901283848
 20
33.86968403456119
 30
0.0
 10
53.61373442059681
 20
33.79768004670213
 30
0.0
 10
53.65487955651628
 20
33.6948172069035
 30
0.0
 10
53.48001272885858
 20
33.44794639138675
 30
0.0
 10
53.14056535752306
 20
33.26279327974919
 30
0.0
 10
53.03770251772443
 20
33.10849902005122
 30
0.0
 10
53.19199677742239
 20
32.78962421667543
 30
0.0
 10
53.48001272885858
 20
32.58389853707813
 30
0.0
 10
53.71659726039547
 20
32.51189454921908
 30
0.0
 10
54.03547206377127
 20
32.57361225309827
 30
0.0
 10
54.17948003948939
 20
32.64561624095732
 30
0.0
 10
54.20005260744909
 20
32.7381927967761
 30
0.0
 10
54.0251857797914
 20
32.82048306861502
 30
0.0
 10
53.85031895213373
 20
32.84105563657475
 30
0.0
 10
53.75774239631494
 20
32.91305962443379
 30
0.0
 10
53.86060523611357
 20
32.99534989627271
 30
0.0
 10
54.01489949581156
 20
33.0570676001519
 30
0.0
 10
54.12804861959006
 20
33.11878530403109
 30
0.0
 10
54.17948003948939
 20
33.21136185984987
 30
0.0
 10
54.10747605163033
 20
33.24222071178946
 30
0.0
 10
53.9943269278518
 20
33.25250699576933
 30
0.0
 10
53.86060523611357
 20
33.25250699576933
 30
0.0
 10
53.95318179193239
 20
33.39651497148743
 30
0.0
 10
54.13833490356993
 20
33.49937781128607
 30
0.0
 10
54.37491943510679
 20
33.58166808312499
 30
0.0
 10
54.54978626276451
 20
33.45823267536661
 30
0.0
 10
54.78637079430138
 20
33.27307956372906
 30
0.0
 10
54.9818101899188
 20
33.18050300791027
 30
0.0
 10
55.16696330155636
 20
33.18050300791027
 30
0.0
 10
55.26982614135503
 20
33.14964415597068
 30
0.0
 10
55.45497925299256
 20
32.99534989627271
 30
0.0
 10
55.43440668503285
 20
32.7381927967761
 30
0.0
 10
55.62984608065025
 20
32.17244717788356
 30
0.0
 10
55.66070493258985
 20
31.89471751042722
 30
0.0
 10
55.65041864861001
 20
31.57584270705141
 30
0.0
 10
55.46526553697242
 20
31.32897189153467
 30
0.0
 10
55.41383411707312
 20
31.21582276775617
 30
0.0
 10
55.47555182095232
 20
30.8866616804005
 30
0.0
 10
55.51669695687178
 20
30.71179485274281
 30
0.0
 10
55.70185006850932
 20
30.63979086488376
 30
0.0
 10
56.2367368354623
 20
30.49578288916565
 30
0.0
 10
56.81276873833465
 20
30.34148862946768
 30
0.0
 10
57.08021212181117
 20
30.19748065374959
 30
0.0
 10
57.27565151742857
 20
30.35177491344755
 30
0.0
 10
57.4402320611064
 20
30.5986457289643
 30
0.0
 10
57.54309490090506
 20
30.76322627264213
 30
0.0
 10
57.90311484020029
 20
30.72208113672266
 30
0.0
 10
58.12941308775734
 20
30.52664174110525
 30
0.0
 10
58.36599761929421
 20
30.34148862946768
 30
0.0
 10
58.73630384256933
 20
30.51635545712539
 30
0.0
 10
58.97288837410622
 20
30.7426537046824
 30
0.0
 10
59.06546492992501
 20
30.8866616804005
 30
0.0
 10
59.16832776972362
 20
30.89694796438037
 30
0.0
 10
59.26090432554241
 20
30.69122228478307
 30
0.0
 10
59.43577115320014
 20
30.50606917314552
 30
0.0
 10
59.672355684737
 20
30.50606917314552
 30
0.0
 10
60.0
 20
30.69122228478307
 30
0.0
 10
60.0
 20
30.68093600080322
 30
0.0
 10
60.0
 20
30.84551654448105
 30
0.0
 10
60.0
 20
31.27754047163536
 30
0.0
 10
60.0
 20
31.76099581868899
 30
0.0
 10
60.0
 20
32.30616886962181
 30
0.0
 10
60.0
 20
33.09821273607137
 30
0.0
 10
60.0
 20
33.45823267536662
 30
0.0
 10
60.0
 20
33.67424463894378
 30
0.0
 10
59.99999999999994
 20
33.75864491775294
 30
0.0
 10
59.99999999999994
 20
33.76673379441152
 30
0.0
 10
59.99999999999994
 20
33.77478322115348
 30
0.0
 10
59.99999999999994
 20
33.77555797368312
 30
0.0
 10
60.0
 20
33.77633272621276
 30
0.0
 10
60.0
 20
33.77710747874241
 30
0.0
  0
HATCH
  5
12CC
330
12A8
100
AcDbEntity
  8
FEATURES
 62
   253
100
AcDbHatch
 10
0.0
 20
0.0
 30
0.0
210
0.0
220
0.0
230
1.0
  2
SOLID
 70
     1
 71
     1
 91
        1
 92
        1
 93
        3
 72
     4
 94
        3
 73
     0
 74
     0
 95
      103
 96
       99
 40
0.0
 40
0.0
 40
0.0
 40
0.0
 40
0.0104166666666667
 40
0.0208333333333334
 40
0.03125
 40
0.0416666666666667
 40
0.0520833333333334
 40
0.0625000000000001
 40
0.0729166666666668
 40
0.0833333333333334
 40
0.0937500000000001
 40
0.1041666666666668
 40
0.1145833333333335
 40
0.1250000000000001
 40
0.1354166666666668
 40
0.1458333333333335
 40
0.1562500000000001
 40
0.1666666666666668
 40
0.1770833333333335
 40
0.1875000000000002
 40
0.1979166666666669
 40
0.2083333333333335
 40
0.2187500000000002
 40
0.2291666666666669
 40
0.2395833333333335
 40
0.2500000000000002
 40
0.2604166666666669
 40
0.2708333333333335
 40
0.2812500000000003
 40
0.291666666666667
 40
0.3020833333333336
 40
0.3125000000000004
 40
0.3229166666666671
 40
0.3333333333333338
 40
0.3437500000000005
 40
0.3541666666666672
 40
0.3645833333333339
 40
0.3750000000000006
 40
0.3854166666666673
 40
0.395833333333334
 40
0.4062500000000007
 40
0.4166666666666674
 40
0.4270833333333341
 40
0.4375000000000008
 40
0.4479166666666675
 40
0.4583333333333342
 40
0.4687500000000009
 40
0.4791666666666676
 40
0.4895833333333343
 40
0.500000000000001
 40
0.5104166666666677
 40
0.5208333333333344
 40
0.5312500000000011
 40
0.5416666666666679
 40
0.5520833333333345
 40
0.5625000000000011
 40
0.5729166666666677
 40
0.5833333333333344
 40
0.593750000000001
 40
0.6041666666666677
 40
0.6145833333333344
 40
0.625000000000001
 40
0.6354166666666676
 40
0.6458333333333343
 40
0.6562500000000009
 40
0.6666666666666675
 40
0.6770833333333341
 40
0.6875000000000008
 40
0.6979166666666675
 40
0.7083333333333341
 40
0.7187500000000008
 40
0.7291666666666674
 40
0.739583333333334
 40
0.7500000000000007
 40
0.7604166666666673
 40
0.7708333333333339
 40
0.7812500000000006
 40
0.7916666666666673
 40
0.8020833333333339
 40
0.8125000000000006
 40
0.8229166666666672
 40
0.8333333333333338
 40
0.8437500000000004
 40
0.8541666666666671
 40
0.8645833333333337
 40
0.8750000000000003
 40
0.8854166666666671
 40
0.8958333333333337
 40
0.9062500000000003
 40
0.916666666666667
 40
0.9270833333333336
 40
0.9375000000000002
 40
0.9479166666666669
 40
0.9583333333333335
 40
0.9687500000000002
 40
0.9791666666666669
 40
0.9895833333333335
 40
1.0
 40
1.0
 40
1.0
 40
1.0
 10
60.0
 20
33.77710747874241
 10
59.7237871046363
 20
33.57138179914512
 10
59.60035169687796
 20
33.40680125546729
 10
59.46663000513971
 20
33.3450835515881
 10
59.29176317748201
 20
33.33479726760824
 10
58.93174323818678
 20
33.58166808312499
 10
58.46886045909287
 20
33.9828331583397
 10
58.21170335959627
 20
34.40457080151414
 10
58.16027193969691
 20
34.6205827650913
 10
58.20141707561638
 20
34.80573587672885
 10
58.23227592755597
 20
34.97031642040669
 10
58.02655024795868
 20
35.15546953204424
 10
57.71796172856276
 20
35.61835231113815
 10
57.54309490090506
 20
36.07094880625218
 10
57.53280861692517
 20
36.40010989360784
 10
57.61509888876409
 20
36.73955726494337
 10
57.67681659264329
 20
36.8732789566816
 10
57.64595774070369
 20
36.94528294454066
 10
57.4402320611064
 20
37.01728693239971
 10
57.15221610967018
 20
37.10986348821849
 10
56.90534529415348
 20
37.02757321637957
 10
56.61732934271726
 20
36.62640814116486
 10
56.40131737914012
 20
36.31781962176893
 10
56.27788197138173
 20
35.84465055869516
 10
56.19559169954283
 20
35.56692089123882
 10
55.61955979667042
 20
35.36119521164154
 10
55.62984608065025
 20
35.04232040826574
 10
55.58870094473079
 20
34.6205827650913
 10
55.57841466075095
 20
34.37371194957455
 10
55.26982614135503
 20
34.29142167773563
 10
54.62179025062355
 20
34.38399823355441
 10
54.39549200306655
 20
34.43542965345374
 10
54.28234287928802
 20
34.38399823355441
 10
54.13833490356993
 20
34.1576999859974
 10
53.9428955079525
 20
34.11655485007794
 10
53.59316185263711
 20
34.17827255395713
 10
53.33600475314051
 20
34.2399902578363
 10
53.19199677742239
 20
34.20913140589671
 10
53.14056535752306
 20
34.03426457823902
 10
53.18171049344252
 20
33.96226059037997
 10
53.49029901283848
 20
33.86968403456119
 10
53.61373442059681
 20
33.79768004670213
 10
53.65487955651628
 20
33.6948172069035
 10
53.48001272885858
 20
33.44794639138675
 10
53.14056535752306
 20
33.26279327974919
 10
53.03770251772443
 20
33.10849902005122
 10
53.19199677742239
 20
32.78962421667543
 10
53.48001272885858
 20
32.58389853707813
 10
53.71659726039547
 20
32.51189454921908
 10
54.03547206377127
 20
32.57361225309827
 10
54.17948003948939
 20
32.64561624095732
 10
54.20005260744909
 20
32.7381927967761
 10
54.0251857797914
 20
32.82048306861502
 10
53.85031895213373
 20
32.84105563657475
 10
53.75774239631494
 20
32.91305962443379
 10
53.86060523611357
 20
32.99534989627271
 10
54.01489949581156
 20
33.0570676001519
 10
54.12804861959006
 20
33.11878530403109
 10
54.17948003948939
 20
33.21136185984987
 10
54.10747605163033
 20
33.24222071178946
 10
53.9943269278518
 20
33.25250699576933
 10
53.86060523611357
 20
33.25250699576933
 10
53.95318179193239
 20
33.39651497148743
 10
54.13833490356993
 20
33.49937781128607
 10
54.37491943510679
 20
33.58166808312499
 10
54.54978626276451
 20
33.45823267536661
 10
54.78637079430138
 20
33.27307956372906
 10
54.9818101899188
 20
33.18050300791027
 10
55.16696330155636
 20
33.18050300791027
 10
55.26982614135503
 20
33.14964415597068
 10
55.45497925299256
 20
32.99534989627271
 10
55.43440668503285
 20
32.7381927967761
 10
55.62984608065025
 20
32.17244717788356
 10
55.66070493258985
 20
31.89471751042722
 10
55.65041864861001
 20
31.57584270705141
 10
55.46526553697242
 20
31.32897189153467
 10
55.41383411707312
 20
31.21582276775617
 10
55.47555182095232
 20
30.8866616804005
 10
55.51669695687178
 20
30.71179485274281
 10
55.70185006850932
 20
30.63979086488376
 10
56.2367368354623
 20
30.49578288916565
 10
56.81276873833465
 20
30.34148862946768
 10
57.08021212181117
 20
30.19748065374959
 10
57.27565151742857
 20
30.35177491344755
 10
57.4402320611064
 20
30.5986457289643
 10
57.54309490090506
 20
30.76322627264213
 10
57.90311484020029
 20
30.72208113672266
 10
58.12941308775734
 20
30.52664174110525
 10
58.36599761929421
 20
30.34148862946768
 10
58.73630384256933
 20
30.51635545712539
 10
58.97288837410622
 20
30.7426537046824
 10
59.06546492992501
 20
30.8866616804005
 10
59.16832776972362
 20
30.89694796438037
 10
59.26090432554241
 20
30.69122228478307
 10
59.43577115320014
 20
30.50606917314552
 10
59.672355684737
 20
30.50606917314552
 10
60.0
 20
30.69122228478307
 10
60.0
 20
30.68436476212984
 10
60.0
 20
30.7100804720795
 72
     1
 10
60.00000000000001
 20
30.7100804720795
 11
59.99999999999994
 21
33.77478322115348
 72
     1
 10
59.99999999999994
 20
33.77478322115348
 11
60.0
 21
33.77710747874241
 97
        1
330
361
 75
     0
 76
     1
 98
        1
 10
0.0
 20
0.0
  0
SPLINE
  5
361
102
{ACAD_REACTORS
330
12CC
102
}
330
12A8
100
AcDbEntity
  8
FEATURES
 62
   250
100
AcDbSpline
210
0.0
220
0.0
230
1.0
 70
    11
 71
     3
 72
   115
 73
   111
 74
     0
 42
0.0000000001
 43
0.00000001
 40
0.0
 40
0.0
 40
0.0
 40
0.0
 40
0.0047619047619048
 40
0.0095238095238095
 40
0.0142857142857143
 40
0.019047619047619
 40
0.0238095238095238
 40
0.0285714285714286
 40
0.0333333333333333
 40
0.0380952380952381
 40
0.0428571428571429
 40
0.0476190476190476
 40
0.0523809523809524
 40
0.0571428571428571
 40
0.0619047619047619
 40
0.0666666666666667
 40
0.0714285714285714
 40
0.0761904761904762
 40
0.0809523809523809
 40
0.0857142857142857
 40
0.0904761904761904
 40
0.0952380952380952
 40
0.1
 40
0.1047619047619047
 40
0.1095238095238095
 40
0.1142857142857142
 40
0.119047619047619
 40
0.1238095238095238
 40
0.1285714285714285
 40
0.1333333333333333
 40
0.1380952380952381
 40
0.1428571428571428
 40
0.1476190476190476
 40
0.1523809523809524
 40
0.1571428571428572
 40
0.1619047619047619
 40
0.1666666666666667
 40
0.1714285714285715
 40
0.1761904761904763
 40
0.180952380952381
 40
0.1857142857142858
 40
0.1904761904761906
 40
0.1952380952380953
 40
0.2000000000000001
 40
0.2047619047619049
 40
0.2095238095238097
 40
0.2142857142857144
 40
0.2190476190476192
 40
0.223809523809524
 40
0.2285714285714288
 40
0.2333333333333335
 40
0.2380952380952383
 40
0.2428571428571431
 40
0.2476190476190478
 40
0.2523809523809526
 40
0.2571428571428573
 40
0.2619047619047621
 40
0.2666666666666668
 40
0.2714285714285716
 40
0.2761904761904763
 40
0.2809523809523811
 40
0.2857142857142858
 40
0.2904761904761906
 40
0.2952380952380953
 40
0.3
 40
0.3047619047619048
 40
0.3095238095238095
 40
0.3142857142857143
 40
0.319047619047619
 40
0.3238095238095238
 40
0.3285714285714285
 40
0.3333333333333333
 40
0.338095238095238
 40
0.3428571428571427
 40
0.3476190476190475
 40
0.3523809523809522
 40
0.357142857142857
 40
0.3619047619047617
 40
0.3666666666666665
 40
0.3714285714285712
 40
0.376190476190476
 40
0.3809523809523807
 40
0.3857142857142855
 40
0.3904761904761902
 40
0.3952380952380949
 40
0.3999999999999997
 40
0.4047619047619044
 40
0.4095238095238092
 40
0.4142857142857139
 40
0.4190476190476187
 40
0.4238095238095234
 40
0.4285714285714282
 40
0.4333333333333329
 40
0.4380952380952376
 40
0.4428571428571424
 40
0.4476190476190471
 40
0.4523809523809519
 40
0.4571428571428566
 40
0.4619047619047614
 40
0.4666666666666661
 40
0.4714285714285709
 40
0.4761904761904756
 40
0.4809523809523804
 40
0.4857142857142851
 40
0.4904761904761898
 40
0.4952380952380946
 40
0.5
 40
0.5
 40
0.5
 40
1.0
 40
1.0
 40
1.0
 40
1.0
 10
60.0
 20
33.77710747874241
 30
0.0
 10
59.7237871046363
 20
33.57138179914512
 30
0.0
 10
59.60035169687796
 20
33.40680125546729
 30
0.0
 10
59.46663000513971
 20
33.3450835515881
 30
0.0
 10
59.29176317748201
 20
33.33479726760824
 30
0.0
 10
58.93174323818678
 20
33.58166808312499
 30
0.0
 10
58.46886045909287
 20
33.9828331583397
 30
0.0
 10
58.21170335959627
 20
34.40457080151414
 30
0.0
 10
58.16027193969691
 20
34.6205827650913
 30
0.0
 10
58.20141707561638
 20
34.80573587672885
 30
0.0
 10
58.23227592755597
 20
34.97031642040669
 30
0.0
 10
58.02655024795868
 20
35.15546953204424
 30
0.0
 10
57.71796172856276
 20
35.61835231113815
 30
0.0
 10
57.54309490090506
 20
36.07094880625218
 30
0.0
 10
57.53280861692517
 20
36.40010989360784
 30
0.0
 10
57.61509888876409
 20
36.73955726494337
 30
0.0
 10
57.67681659264329
 20
36.8732789566816
 30
0.0
 10
57.64595774070369
 20
36.94528294454066
 30
0.0
 10
57.4402320611064
 20
37.01728693239971
 30
0.0
 10
57.15221610967018
 20
37.10986348821849
 30
0.0
 10
56.90534529415348
 20
37.02757321637957
 30
0.0
 10
56.61732934271726
 20
36.62640814116486
 30
0.0
 10
56.40131737914012
 20
36.31781962176893
 30
0.0
 10
56.27788197138173
 20
35.84465055869516
 30
0.0
 10
56.19559169954283
 20
35.56692089123882
 30
0.0
 10
55.61955979667042
 20
35.36119521164154
 30
0.0
 10
55.62984608065025
 20
35.04232040826574
 30
0.0
 10
55.58870094473079
 20
34.6205827650913
 30
0.0
 10
55.57841466075095
 20
34.37371194957455
 30
0.0
 10
55.26982614135503
 20
34.29142167773563
 30
0.0
 10
54.62179025062355
 20
34.38399823355441
 30
0.0
 10
54.39549200306655
 20
34.43542965345374
 30
0.0
 10
54.28234287928802
 20
34.38399823355441
 30
0.0
 10
54.13833490356993
 20
34.1576999859974
 30
0.0
 10
53.9428955079525
 20
34.11655485007794
 30
0.0
 10
53.59316185263711
 20
34.17827255395713
 30
0.0
 10
53.33600475314051
 20
34.2399902578363
 30
0.0
 10
53.19199677742239
 20
34.20913140589671
 30
0.0
 10
53.14056535752306
 20
34.03426457823902
 30
0.0
 10
53.18171049344252
 20
33.96226059037997
 30
0.0
 10
53.49029901283848
 20
33.86968403456119
 30
0.0
 10
53.61373442059681
 20
33.79768004670213
 30
0.0
 10
53.65487955651628
 20
33.6948172069035
 30
0.0
 10
53.48001272885858
 20
33.44794639138675
 30
0.0
 10
53.14056535752306
 20
33.26279327974919
 30
0.0
 10
53.03770251772443
 20
33.10849902005122
 30
0.0
 10
53.19199677742239
 20
32.78962421667543
 30
0.0
 10
53.48001272885858
 20
32.58389853707813
 30
0.0
 10
53.71659726039547
 20
32.51189454921908
 30
0.0
 10
54.03547206377127
 20
32.57361225309827
 30
0.0
 10
54.17948003948939
 20
32.64561624095732
 30
0.0
 10
54.20005260744909
 20
32.7381927967761
 30
0.0
 10
54.0251857797914
 20
32.82048306861502
 30
0.0
 10
53.85031895213373
 20
32.84105563657475
 30
0.0
 10
53.75774239631494
 20
32.91305962443379
 30
0.0
 10
53.86060523611357
 20
32.99534989627271
 30
0.0
 10
54.01489949581156
 20
33.0570676001519
 30
0.0
 10
54.12804861959006
 20
33.11878530403109
 30
0.0
 10
54.17948003948939
 20
33.21136185984987
 30
0.0
 10
54.10747605163033
 20
33.24222071178946
 30
0.0
 10
53.9943269278518
 20
33.25250699576933
 30
0.0
 10
53.86060523611357
 20
33.25250699576933
 30
0.0
 10
53.95318179193239
 20
33.39651497148743
 30
0.0
 10
54.13833490356993
 20
33.49937781128607
 30
0.0
 10
54.37491943510679
 20
33.58166808312499
 30
0.0
 10
54.54978626276451
 20
33.45823267536661
 30
0.0
 10
54.78637079430138
 20
33.27307956372906
 30
0.0
 10
54.9818101899188
 20
33.18050300791027
 30
0.0
 10
55.16696330155636
 20
33.18050300791027
 30
0.0
 10
55.26982614135503
 20
33.14964415597068
 30
0.0
 10
55.45497925299256
 20
32.99534989627271
 30
0.0
 10
55.43440668503285
 20
32.7381927967761
 30
0.0
 10
55.62984608065025
 20
32.17244717788356
 30
0.0
 10
55.66070493258985
 20
31.89471751042722
 30
0.0
 10
55.65041864861001
 20
31.57584270705141
 30
0.0
 10
55.46526553697242
 20
31.32897189153467
 30
0.0
 10
55.41383411707312
 20
31.21582276775617
 30
0.0
 10
55.47555182095232
 20
30.8866616804005
 30
0.0
 10
55.51669695687178
 20
30.71179485274281
 30
0.0
 10
55.70185006850932
 20
30.63979086488376
 30
0.0
 10
56.2367368354623
 20
30.49578288916565
 30
0.0
 10
56.81276873833465
 20
30.34148862946768
 30
0.0
 10
57.08021212181117
 20
30.19748065374959
 30
0.0
 10
57.27565151742857
 20
30.35177491344755
 30
0.0
 10
57.4402320611064
 20
30.5986457289643
 30
0.0
 10
57.54309490090506
 20
30.76322627264213
 30
0.0
 10
57.90311484020029
 20
30.72208113672266
 30
0.0
 10
58.12941308775734
 20
30.52664174110525
 30
0.0
 10
58.36599761929421
 20
30.34148862946768
 30
0.0
 10
58.73630384256933
 20
30.51635545712539
 30
0.0
 10
58.97288837410622
 20
30.7426537046824
 30
0.0
 10
59.06546492992501
 20
30.8866616804005
 30
0.0
 10
59.16832776972362
 20
30.89694796438037
 30
0.0
 10
59.26090432554241
 20
30.69122228478307
 30
0.0
 10
59.43577115320014
 20
30.50606917314552
 30
0.0
 10
59.672355684737
 20
30.50606917314552
 30
0.0
 10
60.0
 20
30.69122228478307
 30
0.0
 10
60.0
 20
30.68093600080322
 30
0.0
 10
60.0
 20
30.84551654448105
 30
0.0
 10
60.0
 20
31.27754047163536
 30
0.0
 10
60.0
 20
31.76099581868899
 30
0.0
 10
60.0
 20
32.30616886962181
 30
0.0
 10
60.0
 20
33.09821273607137
 30
0.0
 10
60.0
 20
33.45823267536662
 30
0.0
 10
60.0
 20
33.67424463894378
 30
0.0
 10
59.99999999999994
 20
33.75864491775294
 30
0.0
 10
59.99999999999994
 20
33.76673379441152
 30
0.0
 10
59.99999999999994
 20
33.77478322115348
 30
0.0
 10
59.99999999999994
 20
33.77555797368312
 30
0.0
 10
60.0
 20
33.77633272621276
 30
0.0
 10
60.0
 20
33.77710747874241
 30
0.0
  0
TEXT
  5
366
330
12A8
100
AcDbEntity
  8
FEATURE_NUMBERS
 62
   250
100
AcDbText
 10
55.313313
 20
27.465834
 30
0.0
 40
2.0
  1
F05
  7
STYLE-GARAMOND
 11
55.313313
 21
29.465834
 31
0.0
100
AcDbText
 73
     3
  0
HATCH
  5
12CD
330
12A8
100
AcDbEntity
  8
FEATURES
 62
    12
100
AcDbHatch
 10
0.0
 20
0.0
 30
0.0
210
0.0
220
0.0
230
1.0
  2
SOLID
 70
     1
 71
     1
 91
        1
 92
        1
 93
        1
 72
     4
 94
        3
 73
     0
 74
     0
 95
       30
 96
       26
 40
0.0
 40
0.0
 40
0.0
 40
0.0
 40
0.1016446212581664
 40
0.1603128358776712
 40
0.1837500196219436
 40
0.2008177761185069
 40
0.230543889599174
 40
0.2914200079978046
 40
0.3374512617118573
 40
0.3771466286335775
 40
0.4426424929141202
 40
0.472930336549696
 40
0.4891399806457774
 40
0.5231707653822015
 40
0.5904130541864865
 40
0.6307894793079754
 40
0.6484342235017148
 40
0.6906333740275734
 40
0.7092141961544639
 40
0.7359366970932282
 40
0.8029011972813191
 40
0.8788633231021802
 40
0.9478293808894266
 40
0.9661035055787891
 40
1.0
 40
1.0
 40
1.0
 40
1.0
 10
0.9046877207827038
 20
0.7826858860449946
 10
0.8841186010615445
 20
0.782007682926249
 10
0.8541678776448407
 20
0.7749567957911889
 10
0.821594759882089
 20
0.7709134637708921
 10
0.7988683290976439
 20
0.770519658103602
 10
0.7967154759176651
 20
0.7550536259067684
 10
0.8009178072755105
 20
0.7354242042274723
 10
0.8118359121665435
 20
0.7112919468191006
 10
0.8209409577718532
 20
0.6840330694763512
 10
0.8431399802819328
 20
0.6644566637128797
 10
0.8604228098190561
 20
0.6450394793180951
 10
0.876734394939632
 20
0.6313291943693446
 10
0.8885140039546684
 20
0.6206072502158442
 10
0.912978583826316
 20
0.6223654555997804
 10
0.9381458753533991
 20
0.6224477129894179
 10
0.9648779029239165
 20
0.6202563806348991
 10
0.9782836440550966
 20
0.6351424143472872
 10
0.9876568104248236
 20
0.6460313394507118
 10
1.002188418755054
 20
0.6568827085909668
 10
0.9978676701811651
 20
0.6810176583013252
 10
0.9825395001795414
 20
0.7081430202902581
 10
0.9618784648158112
 20
0.7444608095071406
 10
0.938144030607674
 20
0.7644899763018742
 10
0.9223748276055517
 20
0.7826110407387823
 10
0.9115471201611172
 20
0.7829120535287863
 10
0.9046877207827038
 20
0.7826858860449946
 97
        1
330
377
 75
     0
 76
     1
 98
        1
 10
0.0
 20
0.0
  0
SPLINE
  5
377
102
{ACAD_REACTORS
330
12CD
102
}
330
12A8
100
AcDbEntity
  8
FEATURES
 62
    14
100
AcDbSpline
210
0.0
220
0.0
230
1.0
 70
    11
 71
     3
 72
    30
 73
    26
 74
     0
 42
0.0000000001
 43
0.00000001
 40
0.0
 40
0.0
 40
0.0
 40
0.0
 40
0.1016446212581664
 40
0.1603128358776712
 40
0.1837500196219436
 40
0.2008177761185069
 40
0.230543889599174
 40
0.2914200079978046
 40
0.3374512617118573
 40
0.3771466286335775
 40
0.4426424929141202
 40
0.472930336549696
 40
0.4891399806457774
 40
0.5231707653822015
 40
0.5904130541864865
 40
0.6307894793079754
 40
0.6484342235017148
 40
0.6906333740275734
 40
0.7092141961544639
 40
0.7359366970932282
 40
0.8029011972813191
 40
0.8788633231021802
 40
0.9478293808894266
 40
0.9661035055787891
 40
1.0
 40
1.0
 40
1.0
 40
1.0
 10
0.9046877207827038
 20
0.7826858860449946
 30
0.0
 10
0.8841186010615445
 20
0.782007682926249
 30
0.0
 10
0.8541678776448407
 20
0.7749567957911889
 30
0.0
 10
0.821594759882089
 20
0.7709134637708921
 30
0.0
 10
0.7988683290976439
 20
0.770519658103602
 30
0.0
 10
0.7967154759176651
 20
0.7550536259067684
 30
0.0
 10
0.8009178072755105
 20
0.7354242042274723
 30
0.0
 10
0.8118359121665435
 20
0.7112919468191006
 30
0.0
 10
0.8209409577718532
 20
0.6840330694763512
 30
0.0
 10
0.8431399802819328
 20
0.6644566637128797
 30
0.0
 10
0.8604228098190561
 20
0.6450394793180951
 30
0.0
 10
0.876734394939632
 20
0.6313291943693446
 30
0.0
 10
0.8885140039546684
 20
0.6206072502158442
 30
0.0
 10
0.912978583826316
 20
0.6223654555997804
 30
0.0
 10
0.9381458753533991
 20
0.6224477129894179
 30
0.0
 10
0.9648779029239165
 20
0.6202563806348991
 30
0.0
 10
0.9782836440550966
 20
0.6351424143472872
 30
0.0
 10
0.9876568104248236
 20
0.6460313394507118
 30
0.0
 10
1.002188418755054
 20
0.6568827085909668
 30
0.0
 10
0.9978676701811651
 20
0.6810176583013252
 30
0.0
 10
0.9825395001795414
 20
0.7081430202902581
 30
0.0
 10
0.9618784648158112
 20
0.7444608095071406
 30
0.0
 10
0.938144030607674
 20
0.7644899763018742
 30
0.0
 10
0.9223748276055517
 20
0.7826110407387823
 30
0.0
 10
0.9115471201611172
 20
0.7829120535287863
 30
0.0
 10
0.9046877207827038
 20
0.7826858860449946
 30
0.0
  0
HATCH
  5
12CE
330
12A8
100
AcDbEntity
  8
FEATURES
 62
    12
100
AcDbHatch
 10
0.0
 20
0.0
 30
0.0
210
0.0
220
0.0
230
1.0
  2
SOLID
 70
     1
 71
     1
 91
        1
 92
        1
 93
        1
 72
     4
 94
        3
 73
     0
 74
     0
 95
       47
 96
       43
 40
0.0
 40
0.0
 40
0.0
 40
0.0
 40
0.0377690580194493
 40
0.0799280750847501
 40
0.1000683132671455
 40
0.1319128259044537
 40
0.1688692136938668
 40
0.188579948050092
 40
0.2112116687730617
 40
0.2219576151271317
 40
0.2377412134529404
 40
0.2808407573919555
 40
0.3053117731786823
 40
0.3293964819013643
 40
0.3499087310081
 40
0.3590063742745834
 40
0.3685934152649357
 40
0.3936724845959614
 40
0.426976383085173
 40
0.4554033610034456
 40
0.4833457585669791
 40
0.5355078225082324
 40
0.5733884584901857
 40
0.606522960190876
 40
0.6477142920045847
 40
0.6686452015963954
 40
0.6858877390296647
 40
0.6967692007798896
 40
0.7045166998607985
 40
0.7239398457757823
 40
0.7322987564214423
 40
0.7384713578269324
 40
0.7483475200757087
 40
0.7719752092185301
 40
0.7966656148404775
 40
0.823209457165508
 40
0.8397368562255003
 40
0.8472461499342687
 40
0.8640548866321027
 40
0.9038919913615617
 40
0.9437805623903375
 40
1.0
 40
1.0
 40
1.0
 40
1.0
 10
1.311301863347381
 20
0.326733973576637
 10
1.292304484192016
 20
0.3222871420119677
 10
1.254590944283535
 20
0.3009101971527013
 10
1.205054811452186
 20
0.2852522534963917
 10
1.158529955675277
 20
0.2656033029728917
 10
1.110465852417235
 20
0.2761649676685973
 10
1.0658139119179
 20
0.2601511375170436
 10
1.025715902701052
 20
0.247832704617986
 10
1.000068694700019
 20
0.2406594645736018
 10
0.9733385185026862
 20
0.229607961514418
 10
0.9794041750331814
 20
0.1867772586866163
 10
0.9902054066350843
 20
0.14798505376036
 10
1.006472518466097
 20
0.1021623022457447
 10
1.014638472644094
 20
0.0659194237781673
 10
1.022905495163968
 20
0.0415266447058507
 10
1.026068216350467
 20
0.0163143887258546
 10
1.05381058234758
 20
0.0230774996416159
 10
1.086694000035067
 20
0.0202396237127296
 10
1.130931795416103
 20
0.0393259792453975
 10
1.178181536710525
 20
0.0415569747887954
 10
1.231959457120695
 20
0.0619908901476176
 10
1.291967726714006
 20
0.0773564110155931
 10
1.355416713908284
 20
0.0902933004763593
 10
1.412425204578739
 20
0.1055019147950205
 10
1.461614330142623
 20
0.1146241212866865
 10
1.501223945876689
 20
0.1291129717818382
 10
1.527346560429038
 20
0.1285984907332143
 10
1.545435547205585
 20
0.1359503055437923
 10
1.559067395538307
 20
0.1511318435916564
 10
1.569203846205482
 20
0.1651131894142832
 10
1.584725641497556
 20
0.1789829024806107
 10
1.578243900121038
 20
0.1919433118714711
 10
1.564102790032734
 20
0.2073940031948815
 10
1.570786270442511
 20
0.2411577200285038
 10
1.574019010321791
 20
0.2800243875343309
 10
1.565875221371442
 20
0.3131272220031658
 10
1.567421542662203
 20
0.3447526337929396
 10
1.545318929918523
 20
0.3531595144153421
 10
1.512111312976231
 20
0.3452526009703583
 10
1.460738083660715
 20
0.348305256435431
 10
1.392376163187464
 20
0.3232508182932303
 10
1.339579560175878
 20
0.3333531052897403
 10
1.311301863347381
 20
0.326733973576637
 97
        1
330
37A
 75
     0
 76
     1
 98
        1
 10
0.0
 20
0.0
  0
SPLINE
  5
37A
102
{ACAD_REACTORS
330
12CE
102
}
330
12A8
100
AcDbEntity
  8
FEATURES
 62
    14
100
AcDbSpline
210
0.0
220
0.0
230
1.0
 70
    11
 71
     3
 72
    47
 73
    43
 74
     0
 42
0.0000000001
 43
0.00000001
 40
0.0
 40
0.0
 40
0.0
 40
0.0
 40
0.0377690580194493
 40
0.0799280750847501
 40
0.1000683132671455
 40
0.1319128259044537
 40
0.1688692136938668
 40
0.188579948050092
 40
0.2112116687730617
 40
0.2219576151271317
 40
0.2377412134529404
 40
0.2808407573919555
 40
0.3053117731786823
 40
0.3293964819013643
 40
0.3499087310081
 40
0.3590063742745834
 40
0.3685934152649357
 40
0.3936724845959614
 40
0.426976383085173
 40
0.4554033610034456
 40
0.4833457585669791
 40
0.5355078225082324
 40
0.5733884584901857
 40
0.606522960190876
 40
0.6477142920045847
 40
0.6686452015963954
 40
0.6858877390296647
 40
0.6967692007798896
 40
0.7045166998607985
 40
0.7239398457757823
 40
0.7322987564214423
 40
0.7384713578269324
 40
0.7483475200757087
 40
0.7719752092185301
 40
0.7966656148404775
 40
0.823209457165508
 40
0.8397368562255003
 40
0.8472461499342687
 40
0.8640548866321027
 40
0.9038919913615617
 40
0.9437805623903375
 40
1.0
 40
1.0
 40
1.0
 40
1.0
 10
1.311301863347381
 20
0.326733973576637
 30
0.0
 10
1.292304484192016
 20
0.3222871420119677
 30
0.0
 10
1.254590944283535
 20
0.3009101971527013
 30
0.0
 10
1.205054811452186
 20
0.2852522534963917
 30
0.0
 10
1.158529955675277
 20
0.2656033029728917
 30
0.0
 10
1.110465852417235
 20
0.2761649676685973
 30
0.0
 10
1.0658139119179
 20
0.2601511375170436
 30
0.0
 10
1.025715902701052
 20
0.247832704617986
 30
0.0
 10
1.000068694700019
 20
0.2406594645736018
 30
0.0
 10
0.9733385185026862
 20
0.229607961514418
 30
0.0
 10
0.9794041750331814
 20
0.1867772586866163
 30
0.0
 10
0.9902054066350843
 20
0.14798505376036
 30
0.0
 10
1.006472518466097
 20
0.1021623022457447
 30
0.0
 10
1.014638472644094
 20
0.0659194237781673
 30
0.0
 10
1.022905495163968
 20
0.0415266447058507
 30
0.0
 10
1.026068216350467
 20
0.0163143887258546
 30
0.0
 10
1.05381058234758
 20
0.0230774996416159
 30
0.0
 10
1.086694000035067
 20
0.0202396237127296
 30
0.0
 10
1.130931795416103
 20
0.0393259792453975
 30
0.0
 10
1.178181536710525
 20
0.0415569747887954
 30
0.0
 10
1.231959457120695
 20
0.0619908901476176
 30
0.0
 10
1.291967726714006
 20
0.0773564110155931
 30
0.0
 10
1.355416713908284
 20
0.0902933004763593
 30
0.0
 10
1.412425204578739
 20
0.1055019147950205
 30
0.0
 10
1.461614330142623
 20
0.1146241212866865
 30
0.0
 10
1.501223945876689
 20
0.1291129717818382
 30
0.0
 10
1.527346560429038
 20
0.1285984907332143
 30
0.0
 10
1.545435547205585
 20
0.1359503055437923
 30
0.0
 10
1.559067395538307
 20
0.1511318435916564
 30
0.0
 10
1.569203846205482
 20
0.1651131894142832
 30
0.0
 10
1.584725641497556
 20
0.1789829024806107
 30
0.0
 10
1.578243900121038
 20
0.1919433118714711
 30
0.0
 10
1.564102790032734
 20
0.2073940031948815
 30
0.0
 10
1.570786270442511
 20
0.2411577200285038
 30
0.0
 10
1.574019010321791
 20
0.2800243875343309
 30
0.0
 10
1.565875221371442
 20
0.3131272220031658
 30
0.0
 10
1.567421542662203
 20
0.3447526337929396
 30
0.0
 10
1.545318929918523
 20
0.3531595144153421
 30
0.0
 10
1.512111312976231
 20
0.3452526009703583
 30
0.0
 10
1.460738083660715
 20
0.348305256435431
 30
0.0
 10
1.392376163187464
 20
0.3232508182932303
 30
0.0
 10
1.339579560175878
 20
0.3333531052897403
 30
0.0
 10
1.311301863347381
 20
0.326733973576637
 30
0.0
  0
HATCH
  5
12CF
330
12A8
100
AcDbEntity
  8
FEATURES
 62
    12
100
AcDbHatch
 10
0.0
 20
0.0
 30
0.0
210
0.0
220
0.0
230
1.0
  2
SOLID
 70
     1
 71
     1
 91
        1
 92
        1
 93
        1
 72
     4
 94
        3
 73
     0
 74
     0
 95
       44
 96
       40
 40
0.0
 40
0.0
 40
0.0
 40
0.0
 40
0.0866795865038616
 40
0.1681529662691077
 40
0.232527163994338
 40
0.3187576742323657
 40
0.337511881478029
 40
0.3492180864318511
 40
0.3685504930465373
 40
0.3859178080658549
 40
0.3933552175848195
 40
0.4066361055407715
 40
0.4242895177510757
 40
0.4400401630483358
 40
0.4621219989188281
 40
0.482838209332578
 40
0.50026252061624
 40
0.5102930135761538
 40
0.5211287896536522
 40
0.5454357323941731
 40
0.5719444102668472
 40
0.5968536051212789
 40
0.624825862518505
 40
0.6682423471938828
 40
0.6998379210502084
 40
0.7273512157006965
 40
0.7553551697170331
 40
0.7782400734026207
 40
0.785085601084403
 40
0.8131379630089715
 40
0.8384379467938682
 40
0.8647172791693739
 40
0.8899945640531225
 40
0.919781015578115
 40
0.9314336040442157
 40
0.9489534899153792
 40
0.9748185073356935
 40
0.9838179294171087
 40
1.0
 40
1.0
 40
1.0
 40
1.0
 10
2.563720864696478
 20
1.073693751569275
 10
2.514287328937854
 20
1.064517578753515
 10
2.444227691613037
 20
1.054967204482812
 10
2.32780311290395
 20
1.03730959453598
 10
2.217803943629548
 20
1.013944933545819
 10
2.13756789642494
 20
0.9928054124195871
 10
2.079929710488273
 20
0.9897086032782045
 10
2.058552252223791
 20
0.9737960901099054
 10
2.060974288525841
 20
0.9475753413860755
 10
2.055110210273966
 20
0.9272144750903006
 10
2.053682219489389
 20
0.9084303995146819
 10
2.060521485322511
 20
0.8901963558042656
 10
2.076110899111967
 20
0.873159193162035
 10
2.08604579350731
 20
0.8477993927598444
 10
2.09945739919101
 20
0.8218282182683598
 10
2.096488546519083
 20
0.7912524940983143
 10
2.103384770084432
 20
0.7694541857867172
 10
2.104646677956424
 20
0.7487000803328847
 10
2.128532720092693
 20
0.7409279176166859
 10
2.157430121673173
 20
0.7409423846989398
 10
2.194920297155107
 20
0.7412191795861158
 10
2.233068960581505
 20
0.7483433441372043
 10
2.278397803737136
 20
0.7609698731105503
 10
2.327899328689227
 20
0.7702257949078355
 10
2.375771829962872
 20
0.7851638820117053
 10
2.416684596687759
 20
0.7963645673904924
 10
2.45395646710773
 20
0.8067517328276868
 10
2.479245830400515
 20
0.8172356899891469
 10
2.508663509595522
 20
0.8241979227940384
 10
2.499958734949359
 20
0.8647224506847717
 10
2.505221730527467
 20
0.8994940696802196
 10
2.515406681559085
 20
0.9388477264511188
 10
2.551489858910884
 20
0.9599124407577975
 10
2.575832172168447
 20
0.9795842935100971
 10
2.600510492497648
 20
0.997685258218171
 10
2.598111665500937
 20
1.028054206525145
 10
2.594307115755015
 20
1.050522039801868
 10
2.588032952858725
 20
1.078303298343
 10
2.572949530834308
 20
1.075406836300923
 10
2.563720864696478
 20
1.073693751569275
 97
        1
330
37D
 75
     0
 76
     1
 98
        1
 10
0.0
 20
0.0
  0
SPLINE
  5
37D
102
{ACAD_REACTORS
330
12CF
102
}
330
12A8
100
AcDbEntity
  8
FEATURES
 62
    14
100
AcDbSpline
210
0.0
220
0.0
230
1.0
 70
    11
 71
     3
 72
    44
 73
    40
 74
     0
 42
0.0000000001
 43
0.00000001
 40
0.0
 40
0.0
 40
0.0
 40
0.0
 40
0.0866795865038616
 40
0.1681529662691077
 40
0.232527163994338
 40
0.3187576742323657
 40
0.337511881478029
 40
0.3492180864318511
 40
0.3685504930465373
 40
0.3859178080658549
 40
0.3933552175848195
 40
0.4066361055407715
 40
0.4242895177510757
 40
0.4400401630483358
 40
0.4621219989188281
 40
0.482838209332578
 40
0.50026252061624
 40
0.5102930135761538
 40
0.5211287896536522
 40
0.5454357323941731
 40
0.5719444102668472
 40
0.5968536051212789
 40
0.624825862518505
 40
0.6682423471938828
 40
0.6998379210502084
 40
0.7273512157006965
 40
0.7553551697170331
 40
0.7782400734026207
 40
0.785085601084403
 40
0.8131379630089715
 40
0.8384379467938682
 40
0.8647172791693739
 40
0.8899945640531225
 40
0.919781015578115
 40
0.9314336040442157
 40
0.9489534899153792
 40
0.9748185073356935
 40
0.9838179294171087
 40
1.0
 40
1.0
 40
1.0
 40
1.0
 10
2.563720864696478
 20
1.073693751569275
 30
0.0
 10
2.514287328937854
 20
1.064517578753515
 30
0.0
 10
2.444227691613037
 20
1.054967204482812
 30
0.0
 10
2.32780311290395
 20
1.03730959453598
 30
0.0
 10
2.217803943629548
 20
1.013944933545819
 30
0.0
 10
2.13756789642494
 20
0.9928054124195871
 30
0.0
 10
2.079929710488273
 20
0.9897086032782045
 30
0.0
 10
2.058552252223791
 20
0.9737960901099054
 30
0.0
 10
2.060974288525841
 20
0.9475753413860755
 30
0.0
 10
2.055110210273966
 20
0.9272144750903006
 30
0.0
 10
2.053682219489389
 20
0.9084303995146819
 30
0.0
 10
2.060521485322511
 20
0.8901963558042656
 30
0.0
 10
2.076110899111967
 20
0.873159193162035
 30
0.0
 10
2.08604579350731
 20
0.8477993927598444
 30
0.0
 10
2.09945739919101
 20
0.8218282182683598
 30
0.0
 10
2.096488546519083
 20
0.7912524940983143
 30
0.0
 10
2.103384770084432
 20
0.7694541857867172
 30
0.0
 10
2.104646677956424
 20
0.7487000803328847
 30
0.0
 10
2.128532720092693
 20
0.7409279176166859
 30
0.0
 10
2.157430121673173
 20
0.7409423846989398
 30
0.0
 10
2.194920297155107
 20
0.7412191795861158
 30
0.0
 10
2.233068960581505
 20
0.7483433441372043
 30
0.0
 10
2.278397803737136
 20
0.7609698731105503
 30
0.0
 10
2.327899328689227
 20
0.7702257949078355
 30
0.0
 10
2.375771829962872
 20
0.7851638820117053
 30
0.0
 10
2.416684596687759
 20
0.7963645673904924
 30
0.0
 10
2.45395646710773
 20
0.8067517328276868
 30
0.0
 10
2.479245830400515
 20
0.8172356899891469
 30
0.0
 10
2.508663509595522
 20
0.8241979227940384
 30
0.0
 10
2.499958734949359
 20
0.8647224506847717
 30
0.0
 10
2.505221730527467
 20
0.8994940696802196
 30
0.0
 10
2.515406681559085
 20
0.9388477264511188
 30
0.0
 10
2.551489858910884
 20
0.9599124407577975
 30
0.0
 10
2.575832172168447
 20
0.9795842935100971
 30
0.0
 10
2.600510492497648
 20
0.997685258218171
 30
0.0
 10
2.598111665500937
 20
1.028054206525145
 30
0.0
 10
2.594307115755015
 20
1.050522039801868
 30
0.0
 10
2.588032952858725
 20
1.078303298343
 30
0.0
 10
2.572949530834308
 20
1.075406836300923
 30
0.0
 10
2.563720864696478
 20
1.073693751569275
 30
0.0
  0
HATCH
  5
12D0
330
12A8
100
AcDbEntity
  8
FEATURES
 62
    12
100
AcDbHatch
 10
0.0
 20
0.0
 30
0.0
210
0.0
220
0.0
230
1.0
  2
SOLID
 70
     1
 71
     1
 91
        1
 92
        1
 93
        1
 72
     4
 94
        3
 73
     0
 74
     0
 95
       50
 96
       46
 40
0.0
 40
0.0
 40
0.0
 40
0.0
 40
0.0630981484032776
 40
0.1271986314465054
 40
0.18097990456361
 40
0.1957855996638428
 40
0.2060212637709622
 40
0.2162569278780828
 40
0.2312465517087926
 40
0.2427430683829392
 40
0.2685158120666314
 40
0.300120397317366
 40
0.3172855409985318
 40
0.3345816468025172
 40
0.3582993189155881
 40
0.3735606801053269
 40
0.3867667313366208
 40
0.3982632480107622
 40
0.4144472539822348
 40
0.439727479460929
 40
0.4537733951185501
 40
0.4658176684301145
 40
0.4833773579364137
 40
0.4926461459998719
 40
0.5087502797701665
 40
0.5385569835660019
 40
0.5666746227243707
 40
0.6076979040436744
 40
0.6443181292250647
 40
0.6717421869617535
 40
0.6883780177749016
 40
0.6978956190143283
 40
0.7140796249857915
 40
0.7322172679942217
 40
0.7450644928598913
 40
0.7608093061557913
 40
0.7923602961573798
 40
0.8421303399953413
 40
0.8731922175651868
 40
0.9095163472477383
 40
0.9335680637690095
 40
0.9554843760201135
 40
0.9801351195046399
 40
0.9896780897839182
 40
1.0
 40
1.0
 40
1.0
 40
1.0
 10
2.98566750559695
 20
1.183080882967024
 10
2.942204302282079
 20
1.183685858372034
 10
2.873624827255213
 20
1.161120962381005
 10
2.75371022306058
 20
1.14306812809553
 10
2.693654349828847
 20
1.116068767598481
 10
2.621858981827188
 20
1.117683277973374
 10
2.638883468957232
 20
1.093628747093703
 10
2.650440810384112
 20
1.075553168577208
 10
2.639221774592585
 20
1.051658556900092
 10
2.650316712173947
 20
1.020527310507594
 10
2.659644950537739
 20
0.9791086526529771
 10
2.689341346237597
 20
0.9406815420638033
 10
2.69021419008584
 20
0.8986465691868784
 10
2.711036035837793
 20
0.8668998496039642
 10
2.702864636249103
 20
0.8310123567728045
 10
2.699621200874162
 20
0.7984546283310952
 10
2.709825385664402
 20
0.7752975990092121
 10
2.720359976579232
 20
0.7525081035530281
 10
2.734644180871726
 20
0.7228808715869022
 10
2.740193125662813
 20
0.688336314257775
 10
2.764853753717148
 20
0.6636816541377186
 10
2.757382753613484
 20
0.6347024629033058
 10
2.771066123577555
 20
0.6139473141027931
 10
2.759507601357598
 20
0.5815952117364276
 10
2.809973931616724
 20
0.591048573368786
 10
2.84735557900953
 20
0.5898873172852532
 10
2.910205243349424
 20
0.6028479265543663
 10
2.973260543709927
 20
0.6156328109916593
 10
3.036416159337875
 20
0.6307921118927489
 10
3.083162219309088
 20
0.6517430187203495
 10
3.11563606337856
 20
0.6519111622869254
 10
3.143035433208013
 20
0.6628376349784464
 10
3.137747948827126
 20
0.6953138010801876
 10
3.14289426335796
 20
0.7223682960858078
 10
3.144657947385099
 20
0.7521677071420569
 10
3.127811913683047
 20
0.7861566668094877
 10
3.115415729186083
 20
0.845010904298169
 10
3.104823784680747
 20
0.9135409284979428
 10
3.088876989038454
 20
0.9844518498464208
 10
3.063931172760078
 20
1.035746181317073
 10
3.056466507188816
 20
1.086680926668084
 10
3.03393066464983
 20
1.125138902470892
 10
3.011909199636563
 20
1.151034772723657
 10
3.006947095830157
 20
1.182183825212183
 10
2.992777433442257
 20
1.182981918069139
 10
2.98566750559695
 20
1.183080882967024
 97
        1
330
380
 75
     0
 76
     1
 98
        1
 10
0.0
 20
0.0
  0
SPLINE
  5
380
102
{ACAD_REACTORS
330
12D0
102
}
330
12A8
100
AcDbEntity
  8
FEATURES
 62
    14
100
AcDbSpline
210
0.0
220
0.0
230
1.0
 70
    11
 71
     3
 72
    50
 73
    46
 74
     0
 42
0.0000000001
 43
0.00000001
 40
0.0
 40
0.0
 40
0.0
 40
0.0
 40
0.0630981484032776
 40
0.1271986314465054
 40
0.18097990456361
 40
0.1957855996638428
 40
0.2060212637709622
 40
0.2162569278780828
 40
0.2312465517087926
 40
0.2427430683829392
 40
0.2685158120666314
 40
0.300120397317366
 40
0.3172855409985318
 40
0.3345816468025172
 40
0.3582993189155881
 40
0.3735606801053269
 40
0.3867667313366208
 40
0.3982632480107622
 40
0.4144472539822348
 40
0.439727479460929
 40
0.4537733951185501
 40
0.4658176684301145
 40
0.4833773579364137
 40
0.4926461459998719
 40
0.5087502797701665
 40
0.5385569835660019
 40
0.5666746227243707
 40
0.6076979040436744
 40
0.6443181292250647
 40
0.6717421869617535
 40
0.6883780177749016
 40
0.6978956190143283
 40
0.7140796249857915
 40
0.7322172679942217
 40
0.7450644928598913
 40
0.7608093061557913
 40
0.7923602961573798
 40
0.8421303399953413
 40
0.8731922175651868
 40
0.9095163472477383
 40
0.9335680637690095
 40
0.9554843760201135
 40
0.9801351195046399
 40
0.9896780897839182
 40
1.0
 40
1.0
 40
1.0
 40
1.0
 10
2.98566750559695
 20
1.183080882967024
 30
0.0
 10
2.942204302282079
 20
1.183685858372034
 30
0.0
 10
2.873624827255213
 20
1.161120962381005
 30
0.0
 10
2.75371022306058
 20
1.14306812809553
 30
0.0
 10
2.693654349828847
 20
1.116068767598481
 30
0.0
 10
2.621858981827188
 20
1.117683277973374
 30
0.0
 10
2.638883468957232
 20
1.093628747093703
 30
0.0
 10
2.650440810384112
 20
1.075553168577208
 30
0.0
 10
2.639221774592585
 20
1.051658556900092
 30
0.0
 10
2.650316712173947
 20
1.020527310507594
 30
0.0
 10
2.659644950537739
 20
0.9791086526529771
 30
0.0
 10
2.689341346237597
 20
0.9406815420638033
 30
0.0
 10
2.69021419008584
 20
0.8986465691868784
 30
0.0
 10
2.711036035837793
 20
0.8668998496039642
 30
0.0
 10
2.702864636249103
 20
0.8310123567728045
 30
0.0
 10
2.699621200874162
 20
0.7984546283310952
 30
0.0
 10
2.709825385664402
 20
0.7752975990092121
 30
0.0
 10
2.720359976579232
 20
0.7525081035530281
 30
0.0
 10
2.734644180871726
 20
0.7228808715869022
 30
0.0
 10
2.740193125662813
 20
0.688336314257775
 30
0.0
 10
2.764853753717148
 20
0.6636816541377186
 30
0.0
 10
2.757382753613484
 20
0.6347024629033058
 30
0.0
 10
2.771066123577555
 20
0.6139473141027931
 30
0.0
 10
2.759507601357598
 20
0.5815952117364276
 30
0.0
 10
2.809973931616724
 20
0.591048573368786
 30
0.0
 10
2.84735557900953
 20
0.5898873172852532
 30
0.0
 10
2.910205243349424
 20
0.6028479265543663
 30
0.0
 10
2.973260543709927
 20
0.6156328109916593
 30
0.0
 10
3.036416159337875
 20
0.6307921118927489
 30
0.0
 10
3.083162219309088
 20
0.6517430187203495
 30
0.0
 10
3.11563606337856
 20
0.6519111622869254
 30
0.0
 10
3.143035433208013
 20
0.6628376349784464
 30
0.0
 10
3.137747948827126
 20
0.6953138010801876
 30
0.0
 10
3.14289426335796
 20
0.7223682960858078
 30
0.0
 10
3.144657947385099
 20
0.7521677071420569
 30
0.0
 10
3.127811913683047
 20
0.7861566668094877
 30
0.0
 10
3.115415729186083
 20
0.845010904298169
 30
0.0
 10
3.104823784680747
 20
0.9135409284979428
 30
0.0
 10
3.088876989038454
 20
0.9844518498464208
 30
0.0
 10
3.063931172760078
 20
1.035746181317073
 30
0.0
 10
3.056466507188816
 20
1.086680926668084
 30
0.0
 10
3.03393066464983
 20
1.125138902470892
 30
0.0
 10
3.011909199636563
 20
1.151034772723657
 30
0.0
 10
3.006947095830157
 20
1.182183825212183
 30
0.0
 10
2.992777433442257
 20
1.182981918069139
 30
0.0
 10
2.98566750559695
 20
1.183080882967024
 30
0.0
  0
HATCH
  5
12D1
330
12A8
100
AcDbEntity
  8
FEATURES
 62
    12
100
AcDbHatch
 10
0.0
 20
0.0
 30
0.0
210
0.0
220
0.0
230
1.0
  2
SOLID
 70
     1
 71
     1
 91
        1
 92
        1
 93
        1
 72
     4
 94
        3
 73
     0
 74
     0
 95
       49
 96
       45
 40
0.0
 40
0.0
 40
0.0
 40
0.0
 40
0.047459104838906
 40
0.0947609877604978
 40
0.1450088504870009
 40
0.2058441366179888
 40
0.2422234421558577
 40
0.2832521086272339
 40
0.2958274632695925
 40
0.3081432069567271
 40
0.3246719418348525
 40
0.3366027230308873
 40
0.3449588895919434
 40
0.3692417573279124
 40
0.3845937463242287
 40
0.39636549381089
 40
0.4150264181644215
 40
0.4317441207109595
 40
0.4484349588619495
 40
0.4634619699876619
 40
0.4814169718109459
 40
0.4996152572505848
 40
0.5193968170934847
 40
0.5347429588265867
 40
0.5753118627049626
 40
0.5880854896680064
 40
0.6205788627817411
 40
0.6408533569889826
 40
0.6647149193810518
 40
0.6896506001317436
 40
0.7255656020389865
 40
0.7487596023618049
 40
0.7659641245309646
 40
0.7791593906845595
 40
0.7834172663389222
 40
0.8012971318227134
 40
0.8263082828469702
 40
0.8544754662819383
 40
0.8987408314097418
 40
0.9125346725498287
 40
0.9389047919116014
 40
0.9597683396003408
 40
0.9844216795479195
 40
1.0
 40
1.0
 40
1.0
 40
1.0
 10
3.551331896346909
 20
1.294725170615044
 10
3.527862362676359
 20
1.308306048474664
 10
3.466052156726988
 20
1.288248290923432
 10
3.383797564422593
 20
1.288190183058218
 10
3.293164263429617
 20
1.261290411262719
 10
3.212267456363094
 20
1.233857683318877
 10
3.132581086451864
 20
1.213251788833944
 10
3.084681487755176
 20
1.201926009228538
 10
3.043840480217085
 20
1.185023819831427
 10
3.047572674733999
 20
1.157318205565467
 10
3.047421315403142
 20
1.134818494955898
 10
3.047437153911176
 20
1.112368103944892
 10
3.061673713540074
 20
1.089610022436865
 10
3.088970246524212
 20
1.076069399454855
 10
3.098618386708637
 20
1.046548492525096
 10
3.116395150876258
 20
1.024965458289049
 10
3.111228855731127
 20
0.9955952062725597
 10
3.115712468036918
 20
0.9652208794666457
 10
3.129685320597531
 20
0.9401013574286967
 10
3.139214672580096
 20
0.9127202788287256
 10
3.151570123123435
 20
0.88492707989883
 10
3.151907259059612
 20
0.8517874972799184
 10
3.177995681040528
 20
0.8240619365614048
 10
3.223533009738816
 20
0.8376048674913061
 10
3.262444234571234
 20
0.8405259435453569
 10
3.313099835802376
 20
0.8434567728552533
 10
3.347894134232547
 20
0.8620376505409997
 10
3.387474935393328
 20
0.8828624440757888
 10
3.426683831553731
 20
0.894286572073371
 10
3.476340707417307
 20
0.89883629986549
 10
3.521942897532909
 20
0.9198170613133527
 10
3.566504867385618
 20
0.9244017428924138
 10
3.597546314058405
 20
0.930813662962727
 10
3.617059789145088
 20
0.933078780215336
 10
3.639405772575827
 20
0.9330319869519332
 10
3.636782344767084
 20
0.972806989020258
 10
3.637509576631601
 20
1.008604335427565
 10
3.627773554565863
 20
1.06727898482993
 10
3.625811742878824
 20
1.116911194833555
 10
3.618051289367941
 20
1.166136890646294
 10
3.600992251941193
 20
1.19804340780834
 10
3.582157880115119
 20
1.235733003597399
 10
3.576847831838194
 20
1.272180347890789
 10
3.559035706134779
 20
1.290267284861914
 10
3.551331896346909
 20
1.294725170615044
 97
        1
330
383
 75
     0
 76
     1
 98
        1
 10
0.0
 20
0.0
  0
SPLINE
  5
383
102
{ACAD_REACTORS
330
12D1
102
}
330
12A8
100
AcDbEntity
  8
FEATURES
 62
    14
100
AcDbSpline
210
0.0
220
0.0
230
1.0
 70
    11
 71
     3
 72
    49
 73
    45
 74
     0
 42
0.0000000001
 43
0.00000001
 40
0.0
 40
0.0
 40
0.0
 40
0.0
 40
0.047459104838906
 40
0.0947609877604978
 40
0.1450088504870009
 40
0.2058441366179888
 40
0.2422234421558577
 40
0.2832521086272339
 40
0.2958274632695925
 40
0.3081432069567271
 40
0.3246719418348525
 40
0.3366027230308873
 40
0.3449588895919434
 40
0.3692417573279124
 40
0.3845937463242287
 40
0.39636549381089
 40
0.4150264181644215
 40
0.4317441207109595
 40
0.4484349588619495
 40
0.4634619699876619
 40
0.4814169718109459
 40
0.4996152572505848
 40
0.5193968170934847
 40
0.5347429588265867
 40
0.5753118627049626
 40
0.5880854896680064
 40
0.6205788627817411
 40
0.6408533569889826
 40
0.6647149193810518
 40
0.6896506001317436
 40
0.7255656020389865
 40
0.7487596023618049
 40
0.7659641245309646
 40
0.7791593906845595
 40
0.7834172663389222
 40
0.8012971318227134
 40
0.8263082828469702
 40
0.8544754662819383
 40
0.8987408314097418
 40
0.9125346725498287
 40
0.9389047919116014
 40
0.9597683396003408
 40
0.9844216795479195
 40
1.0
 40
1.0
 40
1.0
 40
1.0
 10
3.551331896346909
 20
1.294725170615044
 30
0.0
 10
3.527862362676359
 20
1.308306048474664
 30
0.0
 10
3.466052156726988
 20
1.288248290923432
 30
0.0
 10
3.383797564422593
 20
1.288190183058218
 30
0.0
 10
3.293164263429617
 20
1.261290411262719
 30
0.0
 10
3.212267456363094
 20
1.233857683318877
 30
0.0
 10
3.132581086451864
 20
1.213251788833944
 30
0.0
 10
3.084681487755176
 20
1.201926009228538
 30
0.0
 10
3.043840480217085
 20
1.185023819831427
 30
0.0
 10
3.047572674733999
 20
1.157318205565467
 30
0.0
 10
3.047421315403142
 20
1.134818494955898
 30
0.0
 10
3.047437153911176
 20
1.112368103944892
 30
0.0
 10
3.061673713540074
 20
1.089610022436865
 30
0.0
 10
3.088970246524212
 20
1.076069399454855
 30
0.0
 10
3.098618386708637
 20
1.046548492525096
 30
0.0
 10
3.116395150876258
 20
1.024965458289049
 30
0.0
 10
3.111228855731127
 20
0.9955952062725597
 30
0.0
 10
3.115712468036918
 20
0.9652208794666457
 30
0.0
 10
3.129685320597531
 20
0.9401013574286967
 30
0.0
 10
3.139214672580096
 20
0.9127202788287256
 30
0.0
 10
3.151570123123435
 20
0.88492707989883
 30
0.0
 10
3.151907259059612
 20
0.8517874972799184
 30
0.0
 10
3.177995681040528
 20
0.8240619365614048
 30
0.0
 10
3.223533009738816
 20
0.8376048674913061
 30
0.0
 10
3.262444234571234
 20
0.8405259435453569
 30
0.0
 10
3.313099835802376
 20
0.8434567728552533
 30
0.0
 10
3.347894134232547
 20
0.8620376505409997
 30
0.0
 10
3.387474935393328
 20
0.8828624440757888
 30
0.0
 10
3.426683831553731
 20
0.894286572073371
 30
0.0
 10
3.476340707417307
 20
0.89883629986549
 30
0.0
 10
3.521942897532909
 20
0.9198170613133527
 30
0.0
 10
3.566504867385618
 20
0.9244017428924138
 30
0.0
 10
3.597546314058405
 20
0.930813662962727
 30
0.0
 10
3.617059789145088
 20
0.933078780215336
 30
0.0
 10
3.639405772575827
 20
0.9330319869519332
 30
0.0
 10
3.636782344767084
 20
0.972806989020258
 30
0.0
 10
3.637509576631601
 20
1.008604335427565
 30
0.0
 10
3.627773554565863
 20
1.06727898482993
 30
0.0
 10
3.625811742878824
 20
1.116911194833555
 30
0.0
 10
3.618051289367941
 20
1.166136890646294
 30
0.0
 10
3.600992251941193
 20
1.19804340780834
 30
0.0
 10
3.582157880115119
 20
1.235733003597399
 30
0.0
 10
3.576847831838194
 20
1.272180347890789
 30
0.0
 10
3.559035706134779
 20
1.290267284861914
 30
0.0
 10
3.551331896346909
 20
1.294725170615044
 30
0.0
  0
HATCH
  5
12D2
330
12A8
100
AcDbEntity
  8
FEATURES
 62
    12
100
AcDbHatch
 10
0.0
 20
0.0
 30
0.0
210
0.0
220
0.0
230
1.0
  2
SOLID
 70
     1
 71
     1
 91
        1
 92
        1
 93
        1
 72
     4
 94
        3
 73
     0
 74
     0
 95
       40
 96
       36
 40
0.0
 40
0.0
 40
0.0
 40
0.0
 40
0.0640769330752368
 40
0.1329245007239795
 40
0.1876714023061089
 40
0.2001633131666457
 40
0.2169887591756179
 40
0.2381738990267846
 40
0.2792500475203933
 40
0.336301859997779
 40
0.4014707703978779
 40
0.4441204247478667
 40
0.4701332602631196
 40
0.4838073676736774
 40
0.4979579286111231
 40
0.5182644043454485
 40
0.5510379647524655
 40
0.5736422363494537
 40
0.5831601459249982
 40
0.5986256328674168
 40
0.6243823882953513
 40
0.6348931610900506
 40
0.6581716161710518
 40
0.6874983675052022
 40
0.709051859789267
 40
0.7287507978547066
 40
0.7676726025054632
 40
0.7965772276908706
 40
0.8087670055263433
 40
0.8166675836557646
 40
0.8664691292086192
 40
0.9016488286384069
 40
0.9509767263529623
 40
0.9844011491034199
 40
1.0
 40
1.0
 40
1.0
 40
1.0
 10
3.939854017362023
 20
1.30886678038379
 10
3.919749616409803
 20
1.32963527962241
 10
3.84285309305946
 20
1.315262680873301
 10
3.75969072611079
 20
1.320808838329663
 10
3.695303856679033
 20
1.317951417956442
 10
3.65472554869342
 20
1.31195621858083
 10
3.639349507965335
 20
1.290233171838901
 10
3.638667566216384
 20
1.252387386207388
 10
3.642929616337682
 20
1.196454557192682
 10
3.653713405413043
 20
1.119687507726821
 10
3.651539026363992
 20
1.042390290397345
 10
3.651709683168917
 20
0.9776481906230643
 10
3.663632340216054
 20
0.9420339346395998
 10
3.656664108041639
 20
0.9117665722862434
 10
3.684540469068281
 20
0.9069118760432264
 10
3.71329635828954
 20
0.9019685269473996
 10
3.749703984300027
 20
0.8924711830741519
 10
3.775702409204683
 20
0.879755493475983
 10
3.802566177268659
 20
0.8792906841403756
 10
3.799593455876135
 20
0.910875134142703
 10
3.800792455868532
 20
0.9319930699403791
 10
3.798203383267037
 20
0.9611171823925009
 10
3.818005924808858
 20
0.9863847545641011
 10
3.837302250542365
 20
1.013527128415346
 10
3.85898067390616
 20
1.042411059726859
 10
3.89893246137504
 20
1.04330915562214
 10
3.941072682653527
 20
1.045076983975109
 10
3.973952175540518
 20
1.047076301420004
 10
4.004773962823123
 20
1.043221196000093
 10
4.000572187716983
 20
1.082470847115655
 10
3.997385189813002
 20
1.121178859629499
 10
3.980370252705143
 20
1.183938888742677
 10
3.966366028191203
 20
1.237426063294397
 10
3.956969971731041
 20
1.282763087089533
 10
3.944748220904046
 20
1.303810909145563
 10
3.939854017362023
 20
1.30886678038379
 97
        1
330
386
 75
     0
 76
     1
 98
        1
 10
0.0
 20
0.0
  0
SPLINE
  5
386
102
{ACAD_REACTORS
330
12D2
102
}
330
12A8
100
AcDbEntity
  8
FEATURES
 62
    14
100
AcDbSpline
210
0.0
220
0.0
230
1.0
 70
    11
 71
     3
 72
    40
 73
    36
 74
     0
 42
0.0000000001
 43
0.00000001
 40
0.0
 40
0.0
 40
0.0
 40
0.0
 40
0.0640769330752368
 40
0.1329245007239795
 40
0.1876714023061089
 40
0.2001633131666457
 40
0.2169887591756179
 40
0.2381738990267846
 40
0.2792500475203933
 40
0.336301859997779
 40
0.4014707703978779
 40
0.4441204247478667
 40
0.4701332602631196
 40
0.4838073676736774
 40
0.4979579286111231
 40
0.5182644043454485
 40
0.5510379647524655
 40
0.5736422363494537
 40
0.5831601459249982
 40
0.5986256328674168
 40
0.6243823882953513
 40
0.6348931610900506
 40
0.6581716161710518
 40
0.6874983675052022
 40
0.709051859789267
 40
0.7287507978547066
 40
0.7676726025054632
 40
0.7965772276908706
 40
0.8087670055263433
 40
0.8166675836557646
 40
0.8664691292086192
 40
0.9016488286384069
 40
0.9509767263529623
 40
0.9844011491034199
 40
1.0
 40
1.0
 40
1.0
 40
1.0
 10
3.939854017362023
 20
1.30886678038379
 30
0.0
 10
3.919749616409803
 20
1.32963527962241
 30
0.0
 10
3.84285309305946
 20
1.315262680873301
 30
0.0
 10
3.75969072611079
 20
1.320808838329663
 30
0.0
 10
3.695303856679033
 20
1.317951417956442
 30
0.0
 10
3.65472554869342
 20
1.31195621858083
 30
0.0
 10
3.639349507965335
 20
1.290233171838901
 30
0.0
 10
3.638667566216384
 20
1.252387386207388
 30
0.0
 10
3.642929616337682
 20
1.196454557192682
 30
0.0
 10
3.653713405413043
 20
1.119687507726821
 30
0.0
 10
3.651539026363992
 20
1.042390290397345
 30
0.0
 10
3.651709683168917
 20
0.9776481906230643
 30
0.0
 10
3.663632340216054
 20
0.9420339346395998
 30
0.0
 10
3.656664108041639
 20
0.9117665722862434
 30
0.0
 10
3.684540469068281
 20
0.9069118760432264
 30
0.0
 10
3.71329635828954
 20
0.9019685269473996
 30
0.0
 10
3.749703984300027
 20
0.8924711830741519
 30
0.0
 10
3.775702409204683
 20
0.879755493475983
 30
0.0
 10
3.802566177268659
 20
0.8792906841403756
 30
0.0
 10
3.799593455876135
 20
0.910875134142703
 30
0.0
 10
3.800792455868532
 20
0.9319930699403791
 30
0.0
 10
3.798203383267037
 20
0.9611171823925009
 30
0.0
 10
3.818005924808858
 20
0.9863847545641011
 30
0.0
 10
3.837302250542365
 20
1.013527128415346
 30
0.0
 10
3.85898067390616
 20
1.042411059726859
 30
0.0
 10
3.89893246137504
 20
1.04330915562214
 30
0.0
 10
3.941072682653527
 20
1.045076983975109
 30
0.0
 10
3.973952175540518
 20
1.047076301420004
 30
0.0
 10
4.004773962823123
 20
1.043221196000093
 30
0.0
 10
4.000572187716983
 20
1.082470847115655
 30
0.0
 10
3.997385189813002
 20
1.121178859629499
 30
0.0
 10
3.980370252705143
 20
1.183938888742677
 30
0.0
 10
3.966366028191203
 20
1.237426063294397
 30
0.0
 10
3.956969971731041
 20
1.282763087089533
 30
0.0
 10
3.944748220904046
 20
1.303810909145563
 30
0.0
 10
3.939854017362023
 20
1.30886678038379
 30
0.0
  0
HATCH
  5
12D3
330
12A8
100
AcDbEntity
  8
FEATURES
 62
    12
100
AcDbHatch
 10
0.0
 20
0.0
 30
0.0
210
0.0
220
0.0
230
1.0
  2
SOLID
 70
     1
 71
     1
 91
        1
 92
        1
 93
        1
 72
     4
 94
        3
 73
     0
 74
     0
 95
       33
 96
       29
 40
0.0
 40
0.0
 40
0.0
 40
0.0
 40
0.0258908373351661
 40
0.0905869048746394
 40
0.1255863362792396
 40
0.1614736089457078
 40
0.2331590429902337
 40
0.3220269353485152
 40
0.3825123962125839
 40
0.415151717588281
 40
0.4297484658553793
 40
0.4351799772469078
 40
0.4426228876718118
 40
0.4671015417835903
 40
0.5012716534113352
 40
0.5400223564270427
 40
0.5793732305902012
 40
0.6235510072358486
 40
0.6561903286115489
 40
0.6834863379372038
 40
0.7277937716628379
 40
0.757238820446814
 40
0.779160126483164
 40
0.8027175570121958
 40
0.8543248554268953
 40
0.8934920410777263
 40
0.9318687430336564
 40
1.0
 40
1.0
 40
1.0
 40
1.0
 10
4.016230160809471
 20
1.941975771569298
 10
3.999569865720588
 20
1.951790572678904
 10
3.929559653990054
 20
1.969684336884344
 10
3.833452849433769
 20
1.967206961429065
 10
3.72994676913882
 20
1.944478482222538
 10
3.641624880960052
 20
1.876973039262067
 10
3.533634000421756
 20
1.77297196966458
 10
3.424034408628671
 20
1.641699760201492
 10
3.335609309057475
 20
1.537377605564762
 10
3.276545464636825
 20
1.473365933726194
 10
3.263746735952566
 20
1.439006099210689
 10
3.25070140707075
 20
1.415968415766626
 10
3.289133527790256
 20
1.409731383658658
 10
3.330425452459167
 20
1.399996667893527
 10
3.408824950813113
 20
1.391859722283348
 10
3.490544889326316
 20
1.368327600898342
 10
3.584045202778555
 20
1.355533077452252
 10
3.672904285063169
 20
1.351305489202344
 10
3.752645055325871
 20
1.346834283937858
 10
3.832937377760089
 20
1.358763644816461
 10
3.899807663406364
 20
1.400625865247731
 10
3.967580619957516
 20
1.428074012122879
 10
4.014208124267412
 20
1.464869283965259
 10
4.042065710932803
 20
1.535834630516904
 10
4.0645241837654
 20
1.619271835380482
 10
4.098413689558242
 20
1.714491525091836
 10
4.092348652850518
 20
1.824888455281913
 10
4.060071417511153
 20
1.916148304971154
 10
4.016230160809471
 20
1.941975771569298
 97
        1
330
389
 75
     0
 76
     1
 98
        1
 10
0.0
 20
0.0
  0
SPLINE
  5
389
102
{ACAD_REACTORS
330
12D3
102
}
330
12A8
100
AcDbEntity
  8
FEATURES
 62
    14
100
AcDbSpline
210
0.0
220
0.0
230
1.0
 70
    11
 71
     3
 72
    33
 73
    29
 74
     0
 42
0.0000000001
 43
0.00000001
 40
0.0
 40
0.0
 40
0.0
 40
0.0
 40
0.0258908373351661
 40
0.0905869048746394
 40
0.1255863362792396
 40
0.1614736089457078
 40
0.2331590429902337
 40
0.3220269353485152
 40
0.3825123962125839
 40
0.415151717588281
 40
0.4297484658553793
 40
0.4351799772469078
 40
0.4426228876718118
 40
0.4671015417835903
 40
0.5012716534113352
 40
0.5400223564270427
 40
0.5793732305902012
 40
0.6235510072358486
 40
0.6561903286115489
 40
0.6834863379372038
 40
0.7277937716628379
 40
0.757238820446814
 40
0.779160126483164
 40
0.8027175570121958
 40
0.8543248554268953
 40
0.8934920410777263
 40
0.9318687430336564
 40
1.0
 40
1.0
 40
1.0
 40
1.0
 10
4.016230160809471
 20
1.941975771569298
 30
0.0
 10
3.999569865720588
 20
1.951790572678904
 30
0.0
 10
3.929559653990054
 20
1.969684336884344
 30
0.0
 10
3.833452849433769
 20
1.967206961429065
 30
0.0
 10
3.72994676913882
 20
1.944478482222538
 30
0.0
 10
3.641624880960052
 20
1.876973039262067
 30
0.0
 10
3.533634000421756
 20
1.77297196966458
 30
0.0
 10
3.424034408628671
 20
1.641699760201492
 30
0.0
 10
3.335609309057475
 20
1.537377605564762
 30
0.0
 10
3.276545464636825
 20
1.473365933726194
 30
0.0
 10
3.263746735952566
 20
1.439006099210689
 30
0.0
 10
3.25070140707075
 20
1.415968415766626
 30
0.0
 10
3.289133527790256
 20
1.409731383658658
 30
0.0
 10
3.330425452459167
 20
1.399996667893527
 30
0.0
 10
3.408824950813113
 20
1.391859722283348
 30
0.0
 10
3.490544889326316
 20
1.368327600898342
 30
0.0
 10
3.584045202778555
 20
1.355533077452252
 30
0.0
 10
3.672904285063169
 20
1.351305489202344
 30
0.0
 10
3.752645055325871
 20
1.346834283937858
 30
0.0
 10
3.832937377760089
 20
1.358763644816461
 30
0.0
 10
3.899807663406364
 20
1.400625865247731
 30
0.0
 10
3.967580619957516
 20
1.428074012122879
 30
0.0
 10
4.014208124267412
 20
1.464869283965259
 30
0.0
 10
4.042065710932803
 20
1.535834630516904
 30
0.0
 10
4.0645241837654
 20
1.619271835380482
 30
0.0
 10
4.098413689558242
 20
1.714491525091836
 30
0.0
 10
4.092348652850518
 20
1.824888455281913
 30
0.0
 10
4.060071417511153
 20
1.916148304971154
 30
0.0
 10
4.016230160809471
 20
1.941975771569298
 30
0.0
  0
HATCH
  5
12D4
330
12A8
100
AcDbEntity
  8
FEATURES
 62
    12
100
AcDbHatch
 10
0.0
 20
0.0
 30
0.0
210
0.0
220
0.0
230
1.0
  2
SOLID
 70
     1
 71
     1
 91
        1
 92
        1
 93
        1
 72
     4
 94
        3
 73
     0
 74
     0
 95
       34
 96
       30
 40
0.0
 40
0.0
 40
0.0
 40
0.0
 40
0.0621680052029012
 40
0.1395336512062886
 40
0.1811920759773598
 40
0.2473080456655151
 40
0.2629688726918271
 40
0.2799324127533701
 40
0.3133467115296015
 40
0.371717067245536
 40
0.3954100335734358
 40
0.4130892153393114
 40
0.4292782392239902
 40
0.4486539541715419
 40
0.481574385531324
 40
0.5038814779238439
 40
0.5169876441925291
 40
0.5574930062003695
 40
0.5923088185033579
 40
0.619596887605698
 40
0.6331677196549172
 40
0.659193605817975
 40
0.7032988099779705
 40
0.7271036241328388
 40
0.7481443060251146
 40
0.7712890561065933
 40
0.8427592693274873
 40
0.9225142786450851
 40
1.0
 40
1.0
 40
1.0
 40
1.0
 10
4.334903035193378
 20
1.431045708507307
 10
4.313287525361602
 20
1.44369325453413
 10
4.236835923222031
 20
1.4297493592218
 10
4.156068279552585
 20
1.436030249618613
 10
4.073027777146166
 20
1.404995634670525
 10
4.02308822756936
 20
1.380963761791721
 10
3.978989427611708
 20
1.360503992720639
 10
3.970765628742413
 20
1.327899859488001
 10
3.98154192587748
 20
1.278248178950777
 10
4.02073925782787
 20
1.230293364111894
 10
4.002830615489103
 20
1.183770217698612
 10
4.014816319305226
 20
1.156424638711568
 10
4.039867450102435
 20
1.146968341929297
 10
4.04992005750475
 20
1.113981201719014
 10
4.073539116963389
 20
1.089326795865349
 10
4.081086186752373
 20
1.053742914437686
 10
4.117763920375097
 20
1.043820827193111
 10
4.15857854937309
 20
1.044584982248283
 10
4.205358846127325
 20
1.048205512223371
 10
4.243788560053957
 20
1.038249131887367
 10
4.26761680503455
 20
1.061635742167326
 10
4.308497144386109
 20
1.063339033385152
 10
4.351277967711553
 20
1.071854423428322
 10
4.389923729449151
 20
1.085528918509787
 10
4.421626444790832
 20
1.096424403720906
 10
4.443441271923376
 20
1.150942023572707
 10
4.415420270619478
 20
1.233517318238594
 10
4.377277816798227
 20
1.323836383713617
 10
4.361844439639327
 20
1.415281904858483
 10
4.334903035193378
 20
1.431045708507307
 97
        1
330
38C
 75
     0
 76
     1
 98
        1
 10
0.0
 20
0.0
  0
SPLINE
  5
38C
102
{ACAD_REACTORS
330
12D4
102
}
330
12A8
100
AcDbEntity
  8
FEATURES
 62
    14
100
AcDbSpline
210
0.0
220
0.0
230
1.0
 70
    11
 71
     3
 72
    34
 73
    30
 74
     0
 42
0.0000000001
 43
0.00000001
 40
0.0
 40
0.0
 40
0.0
 40
0.0
 40
0.0621680052029012
 40
0.1395336512062886
 40
0.1811920759773598
 40
0.2473080456655151
 40
0.2629688726918271
 40
0.2799324127533701
 40
0.3133467115296015
 40
0.371717067245536
 40
0.3954100335734358
 40
0.4130892153393114
 40
0.4292782392239902
 40
0.4486539541715419
 40
0.481574385531324
 40
0.5038814779238439
 40
0.5169876441925291
 40
0.5574930062003695
 40
0.5923088185033579
 40
0.619596887605698
 40
0.6331677196549172
 40
0.659193605817975
 40
0.7032988099779705
 40
0.7271036241328388
 40
0.7481443060251146
 40
0.7712890561065933
 40
0.8427592693274873
 40
0.9225142786450851
 40
1.0
 40
1.0
 40
1.0
 40
1.0
 10
4.334903035193378
 20
1.431045708507307
 30
0.0
 10
4.313287525361602
 20
1.44369325453413
 30
0.0
 10
4.236835923222031
 20
1.4297493592218
 30
0.0
 10
4.156068279552585
 20
1.436030249618613
 30
0.0
 10
4.073027777146166
 20
1.404995634670525
 30
0.0
 10
4.02308822756936
 20
1.380963761791721
 30
0.0
 10
3.978989427611708
 20
1.360503992720639
 30
0.0
 10
3.970765628742413
 20
1.327899859488001
 30
0.0
 10
3.98154192587748
 20
1.278248178950777
 30
0.0
 10
4.02073925782787
 20
1.230293364111894
 30
0.0
 10
4.002830615489103
 20
1.183770217698612
 30
0.0
 10
4.014816319305226
 20
1.156424638711568
 30
0.0
 10
4.039867450102435
 20
1.146968341929297
 30
0.0
 10
4.04992005750475
 20
1.113981201719014
 30
0.0
 10
4.073539116963389
 20
1.089326795865349
 30
0.0
 10
4.081086186752373
 20
1.053742914437686
 30
0.0
 10
4.117763920375097
 20
1.043820827193111
 30
0.0
 10
4.15857854937309
 20
1.044584982248283
 30
0.0
 10
4.205358846127325
 20
1.048205512223371
 30
0.0
 10
4.243788560053957
 20
1.038249131887367
 30
0.0
 10
4.26761680503455
 20
1.061635742167326
 30
0.0
 10
4.308497144386109
 20
1.063339033385152
 30
0.0
 10
4.351277967711553
 20
1.071854423428322
 30
0.0
 10
4.389923729449151
 20
1.085528918509787
 30
0.0
 10
4.421626444790832
 20
1.096424403720906
 30
0.0
 10
4.443441271923376
 20
1.150942023572707
 30
0.0
 10
4.415420270619478
 20
1.233517318238594
 30
0.0
 10
4.377277816798227
 20
1.323836383713617
 30
0.0
 10
4.361844439639327
 20
1.415281904858483
 30
0.0
 10
4.334903035193378
 20
1.431045708507307
 30
0.0
  0
HATCH
  5
12D5
330
12A8
100
AcDbEntity
  8
FEATURES
 62
    12
100
AcDbHatch
 10
0.0
 20
0.0
 30
0.0
210
0.0
220
0.0
230
1.0
  2
SOLID
 70
     1
 71
     1
 91
        1
 92
        1
 93
        1
 72
     4
 94
        3
 73
     0
 74
     0
 95
       47
 96
       43
 40
0.0
 40
0.0
 40
0.0
 40
0.0
 40
0.0354698653603736
 40
0.0529528419609293
 40
0.0863790416357115
 40
0.1320410728286519
 40
0.1514558799634767
 40
0.1823320338875501
 40
0.1924500235254873
 40
0.2224931596071655
 40
0.2448240467915953
 40
0.2744096839167469
 40
0.2938244910515713
 40
0.3021216591377998
 40
0.309138205411464
 40
0.3266636326447598
 40
0.3467933822785061
 40
0.3697166726917929
 40
0.3937709507181845
 40
0.418428714674384
 40
0.4400287746368002
 40
0.457493195654262
 40
0.4714472228689107
 40
0.4805377283645696
 40
0.4919683141960736
 40
0.5034446880489085
 40
0.5121945614717867
 40
0.5674620145267236
 40
0.5903699888209774
 40
0.6012560858114749
 40
0.609716203995743
 40
0.6157715159712688
 40
0.6327782129761969
 40
0.6725851541255817
 40
0.7064429587320666
 40
0.7283896014319255
 40
0.7426883459293262
 40
0.7773509742870305
 40
0.846012978904343
 40
0.9103088734160331
 40
0.9683034638247092
 40
1.0
 40
1.0
 40
1.0
 40
1.0
 10
4.805146425906059
 20
1.623013082022625
 10
4.79085313308309
 20
1.632113882537622
 10
4.751257698188198
 20
1.616440892967196
 10
4.703413834022484
 20
1.60605331014761
 10
4.653963616300729
 20
1.572493962028256
 10
4.59784389326191
 20
1.558044165563979
 10
4.546906962850898
 20
1.527513419311882
 10
4.50916187714455
 20
1.540753875586576
 10
4.468086755287658
 20
1.528371610909305
 10
4.439199756822177
 20
1.504796630715498
 10
4.400712336302803
 20
1.471602763037412
 10
4.370970561314522
 20
1.455895178651881
 10
4.313847443825068
 20
1.447858243969266
 10
4.334774180745001
 20
1.430918187663783
 10
4.349866670606588
 20
1.420394387391868
 10
4.362768850427557
 20
1.395123232454738
 10
4.372578345277248
 20
1.361059243927178
 10
4.381856960483418
 20
1.322090189854775
 10
4.395488590141582
 20
1.281788565064625
 10
4.410424100943032
 20
1.242770275525944
 10
4.424406503127358
 20
1.207614312883575
 10
4.43187159357069
 20
1.176723051319829
 10
4.437321305836178
 20
1.153921134045627
 10
4.428492777433149
 20
1.13016551861187
 10
4.454788347097349
 20
1.125504590407118
 10
4.470423134532695
 20
1.134208122202489
 10
4.512494751790911
 20
1.15158277317933
 10
4.567342268026039
 20
1.141052067941498
 10
4.617475655520423
 20
1.131241805051586
 10
4.645050236875647
 20
1.13425615535381
 10
4.654595384089816
 20
1.121042058301621
 10
4.660621830480238
 20
1.101020728957309
 10
4.707687032066673
 20
1.124224184046996
 10
4.752673407834834
 20
1.132568155167997
 10
4.810026403705479
 20
1.139678794738089
 10
4.853857903544679
 20
1.14452428818141
 10
4.88054442037506
 20
1.18154837222221
 10
4.865482648416673
 20
1.254931503031161
 10
4.857536704794342
 20
1.350680539324594
 10
4.848122704433109
 20
1.468035597315923
 10
4.826428095243813
 20
1.547580249037223
 10
4.817919180141985
 20
1.614880436188846
 10
4.805146425906059
 20
1.623013082022625
 97
        1
330
38F
 75
     0
 76
     1
 98
        1
 10
0.0
 20
0.0
  0
SPLINE
  5
38F
102
{ACAD_REACTORS
330
12D5
102
}
330
12A8
100
AcDbEntity
  8
FEATURES
 62
    14
100
AcDbSpline
210
0.0
220
0.0
230
1.0
 70
    11
 71
     3
 72
    47
 73
    43
 74
     0
 42
0.0000000001
 43
0.00000001
 40
0.0
 40
0.0
 40
0.0
 40
0.0
 40
0.0354698653603736
 40
0.0529528419609293
 40
0.0863790416357115
 40
0.1320410728286519
 40
0.1514558799634767
 40
0.1823320338875501
 40
0.1924500235254873
 40
0.2224931596071655
 40
0.2448240467915953
 40
0.2744096839167469
 40
0.2938244910515713
 40
0.3021216591377998
 40
0.309138205411464
 40
0.3266636326447598
 40
0.3467933822785061
 40
0.3697166726917929
 40
0.3937709507181845
 40
0.418428714674384
 40
0.4400287746368002
 40
0.457493195654262
 40
0.4714472228689107
 40
0.4805377283645696
 40
0.4919683141960736
 40
0.5034446880489085
 40
0.5121945614717867
 40
0.5674620145267236
 40
0.5903699888209774
 40
0.6012560858114749
 40
0.609716203995743
 40
0.6157715159712688
 40
0.6327782129761969
 40
0.6725851541255817
 40
0.7064429587320666
 40
0.7283896014319255
 40
0.7426883459293262
 40
0.7773509742870305
 40
0.846012978904343
 40
0.9103088734160331
 40
0.9683034638247092
 40
1.0
 40
1.0
 40
1.0
 40
1.0
 10
4.805146425906059
 20
1.623013082022625
 30
0.0
 10
4.79085313308309
 20
1.632113882537622
 30
0.0
 10
4.751257698188198
 20
1.616440892967196
 30
0.0
 10
4.703413834022484
 20
1.60605331014761
 30
0.0
 10
4.653963616300729
 20
1.572493962028256
 30
0.0
 10
4.59784389326191
 20
1.558044165563979
 30
0.0
 10
4.546906962850898
 20
1.527513419311882
 30
0.0
 10
4.50916187714455
 20
1.540753875586576
 30
0.0
 10
4.468086755287658
 20
1.528371610909305
 30
0.0
 10
4.439199756822177
 20
1.504796630715498
 30
0.0
 10
4.400712336302803
 20
1.471602763037412
 30
0.0
 10
4.370970561314522
 20
1.455895178651881
 30
0.0
 10
4.313847443825068
 20
1.447858243969266
 30
0.0
 10
4.334774180745001
 20
1.430918187663783
 30
0.0
 10
4.349866670606588
 20
1.420394387391868
 30
0.0
 10
4.362768850427557
 20
1.395123232454738
 30
0.0
 10
4.372578345277248
 20
1.361059243927178
 30
0.0
 10
4.381856960483418
 20
1.322090189854775
 30
0.0
 10
4.395488590141582
 20
1.281788565064625
 30
0.0
 10
4.410424100943032
 20
1.242770275525944
 30
0.0
 10
4.424406503127358
 20
1.207614312883575
 30
0.0
 10
4.43187159357069
 20
1.176723051319829
 30
0.0
 10
4.437321305836178
 20
1.153921134045627
 30
0.0
 10
4.428492777433149
 20
1.13016551861187
 30
0.0
 10
4.454788347097349
 20
1.125504590407118
 30
0.0
 10
4.470423134532695
 20
1.134208122202489
 30
0.0
 10
4.512494751790911
 20
1.15158277317933
 30
0.0
 10
4.567342268026039
 20
1.141052067941498
 30
0.0
 10
4.617475655520423
 20
1.131241805051586
 30
0.0
 10
4.645050236875647
 20
1.13425615535381
 30
0.0
 10
4.654595384089816
 20
1.121042058301621
 30
0.0
 10
4.660621830480238
 20
1.101020728957309
 30
0.0
 10
4.707687032066673
 20
1.124224184046996
 30
0.0
 10
4.752673407834834
 20
1.132568155167997
 30
0.0
 10
4.810026403705479
 20
1.139678794738089
 30
0.0
 10
4.853857903544679
 20
1.14452428818141
 30
0.0
 10
4.88054442037506
 20
1.18154837222221
 30
0.0
 10
4.865482648416673
 20
1.254931503031161
 30
0.0
 10
4.857536704794342
 20
1.350680539324594
 30
0.0
 10
4.848122704433109
 20
1.468035597315923
 30
0.0
 10
4.826428095243813
 20
1.547580249037223
 30
0.0
 10
4.817919180141985
 20
1.614880436188846
 30
0.0
 10
4.805146425906059
 20
1.623013082022625
 30
0.0
  0
HATCH
  5
12D6
330
12A8
100
AcDbEntity
  8
FEATURES
 62
    12
100
AcDbHatch
 10
0.0
 20
0.0
 30
0.0
210
0.0
220
0.0
230
1.0
  2
SOLID
 70
     1
 71
     1
 91
        1
 92
        1
 93
        1
 72
     4
 94
        3
 73
     0
 74
     0
 95
       43
 96
       39
 40
0.0
 40
0.0
 40
0.0
 40
0.0
 40
0.0297196830928811
 40
0.0529771835704007
 40
0.0784281794099596
 40
0.0968499290589513
 40
0.1145226153811814
 40
0.1399565002887029
 40
0.1673082323934562
 40
0.1823584165681178
 40
0.2052054314869862
 40
0.2368976896690873
 40
0.263260095228892
 40
0.2913795775137439
 40
0.3179413774206186
 40
0.3353053692207864
 40
0.3888036560640201
 40
0.4213466674791851
 40
0.4472475510548631
 40
0.4599036261660213
 40
0.4785749643409473
 40
0.4914816791324033
 40
0.5105227826721617
 40
0.5492039731691025
 40
0.574374275687343
 40
0.5932862855112422
 40
0.6144906275195725
 40
0.6432659107520285
 40
0.6745512272875215
 40
0.6929480467711246
 40
0.7075017239145003
 40
0.7560044848479928
 40
0.8272418351662884
 40
0.8865628070935273
 40
0.9240565670395418
 40
0.9539937205097718
 40
0.9755156160933818
 40
1.0
 40
1.0
 40
1.0
 40
1.0
 10
4.650025336015005
 20
1.12660769638499
 10
4.638728777882193
 20
1.135312148309463
 10
4.605738836259178
 20
1.13112833886461
 10
4.56730964229493
 20
1.141865796126444
 10
4.53186695316063
 20
1.146435371063076
 10
4.499688251053357
 20
1.144825599620924
 10
4.467759374708095
 20
1.135470490526068
 10
4.442206059217625
 20
1.108809047683744
 10
4.408732566556097
 20
1.088694815799895
 10
4.405207546453767
 20
1.052974052130608
 10
4.400994345450272
 20
1.01737595459819
 10
4.397782437667303
 20
0.9746997537040034
 10
4.376617304746048
 20
0.932424839087874
 10
4.341828539043036
 20
0.9089699008065342
 10
4.300126402264198
 20
0.8944754113293172
 10
4.301057119972768
 20
0.8385253991594155
 10
4.294282652442661
 20
0.7872066478661228
 10
4.295890996759255
 20
0.7277386271586366
 10
4.299053457252171
 20
0.6910785697649047
 10
4.304065610805537
 20
0.6606141673362274
 10
4.322467929641675
 20
0.6443337747376514
 10
4.34636618368333
 20
0.6312589645087563
 10
4.384487118775752
 20
0.6386745943920129
 10
4.427305665371961
 20
0.6353733336815583
 10
4.47097017679431
 20
0.638550235779169
 10
4.504691284827288
 20
0.6314145093292698
 10
4.536865980936767
 20
0.6103402803422977
 10
4.580417171801372
 20
0.628022997525056
 10
4.618326183990177
 20
0.6369846800779069
 10
4.652891033880707
 20
0.6479296459976052
 10
4.670824480259171
 20
0.6897646987231205
 10
4.658804729064457
 20
0.7606968063968331
 10
4.664973578634232
 20
0.8546576054700221
 10
4.674161824446742
 20
0.9413865887111417
 10
4.686082958842206
 20
1.008801663824075
 10
4.664104191368523
 20
1.053023605616801
 10
4.667623450086921
 20
1.091867837210479
 10
4.659331938150814
 20
1.119436585510444
 10
4.650025336015005
 20
1.12660769638499
 97
        1
330
392
 75
     0
 76
     1
 98
        1
 10
0.0
 20
0.0
  0
SPLINE
  5
392
102
{ACAD_REACTORS
330
12D6
102
}
330
12A8
100
AcDbEntity
  8
FEATURES
 62
    14
100
AcDbSpline
210
0.0
220
0.0
230
1.0
 70
    11
 71
     3
 72
    43
 73
    39
 74
     0
 42
0.0000000001
 43
0.00000001
 40
0.0
 40
0.0
 40
0.0
 40
0.0
 40
0.0297196830928811
 40
0.0529771835704007
 40
0.0784281794099596
 40
0.0968499290589513
 40
0.1145226153811814
 40
0.1399565002887029
 40
0.1673082323934562
 40
0.1823584165681178
 40
0.2052054314869862
 40
0.2368976896690873
 40
0.263260095228892
 40
0.2913795775137439
 40
0.3179413774206186
 40
0.3353053692207864
 40
0.3888036560640201
 40
0.4213466674791851
 40
0.4472475510548631
 40
0.4599036261660213
 40
0.4785749643409473
 40
0.4914816791324033
 40
0.5105227826721617
 40
0.5492039731691025
 40
0.574374275687343
 40
0.5932862855112422
 40
0.6144906275195725
 40
0.6432659107520285
 40
0.6745512272875215
 40
0.6929480467711246
 40
0.7075017239145003
 40
0.7560044848479928
 40
0.8272418351662884
 40
0.8865628070935273
 40
0.9240565670395418
 40
0.9539937205097718
 40
0.9755156160933818
 40
1.0
 40
1.0
 40
1.0
 40
1.0
 10
4.650025336015005
 20
1.12660769638499
 30
0.0
 10
4.638728777882193
 20
1.135312148309463
 30
0.0
 10
4.605738836259178
 20
1.13112833886461
 30
0.0
 10
4.56730964229493
 20
1.141865796126444
 30
0.0
 10
4.53186695316063
 20
1.146435371063076
 30
0.0
 10
4.499688251053357
 20
1.144825599620924
 30
0.0
 10
4.467759374708095
 20
1.135470490526068
 30
0.0
 10
4.442206059217625
 20
1.108809047683744
 30
0.0
 10
4.408732566556097
 20
1.088694815799895
 30
0.0
 10
4.405207546453767
 20
1.052974052130608
 30
0.0
 10
4.400994345450272
 20
1.01737595459819
 30
0.0
 10
4.397782437667303
 20
0.9746997537040034
 30
0.0
 10
4.376617304746048
 20
0.932424839087874
 30
0.0
 10
4.341828539043036
 20
0.9089699008065342
 30
0.0
 10
4.300126402264198
 20
0.8944754113293172
 30
0.0
 10
4.301057119972768
 20
0.8385253991594155
 30
0.0
 10
4.294282652442661
 20
0.7872066478661228
 30
0.0
 10
4.295890996759255
 20
0.7277386271586366
 30
0.0
 10
4.299053457252171
 20
0.6910785697649047
 30
0.0
 10
4.304065610805537
 20
0.6606141673362274
 30
0.0
 10
4.322467929641675
 20
0.6443337747376514
 30
0.0
 10
4.34636618368333
 20
0.6312589645087563
 30
0.0
 10
4.384487118775752
 20
0.6386745943920129
 30
0.0
 10
4.427305665371961
 20
0.6353733336815583
 30
0.0
 10
4.47097017679431
 20
0.638550235779169
 30
0.0
 10
4.504691284827288
 20
0.6314145093292698
 30
0.0
 10
4.536865980936767
 20
0.6103402803422977
 30
0.0
 10
4.580417171801372
 20
0.628022997525056
 30
0.0
 10
4.618326183990177
 20
0.6369846800779069
 30
0.0
 10
4.652891033880707
 20
0.6479296459976052
 30
0.0
 10
4.670824480259171
 20
0.6897646987231205
 30
0.0
 10
4.658804729064457
 20
0.7606968063968331
 30
0.0
 10
4.664973578634232
 20
0.8546576054700221
 30
0.0
 10
4.674161824446742
 20
0.9413865887111417
 30
0.0
 10
4.686082958842206
 20
1.008801663824075
 30
0.0
 10
4.664104191368523
 20
1.053023605616801
 30
0.0
 10
4.667623450086921
 20
1.091867837210479
 30
0.0
 10
4.659331938150814
 20
1.119436585510444
 30
0.0
 10
4.650025336015005
 20
1.12660769638499
 30
0.0
  0
HATCH
  5
12D7
330
12A8
100
AcDbEntity
  8
FEATURES
 62
    12
100
AcDbHatch
 10
0.0
 20
0.0
 30
0.0
210
0.0
220
0.0
230
1.0
  2
SOLID
 70
     1
 71
     1
 91
        1
 92
        1
 93
        1
 72
     4
 94
        3
 73
     0
 74
     0
 95
       34
 96
       30
 40
0.0
 40
0.0
 40
0.0
 40
0.0
 40
0.0503061173623469
 40
0.1177214280181761
 40
0.1541309437110975
 40
0.1727483263679999
 40
0.2069107075674743
 40
0.2393038687507512
 40
0.2538217098306789
 40
0.2731596566790674
 40
0.3003728619124757
 40
0.3220497434482043
 40
0.3372528401822903
 40
0.3635899958030133
 40
0.4001071537289765
 40
0.4430455800311632
 40
0.4919534811203918
 40
0.5240757958382862
 40
0.5673670167710072
 40
0.607499865713877
 40
0.6339582834810004
 40
0.6573824221097399
 40
0.6870351508648989
 40
0.72012439500375
 40
0.7885463773597622
 40
0.8799293799446058
 40
0.9331255450200957
 40
0.9764103769575998
 40
1.0
 40
1.0
 40
1.0
 40
1.0
 10
4.787774398583451
 20
0.9445389038126759
 10
4.792525073104684
 20
0.9581202402670481
 10
4.755323037082491
 20
0.996244892412486
 10
4.769044917768554
 20
1.047310340568693
 10
4.759824108208676
 20
1.087524893616925
 10
4.740062261216906
 20
1.112496201166215
 10
4.707020965073866
 20
1.10481115390534
 10
4.686206421996502
 20
1.093478077380544
 10
4.660607352011908
 20
1.087835966941633
 10
4.667970343463793
 20
1.063087690132443
 10
4.669606670253387
 20
1.042509309619456
 10
4.677792800966387
 20
1.022335747420787
 10
4.681786077922936
 20
1.001828062434289
 10
4.680692954477365
 20
0.9758276485327926
 10
4.674702921884801
 20
0.9414574345489246
 10
4.669758266386083
 20
0.8993410601808289
 10
4.665862610942412
 20
0.8585935790149613
 10
4.662760863420544
 20
0.8177007633586264
 10
4.661533040194399
 20
0.7793884684766983
 10
4.663168903050462
 20
0.7436277385796508
 10
4.667213724192976
 20
0.7128664949702976
 10
4.663826146664036
 20
0.6903790247925183
 10
4.67266270896576
 20
0.6437161757881196
 10
4.682843759726751
 20
0.7151202668636181
 10
4.690315538212872
 20
0.7621675238404766
 10
4.718939666936024
 20
0.8335318056340721
 10
4.75048191918188
 20
0.886313537285119
 10
4.766360054462439
 20
0.9218056143320013
 10
4.785546704874832
 20
0.9381703223325548
 10
4.787774398583451
 20
0.9445389038126759
 97
        1
330
395
 75
     0
 76
     1
 98
        1
 10
0.0
 20
0.0
  0
SPLINE
  5
395
102
{ACAD_REACTORS
330
12D7
102
}
330
12A8
100
AcDbEntity
  8
FEATURES
 62
    14
100
AcDbSpline
210
0.0
220
0.0
230
1.0
 70
    11
 71
     3
 72
    34
 73
    30
 74
     0
 42
0.0000000001
 43
0.00000001
 40
0.0
 40
0.0
 40
0.0
 40
0.0
 40
0.0503061173623469
 40
0.1177214280181761
 40
0.1541309437110975
 40
0.1727483263679999
 40
0.2069107075674743
 40
0.2393038687507512
 40
0.2538217098306789
 40
0.2731596566790674
 40
0.3003728619124757
 40
0.3220497434482043
 40
0.3372528401822903
 40
0.3635899958030133
 40
0.4001071537289765
 40
0.4430455800311632
 40
0.4919534811203918
 40
0.5240757958382862
 40
0.5673670167710072
 40
0.607499865713877
 40
0.6339582834810004
 40
0.6573824221097399
 40
0.6870351508648989
 40
0.72012439500375
 40
0.7885463773597622
 40
0.8799293799446058
 40
0.9331255450200957
 40
0.9764103769575998
 40
1.0
 40
1.0
 40
1.0
 40
1.0
 10
4.787774398583451
 20
0.9445389038126759
 30
0.0
 10
4.792525073104684
 20
0.9581202402670481
 30
0.0
 10
4.755323037082491
 20
0.996244892412486
 30
0.0
 10
4.769044917768554
 20
1.047310340568693
 30
0.0
 10
4.759824108208676
 20
1.087524893616925
 30
0.0
 10
4.740062261216906
 20
1.112496201166215
 30
0.0
 10
4.707020965073866
 20
1.10481115390534
 30
0.0
 10
4.686206421996502
 20
1.093478077380544
 30
0.0
 10
4.660607352011908
 20
1.087835966941633
 30
0.0
 10
4.667970343463793
 20
1.063087690132443
 30
0.0
 10
4.669606670253387
 20
1.042509309619456
 30
0.0
 10
4.677792800966387
 20
1.022335747420787
 30
0.0
 10
4.681786077922936
 20
1.001828062434289
 30
0.0
 10
4.680692954477365
 20
0.9758276485327926
 30
0.0
 10
4.674702921884801
 20
0.9414574345489246
 30
0.0
 10
4.669758266386083
 20
0.8993410601808289
 30
0.0
 10
4.665862610942412
 20
0.8585935790149613
 30
0.0
 10
4.662760863420544
 20
0.8177007633586264
 30
0.0
 10
4.661533040194399
 20
0.7793884684766983
 30
0.0
 10
4.663168903050462
 20
0.7436277385796508
 30
0.0
 10
4.667213724192976
 20
0.7128664949702976
 30
0.0
 10
4.663826146664036
 20
0.6903790247925183
 30
0.0
 10
4.67266270896576
 20
0.6437161757881196
 30
0.0
 10
4.682843759726751
 20
0.7151202668636181
 30
0.0
 10
4.690315538212872
 20
0.7621675238404766
 30
0.0
 10
4.718939666936024
 20
0.8335318056340721
 30
0.0
 10
4.75048191918188
 20
0.886313537285119
 30
0.0
 10
4.766360054462439
 20
0.9218056143320013
 30
0.0
 10
4.785546704874832
 20
0.9381703223325548
 30
0.0
 10
4.787774398583451
 20
0.9445389038126759
 30
0.0
  0
HATCH
  5
12D8
330
12A8
100
AcDbEntity
  8
FEATURES
 62
    12
100
AcDbHatch
 10
0.0
 20
0.0
 30
0.0
210
0.0
220
0.0
230
1.0
  2
SOLID
 70
     1
 71
     1
 91
        1
 92
        1
 93
        1
 72
     4
 94
        3
 73
     0
 74
     0
 95
       42
 96
       38
 40
0.0
 40
0.0
 40
0.0
 40
0.0
 40
0.0264230592262032
 40
0.0552537595923694
 40
0.0755357457972711
 40
0.0892896003333554
 40
0.1046476915505295
 40
0.1211603181285543
 40
0.1493289164087185
 40
0.163488376884307
 40
0.187771651263758
 40
0.208376692843506
 40
0.2329509679569666
 40
0.2392893759109775
 40
0.2737595572374441
 40
0.3244730315396208
 40
0.3432191025686919
 40
0.3770051620342957
 40
0.4116844019351339
 40
0.4400553656573116
 40
0.4601888893045036
 40
0.4799644818709718
 40
0.4953991725220095
 40
0.5435217362792357
 40
0.5803363335157687
 40
0.6100612832721307
 40
0.6511165377696752
 40
0.6819629877465948
 40
0.7120742479771169
 40
0.7310214274506146
 40
0.7711583223759105
 40
0.8013790500262088
 40
0.8583863317301822
 40
0.9086770392878921
 40
0.9459943567462836
 40
0.9870955472072792
 40
1.0
 40
1.0
 40
1.0
 40
1.0
 10
4.950878432890022
 20
1.163619470603086
 10
4.93849478712562
 20
1.165841839576098
 10
4.912497928438626
 20
1.155848266076331
 10
4.880386317050807
 20
1.151422594969425
 10
4.845794858576909
 20
1.141131303189935
 10
4.848608975802279
 20
1.114934839425601
 10
4.851622015320061
 20
1.094552138610586
 10
4.862816630443547
 20
1.067961275005146
 10
4.859801095983443
 20
1.039734557946222
 10
4.853347307136602
 20
1.008899800173849
 10
4.837140789052825
 20
0.9865574938016781
 10
4.822643838602261
 20
0.9546841925967033
 10
4.790790696120638
 20
0.9553874106303208
 10
4.779760429472617
 20
0.9254169137974877
 10
4.748079098974557
 20
0.8954154363466209
 10
4.729073716239441
 20
0.8496446322321596
 10
4.708147859440913
 20
0.8061278049223315
 10
4.693400013508267
 20
0.7680508704794171
 10
4.68426551647795
 20
0.7226094850282578
 10
4.677405540406255
 20
0.6868550402295739
 10
4.676771075987091
 20
0.6479145829114028
 10
4.707910973050048
 20
0.6455815338734396
 10
4.741907295794476
 20
0.6272521185261937
 10
4.791705549659753
 20
0.6389397021182504
 10
4.844996143021149
 20
0.6453175427635554
 10
4.886313248168449
 20
0.6800003522435887
 10
4.897110873964834
 20
0.7275739172390647
 10
4.897816543305368
 20
0.7789244019519739
 10
4.932827821427082
 20
0.8004602233272458
 10
4.956234690714581
 20
0.8346036567292625
 10
5.01104488180917
 20
0.8448692287997286
 10
4.993923048508918
 20
0.9136859209652659
 10
5.007956819570694
 20
0.9748630849958548
 10
4.981450754721266
 20
1.041426079063562
 10
4.97415211398831
 20
1.098186425315417
 10
4.982188763389559
 20
1.151003110123842
 10
4.956926338652977
 20
1.162534113481689
 10
4.950878432890022
 20
1.163619470603086
 97
        1
330
398
 75
     0
 76
     1
 98
        1
 10
0.0
 20
0.0
  0
SPLINE
  5
398
102
{ACAD_REACTORS
330
12D8
102
}
330
12A8
100
AcDbEntity
  8
FEATURES
 62
    14
100
AcDbSpline
210
0.0
220
0.0
230
1.0
 70
    11
 71
     3
 72
    42
 73
    38
 74
     0
 42
0.0000000001
 43
0.00000001
 40
0.0
 40
0.0
 40
0.0
 40
0.0
 40
0.0264230592262032
 40
0.0552537595923694
 40
0.0755357457972711
 40
0.0892896003333554
 40
0.1046476915505295
 40
0.1211603181285543
 40
0.1493289164087185
 40
0.163488376884307
 40
0.187771651263758
 40
0.208376692843506
 40
0.2329509679569666
 40
0.2392893759109775
 40
0.2737595572374441
 40
0.3244730315396208
 40
0.3432191025686919
 40
0.3770051620342957
 40
0.4116844019351339
 40
0.4400553656573116
 40
0.4601888893045036
 40
0.4799644818709718
 40
0.4953991725220095
 40
0.5435217362792357
 40
0.5803363335157687
 40
0.6100612832721307
 40
0.6511165377696752
 40
0.6819629877465948
 40
0.7120742479771169
 40
0.7310214274506146
 40
0.7711583223759105
 40
0.8013790500262088
 40
0.8583863317301822
 40
0.9086770392878921
 40
0.9459943567462836
 40
0.9870955472072792
 40
1.0
 40
1.0
 40
1.0
 40
1.0
 10
4.950878432890022
 20
1.163619470603086
 30
0.0
 10
4.93849478712562
 20
1.165841839576098
 30
0.0
 10
4.912497928438626
 20
1.155848266076331
 30
0.0
 10
4.880386317050807
 20
1.151422594969425
 30
0.0
 10
4.845794858576909
 20
1.141131303189935
 30
0.0
 10
4.848608975802279
 20
1.114934839425601
 30
0.0
 10
4.851622015320061
 20
1.094552138610586
 30
0.0
 10
4.862816630443547
 20
1.067961275005146
 30
0.0
 10
4.859801095983443
 20
1.039734557946222
 30
0.0
 10
4.853347307136602
 20
1.008899800173849
 30
0.0
 10
4.837140789052825
 20
0.9865574938016781
 30
0.0
 10
4.822643838602261
 20
0.9546841925967033
 30
0.0
 10
4.790790696120638
 20
0.9553874106303208
 30
0.0
 10
4.779760429472617
 20
0.9254169137974877
 30
0.0
 10
4.748079098974557
 20
0.8954154363466209
 30
0.0
 10
4.729073716239441
 20
0.8496446322321596
 30
0.0
 10
4.708147859440913
 20
0.8061278049223315
 30
0.0
 10
4.693400013508267
 20
0.7680508704794171
 30
0.0
 10
4.68426551647795
 20
0.7226094850282578
 30
0.0
 10
4.677405540406255
 20
0.6868550402295739
 30
0.0
 10
4.676771075987091
 20
0.6479145829114028
 30
0.0
 10
4.707910973050048
 20
0.6455815338734396
 30
0.0
 10
4.741907295794476
 20
0.6272521185261937
 30
0.0
 10
4.791705549659753
 20
0.6389397021182504
 30
0.0
 10
4.844996143021149
 20
0.6453175427635554
 30
0.0
 10
4.886313248168449
 20
0.6800003522435887
 30
0.0
 10
4.897110873964834
 20
0.7275739172390647
 30
0.0
 10
4.897816543305368
 20
0.7789244019519739
 30
0.0
 10
4.932827821427082
 20
0.8004602233272458
 30
0.0
 10
4.956234690714581
 20
0.8346036567292625
 30
0.0
 10
5.01104488180917
 20
0.8448692287997286
 30
0.0
 10
4.993923048508918
 20
0.9136859209652659
 30
0.0
 10
5.007956819570694
 20
0.9748630849958548
 30
0.0
 10
4.981450754721266
 20
1.041426079063562
 30
0.0
 10
4.97415211398831
 20
1.098186425315417
 30
0.0
 10
4.982188763389559
 20
1.151003110123842
 30
0.0
 10
4.956926338652977
 20
1.162534113481689
 30
0.0
 10
4.950878432890022
 20
1.163619470603086
 30
0.0
  0
HATCH
  5
12D9
330
12A8
100
AcDbEntity
  8
FEATURES
 62
    12
100
AcDbHatch
 10
0.0
 20
0.0
 30
0.0
210
0.0
220
0.0
230
1.0
  2
SOLID
 70
     1
 71
     1
 91
        1
 92
        1
 93
        1
 72
     4
 94
        3
 73
     0
 74
     0
 95
       27
 96
       23
 40
0.0
 40
0.0
 40
0.0
 40
0.0
 40
0.0424152909464364
 40
0.0862902700122948
 40
0.1196048780987672
 40
0.1740014292926135
 40
0.1972458356916436
 40
0.2489208135790075
 40
0.3070108470822758
 40
0.3515715942680473
 40
0.3946862602328149
 40
0.4198642038046116
 40
0.4632269813261785
 40
0.5353797270097579
 40
0.5866001769010857
 40
0.6229123235246377
 40
0.7136926900835192
 40
0.8142494038102812
 40
0.9036331493451834
 40
0.9678777164483933
 40
0.9916202738560992
 40
1.0
 40
1.0
 40
1.0
 40
1.0
 10
5.000000000000028
 20
0.8528532040545809
 10
4.998386346161737
 20
0.860166483046056
 10
4.968336454236066
 20
0.8342782053992437
 10
4.962574728030603
 20
0.8137300393440476
 10
4.943036696748862
 20
0.7881560465503128
 10
4.934024232672243
 20
0.7648181734180017
 10
4.913975462450225
 20
0.7409148951926703
 10
4.923076849600363
 20
0.7081324133720628
 10
4.916870095837851
 20
0.6720184110347596
 10
4.89731962399739
 20
0.644977989862646
 10
4.880720687120345
 20
0.6224441571419668
 10
4.889743852869202
 20
0.5940089496348016
 10
4.928526160107822
 20
0.5934509310927396
 10
4.958503036595317
 20
0.589437935967867
 10
5.006205344312889
 20
0.5544021911658792
 10
4.996059482157079
 20
0.6107575835886987
 10
5.001566941344009
 20
0.6548336633127203
 10
4.999687128015381
 20
0.7226394302279164
 10
4.999836110608697
 20
0.7800013555770402
 10
5.000448785160103
 20
0.8220269967109353
 10
4.999572287268904
 20
0.8428716493757076
 10
5.000318799587518
 20
0.8514083648516664
 10
5.000000000000028
 20
0.8528532040545809
 97
        1
330
39B
 75
     0
 76
     1
 98
        1
 10
0.0
 20
0.0
  0
SPLINE
  5
39B
102
{ACAD_REACTORS
330
12D9
102
}
330
12A8
100
AcDbEntity
  8
FEATURES
 62
    14
100
AcDbSpline
210
0.0
220
0.0
230
1.0
 70
    11
 71
     3
 72
    27
 73
    23
 74
     0
 42
0.0000000001
 43
0.00000001
 40
0.0
 40
0.0
 40
0.0
 40
0.0
 40
0.0424152909464364
 40
0.0862902700122948
 40
0.1196048780987672
 40
0.1740014292926135
 40
0.1972458356916436
 40
0.2489208135790075
 40
0.3070108470822758
 40
0.3515715942680473
 40
0.3946862602328149
 40
0.4198642038046116
 40
0.4632269813261785
 40
0.5353797270097579
 40
0.5866001769010857
 40
0.6229123235246377
 40
0.7136926900835192
 40
0.8142494038102812
 40
0.9036331493451834
 40
0.9678777164483933
 40
0.9916202738560992
 40
1.0
 40
1.0
 40
1.0
 40
1.0
 10
5.000000000000028
 20
0.8528532040545809
 30
0.0
 10
4.998386346161737
 20
0.860166483046056
 30
0.0
 10
4.968336454236066
 20
0.8342782053992437
 30
0.0
 10
4.962574728030603
 20
0.8137300393440476
 30
0.0
 10
4.943036696748862
 20
0.7881560465503128
 30
0.0
 10
4.934024232672243
 20
0.7648181734180017
 30
0.0
 10
4.913975462450225
 20
0.7409148951926703
 30
0.0
 10
4.923076849600363
 20
0.7081324133720628
 30
0.0
 10
4.916870095837851
 20
0.6720184110347596
 30
0.0
 10
4.89731962399739
 20
0.644977989862646
 30
0.0
 10
4.880720687120345
 20
0.6224441571419668
 30
0.0
 10
4.889743852869202
 20
0.5940089496348016
 30
0.0
 10
4.928526160107822
 20
0.5934509310927396
 30
0.0
 10
4.958503036595317
 20
0.589437935967867
 30
0.0
 10
5.006205344312889
 20
0.5544021911658792
 30
0.0
 10
4.996059482157079
 20
0.6107575835886987
 30
0.0
 10
5.001566941344009
 20
0.6548336633127203
 30
0.0
 10
4.999687128015381
 20
0.7226394302279164
 30
0.0
 10
4.999836110608697
 20
0.7800013555770402
 30
0.0
 10
5.000448785160103
 20
0.8220269967109353
 30
0.0
 10
4.999572287268904
 20
0.8428716493757076
 30
0.0
 10
5.000318799587518
 20
0.8514083648516664
 30
0.0
 10
5.000000000000028
 20
0.8528532040545809
 30
0.0
  0
HATCH
  5
12DA
330
12A8
100
AcDbEntity
  8
FEATURES
 62
    12
100
AcDbHatch
 10
0.0
 20
0.0
 30
0.0
210
0.0
220
0.0
230
1.0
  2
SOLID
 70
     1
 71
     1
 91
        1
 92
        1
 93
        1
 72
     4
 94
        3
 73
     0
 74
     0
 95
       42
 96
       38
 40
0.0
 40
0.0
 40
0.0
 40
0.0
 40
0.087045917702412
 40
0.1464791523199374
 40
0.1875308214045167
 40
0.2062248697135082
 40
0.2289494236386389
 40
0.2406291711324096
 40
0.256500092883205
 40
0.2866725624914654
 40
0.3038460622074479
 40
0.3277017593997961
 40
0.3365159128252963
 40
0.35319033509954
 40
0.3775362679267975
 40
0.3989445415233124
 40
0.4151917953659547
 40
0.4304119196638652
 40
0.4469651169263991
 40
0.495727015088418
 40
0.576318496173254
 40
0.6358240560193688
 40
0.6846520645696614
 40
0.7174476932201781
 40
0.7638798512266172
 40
0.7975211483246988
 40
0.8131186835138862
 40
0.8296206768416575
 40
0.8428190130576662
 40
0.8602093479606855
 40
0.8726744432758144
 40
0.8867123738580013
 40
0.8976760345331438
 40
0.9182842172976838
 40
0.926834213277863
 40
0.955950587206868
 40
1.0
 40
1.0
 40
1.0
 40
1.0
 10
4.232224223773898
 20
0.8100747929933512
 10
4.206509649457985
 20
0.8406608557525299
 10
4.166605549247976
 20
0.8966163459540617
 10
4.104358550289902
 20
0.9610130557897829
 10
4.053857551008235
 20
0.9831627639479237
 10
4.018424048384958
 20
1.002371054036505
 10
4.009985876816188
 20
1.025631810054406
 10
4.000962928554287
 20
1.051015624702536
 10
3.969086473014926
 20
1.042921671467781
 10
3.941872474460098
 20
1.045336349820506
 10
3.908042852710963
 20
1.044749201098918
 10
3.885471673261378
 20
1.042501476441185
 10
3.861218449485364
 20
1.045914330751531
 10
3.845954558072606
 20
1.0239017373656
 10
3.829237264099902
 20
1.001945757503249
 10
3.811027047195466
 20
0.9787947107761514
 10
3.798894982121425
 20
0.9575959872228896
 10
3.79668478172772
 20
0.932415952006183
 10
3.830247309248875
 20
0.9092403942493021
 10
3.872302678207745
 20
0.857665309602794
 10
3.945152337371667
 20
0.8053714383747632
 10
4.009943590099653
 20
0.745730862701441
 10
4.058878387054364
 20
0.7020692962299044
 10
4.103739047976745
 20
0.6612493032545324
 10
4.152833712768029
 20
0.6435853766852162
 10
4.188526570398039
 20
0.6082737921793395
 10
4.221201140005661
 20
0.617596214303159
 10
4.234191062267257
 20
0.6341563187180448
 10
4.247640500068997
 20
0.6539167808828488
 10
4.273172737073054
 20
0.6475488407948102
 10
4.282108425048591
 20
0.6690522634414506
 10
4.306994256620897
 20
0.670405546326803
 10
4.296478342874622
 20
0.6955487281526125
 10
4.296983907540437
 20
0.7125322337583757
 10
4.296837908768822
 20
0.7405328560069364
 10
4.267702518788639
 20
0.7700217822517335
 10
4.245237032745763
 20
0.7945967770247915
 10
4.232224223773898
 20
0.8100747929933512
 97
        1
330
39E
 75
     0
 76
     1
 98
        1
 10
0.0
 20
0.0
  0
SPLINE
  5
39E
102
{ACAD_REACTORS
330
12DA
102
}
330
12A8
100
AcDbEntity
  8
FEATURES
 62
    14
100
AcDbSpline
210
0.0
220
0.0
230
1.0
 70
    11
 71
     3
 72
    42
 73
    38
 74
     0
 42
0.0000000001
 43
0.00000001
 40
0.0
 40
0.0
 40
0.0
 40
0.0
 40
0.087045917702412
 40
0.1464791523199374
 40
0.1875308214045167
 40
0.2062248697135082
 40
0.2289494236386389
 40
0.2406291711324096
 40
0.256500092883205
 40
0.2866725624914654
 40
0.3038460622074479
 40
0.3277017593997961
 40
0.3365159128252963
 40
0.35319033509954
 40
0.3775362679267975
 40
0.3989445415233124
 40
0.4151917953659547
 40
0.4304119196638652
 40
0.4469651169263991
 40
0.495727015088418
 40
0.576318496173254
 40
0.6358240560193688
 40
0.6846520645696614
 40
0.7174476932201781
 40
0.7638798512266172
 40
0.7975211483246988
 40
0.8131186835138862
 40
0.8296206768416575
 40
0.8428190130576662
 40
0.8602093479606855
 40
0.8726744432758144
 40
0.8867123738580013
 40
0.8976760345331438
 40
0.9182842172976838
 40
0.926834213277863
 40
0.955950587206868
 40
1.0
 40
1.0
 40
1.0
 40
1.0
 10
4.232224223773898
 20
0.8100747929933512
 30
0.0
 10
4.206509649457985
 20
0.8406608557525299
 30
0.0
 10
4.166605549247976
 20
0.8966163459540617
 30
0.0
 10
4.104358550289902
 20
0.9610130557897829
 30
0.0
 10
4.053857551008235
 20
0.9831627639479237
 30
0.0
 10
4.018424048384958
 20
1.002371054036505
 30
0.0
 10
4.009985876816188
 20
1.025631810054406
 30
0.0
 10
4.000962928554287
 20
1.051015624702536
 30
0.0
 10
3.969086473014926
 20
1.042921671467781
 30
0.0
 10
3.941872474460098
 20
1.045336349820506
 30
0.0
 10
3.908042852710963
 20
1.044749201098918
 30
0.0
 10
3.885471673261378
 20
1.042501476441185
 30
0.0
 10
3.861218449485364
 20
1.045914330751531
 30
0.0
 10
3.845954558072606
 20
1.0239017373656
 30
0.0
 10
3.829237264099902
 20
1.001945757503249
 30
0.0
 10
3.811027047195466
 20
0.9787947107761514
 30
0.0
 10
3.798894982121425
 20
0.9575959872228896
 30
0.0
 10
3.79668478172772
 20
0.932415952006183
 30
0.0
 10
3.830247309248875
 20
0.9092403942493021
 30
0.0
 10
3.872302678207745
 20
0.857665309602794
 30
0.0
 10
3.945152337371667
 20
0.8053714383747632
 30
0.0
 10
4.009943590099653
 20
0.745730862701441
 30
0.0
 10
4.058878387054364
 20
0.7020692962299044
 30
0.0
 10
4.103739047976745
 20
0.6612493032545324
 30
0.0
 10
4.152833712768029
 20
0.6435853766852162
 30
0.0
 10
4.188526570398039
 20
0.6082737921793395
 30
0.0
 10
4.221201140005661
 20
0.617596214303159
 30
0.0
 10
4.234191062267257
 20
0.6341563187180448
 30
0.0
 10
4.247640500068997
 20
0.6539167808828488
 30
0.0
 10
4.273172737073054
 20
0.6475488407948102
 30
0.0
 10
4.282108425048591
 20
0.6690522634414506
 30
0.0
 10
4.306994256620897
 20
0.670405546326803
 30
0.0
 10
4.296478342874622
 20
0.6955487281526125
 30
0.0
 10
4.296983907540437
 20
0.7125322337583757
 30
0.0
 10
4.296837908768822
 20
0.7405328560069364
 30
0.0
 10
4.267702518788639
 20
0.7700217822517335
 30
0.0
 10
4.245237032745763
 20
0.7945967770247915
 30
0.0
 10
4.232224223773898
 20
0.8100747929933512
 30
0.0
  0
HATCH
  5
12DB
330
12A8
100
AcDbEntity
  8
FEATURES
 62
    12
100
AcDbHatch
 10
0.0
 20
0.0
 30
0.0
210
0.0
220
0.0
230
1.0
  2
SOLID
 70
     1
 71
     1
 91
        1
 92
        1
 93
        1
 72
     4
 94
        3
 73
     0
 74
     0
 95
       27
 96
       23
 40
0.0
 40
0.0
 40
0.0
 40
0.0
 40
0.0504611183983056
 40
0.086818514338995
 40
0.1135287331191752
 40
0.1668477857208581
 40
0.2540332064490438
 40
0.3540097814112644
 40
0.4015760865188083
 40
0.4576611145566358
 40
0.4915537653655185
 40
0.5096827871289198
 40
0.5501710457264997
 40
0.5846150234486979
 40
0.5981638032058416
 40
0.6290299228301249
 40
0.6943490355914905
 40
0.7725661199099034
 40
0.8452064611780212
 40
0.9237329527623298
 40
0.9744792092429708
 40
1.0
 40
1.0
 40
1.0
 40
1.0
 10
2.16877915854846
 20
0.4564514342751558
 10
2.159822864974956
 20
0.4602670456671536
 10
2.142004587488941
 20
0.4416433800519002
 10
2.107322807680475
 20
0.4309885244826432
 10
2.131733090215192
 20
0.4052526410068502
 10
2.145227355067846
 20
0.371985229113367
 10
2.179720235882343
 20
0.3241616417178772
 10
2.199483377546414
 20
0.2734826972959592
 10
2.221175515851712
 20
0.2294204967198912
 10
2.237900806478933
 20
0.2055896132726645
 10
2.247209692709902
 20
0.1733069646689422
 10
2.270869590506123
 20
0.1819659559983453
 10
2.28918952588316
 20
0.191797249298137
 10
2.306218312630051
 20
0.2030023528373821
 10
2.320433142553441
 20
0.2179054312358986
 10
2.298628687890726
 20
0.2426511970628269
 10
2.279643410756336
 20
0.2741784935605196
 10
2.255054678582553
 20
0.320592082790192
 10
2.227151314401851
 20
0.3659396689533949
 10
2.204461933447561
 20
0.4090232646334329
 10
2.185775121367499
 20
0.4375639095566797
 10
2.173308818244948
 20
0.4545216827548533
 10
2.16877915854846
 20
0.4564514342751558
 97
        1
330
3A1
 75
     0
 76
     1
 98
        1
 10
0.0
 20
0.0
  0
SPLINE
  5
3A1
102
{ACAD_REACTORS
330
12DB
102
}
330
12A8
100
AcDbEntity
  8
FEATURES
 62
    14
100
AcDbSpline
210
0.0
220
0.0
230
1.0
 70
    11
 71
     3
 72
    27
 73
    23
 74
     0
 42
0.0000000001
 43
0.00000001
 40
0.0
 40
0.0
 40
0.0
 40
0.0
 40
0.0504611183983056
 40
0.086818514338995
 40
0.1135287331191752
 40
0.1668477857208581
 40
0.2540332064490438
 40
0.3540097814112644
 40
0.4015760865188083
 40
0.4576611145566358
 40
0.4915537653655185
 40
0.5096827871289198
 40
0.5501710457264997
 40
0.5846150234486979
 40
0.5981638032058416
 40
0.6290299228301249
 40
0.6943490355914905
 40
0.7725661199099034
 40
0.8452064611780212
 40
0.9237329527623298
 40
0.9744792092429708
 40
1.0
 40
1.0
 40
1.0
 40
1.0
 10
2.16877915854846
 20
0.4564514342751558
 30
0.0
 10
2.159822864974956
 20
0.4602670456671536
 30
0.0
 10
2.142004587488941
 20
0.4416433800519002
 30
0.0
 10
2.107322807680475
 20
0.4309885244826432
 30
0.0
 10
2.131733090215192
 20
0.4052526410068502
 30
0.0
 10
2.145227355067846
 20
0.371985229113367
 30
0.0
 10
2.179720235882343
 20
0.3241616417178772
 30
0.0
 10
2.199483377546414
 20
0.2734826972959592
 30
0.0
 10
2.221175515851712
 20
0.2294204967198912
 30
0.0
 10
2.237900806478933
 20
0.2055896132726645
 30
0.0
 10
2.247209692709902
 20
0.1733069646689422
 30
0.0
 10
2.270869590506123
 20
0.1819659559983453
 30
0.0
 10
2.28918952588316
 20
0.191797249298137
 30
0.0
 10
2.306218312630051
 20
0.2030023528373821
 30
0.0
 10
2.320433142553441
 20
0.2179054312358986
 30
0.0
 10
2.298628687890726
 20
0.2426511970628269
 30
0.0
 10
2.279643410756336
 20
0.2741784935605196
 30
0.0
 10
2.255054678582553
 20
0.320592082790192
 30
0.0
 10
2.227151314401851
 20
0.3659396689533949
 30
0.0
 10
2.204461933447561
 20
0.4090232646334329
 30
0.0
 10
2.185775121367499
 20
0.4375639095566797
 30
0.0
 10
2.173308818244948
 20
0.4545216827548533
 30
0.0
 10
2.16877915854846
 20
0.4564514342751558
 30
0.0
  0
HATCH
  5
12DC
330
12A8
100
AcDbEntity
  8
FEATURES
 62
    12
100
AcDbHatch
 10
0.0
 20
0.0
 30
0.0
210
0.0
220
0.0
230
1.0
  2
SOLID
 70
     1
 71
     1
 91
        1
 92
        1
 93
        1
 72
     4
 94
        3
 73
     0
 74
     0
 95
       26
 96
       22
 40
0.0
 40
0.0
 40
0.0
 40
0.0
 40
0.1015519681613779
 40
0.1857377103598664
 40
0.2866185034073158
 40
0.3871977668451755
 40
0.4387676831928275
 40
0.4890517736598107
 40
0.5431377278295246
 40
0.553576144986056
 40
0.5655205959563043
 40
0.6155379843943231
 40
0.6789928801738396
 40
0.724531099498009
 40
0.7648436215227544
 40
0.8088887844756238
 40
0.849201306500319
 40
0.9096700895372357
 40
0.9559548370471307
 40
0.9910416617723011
 40
1.0
 40
1.0
 40
1.0
 40
1.0
 10
2.937200521974631
 20
0.0000000000000071
 10
2.95928320773757
 20
0.0018917249086599
 10
2.881977297642237
 20
0.0676750811447562
 10
2.833887682531753
 20
0.0959229653027567
 10
2.754940406761591
 20
0.0935519336679018
 10
2.691477360865605
 20
0.0916055804986708
 10
2.644200069064141
 20
0.0730915328269042
 10
2.60911384048984
 20
0.0467342591949027
 10
2.608392053781841
 20
0.0210603919488932
 10
2.596113614202608
 20
-0.0023130507131466
 10
2.621737552583824
 20
0.0031117963579597
 10
2.64705091686281
 20
-0.0016008157862295
 10
2.689829811191913
 20
0.0003281711479968
 10
2.727015974204392
 20
-0.0000653120922998
 10
2.759947006161525
 20
0.0000176385835999
 10
2.791404058598715
 20
-0.0000014707579474
 10
2.828030112159468
 20
-0.0000108042730282
 10
2.865030156730967
 20
0.000066409541132
 10
2.901301960960751
 20
-0.0001649704124418
 10
2.923212760860878
 20
0.0003163753483477
 10
2.935252512776771
 20
-0.0001668772341059
 10
2.937200521974631
 20
0.0000000000000071
 97
        1
330
3A4
 75
     0
 76
     1
 98
        1
 10
0.0
 20
0.0
  0
SPLINE
  5
3A4
102
{ACAD_REACTORS
330
12DC
102
}
330
12A8
100
AcDbEntity
  8
FEATURES
 62
    14
100
AcDbSpline
210
0.0
220
0.0
230
1.0
 70
    11
 71
     3
 72
    26
 73
    22
 74
     0
 42
0.0000000001
 43
0.00000001
 40
0.0
 40
0.0
 40
0.0
 40
0.0
 40
0.1015519681613779
 40
0.1857377103598664
 40
0.2866185034073158
 40
0.3871977668451755
 40
0.4387676831928275
 40
0.4890517736598107
 40
0.5431377278295246
 40
0.553576144986056
 40
0.5655205959563043
 40
0.6155379843943231
 40
0.6789928801738396
 40
0.724531099498009
 40
0.7648436215227544
 40
0.8088887844756238
 40
0.849201306500319
 40
0.9096700895372357
 40
0.9559548370471307
 40
0.9910416617723011
 40
1.0
 40
1.0
 40
1.0
 40
1.0
 10
2.937200521974631
 20
0.0000000000000071
 30
0.0
 10
2.95928320773757
 20
0.0018917249086599
 30
0.0
 10
2.881977297642237
 20
0.0676750811447562
 30
0.0
 10
2.833887682531753
 20
0.0959229653027567
 30
0.0
 10
2.754940406761591
 20
0.0935519336679018
 30
0.0
 10
2.691477360865605
 20
0.0916055804986708
 30
0.0
 10
2.644200069064141
 20
0.0730915328269042
 30
0.0
 10
2.60911384048984
 20
0.0467342591949027
 30
0.0
 10
2.608392053781841
 20
0.0210603919488932
 30
0.0
 10
2.596113614202608
 20
-0.0023130507131466
 30
0.0
 10
2.621737552583824
 20
0.0031117963579597
 30
0.0
 10
2.64705091686281
 20
-0.0016008157862295
 30
0.0
 10
2.689829811191913
 20
0.0003281711479968
 30
0.0
 10
2.727015974204392
 20
-0.0000653120922998
 30
0.0
 10
2.759947006161525
 20
0.0000176385835999
 30
0.0
 10
2.791404058598715
 20
-0.0000014707579474
 30
0.0
 10
2.828030112159468
 20
-0.0000108042730282
 30
0.0
 10
2.865030156730967
 20
0.000066409541132
 30
0.0
 10
2.901301960960751
 20
-0.0001649704124418
 30
0.0
 10
2.923212760860878
 20
0.0003163753483477
 30
0.0
 10
2.935252512776771
 20
-0.0001668772341059
 30
0.0
 10
2.937200521974631
 20
0.0000000000000071
 30
0.0
  0
HATCH
  5
12DD
330
12A8
100
AcDbEntity
  8
FEATURES
 62
    12
100
AcDbHatch
 10
0.0
 20
0.0
 30
0.0
210
0.0
220
0.0
230
1.0
  2
SOLID
 70
     1
 71
     1
 91
        1
 92
        1
 93
        1
 72
     4
 94
        3
 73
     0
 74
     0
 95
       32
 96
       28
 40
0.0
 40
0.0
 40
0.0
 40
0.0
 40
0.1380517993858479
 40
0.1910383220787749
 40
0.2121048595110769
 40
0.2415117921355685
 40
0.2951251488071279
 40
0.3425200852922116
 40
0.3645555513855971
 40
0.3809722822897615
 40
0.4050369942777186
 40
0.4321996317788689
 40
0.4717138144570269
 40
0.5105815192510423
 40
0.5457804123419295
 40
0.5725299058047463
 40
0.5971436932757324
 40
0.6442085117574431
 40
0.6860231961032796
 40
0.7136331526239184
 40
0.7490842577579733
 40
0.7847935908869591
 40
0.8382925778125533
 40
0.8718307726488077
 40
0.9128997260372718
 40
0.9414613443436195
 40
1.0
 40
1.0
 40
1.0
 40
1.0
 10
3.15219952729899
 20
0.1875007835920588
 10
3.116922222948233
 20
0.189341115543705
 10
3.069150400251146
 20
0.1834498041593591
 10
3.01536715211148
 20
0.1923020029017692
 10
2.9893644722967
 20
0.1829705169116114
 10
2.977255339981326
 20
0.1580267400039368
 10
2.95661311367013
 20
0.1327314059581859
 10
2.940633126930692
 20
0.1062577670202494
 10
2.92761354327655
 20
0.0881424531306703
 10
2.927797711335018
 20
0.0713269556553957
 10
2.937532939690414
 20
0.0571310439249526
 10
2.956044313668116
 20
0.0393273145233763
 10
2.983770989996401
 20
0.0542688386112644
 10
3.011637241208234
 20
0.0520211513379092
 10
3.038737407581493
 20
0.0544497103229684
 10
3.055943466602685
 20
0.0389069436257525
 10
3.081014614394292
 20
0.0344653307056646
 10
3.109339295705183
 20
0.0346003488572837
 10
3.139568604081546
 20
0.0327101541806307
 10
3.163979056104267
 20
0.0427699908035777
 10
3.188845318902537
 20
0.052862754929027
 10
3.19764713273392
 20
0.085619042962243
 10
3.215514326631762
 20
0.1097728878694451
 10
3.231866918963135
 20
0.1403548156659404
 10
3.21751196028552
 20
0.1669411752774597
 10
3.189617745672905
 20
0.1839279908202869
 10
3.167158303505175
 20
0.1867204202871964
 10
3.15219952729899
 20
0.1875007835920588
 97
        1
330
3A7
 75
     0
 76
     1
 98
        1
 10
0.0
 20
0.0
  0
SPLINE
  5
3A7
102
{ACAD_REACTORS
330
12DD
102
}
330
12A8
100
AcDbEntity
  8
FEATURES
 62
    14
100
AcDbSpline
210
0.0
220
0.0
230
1.0
 70
    11
 71
     3
 72
    32
 73
    28
 74
     0
 42
0.0000000001
 43
0.00000001
 40
0.0
 40
0.0
 40
0.0
 40
0.0
 40
0.1380517993858479
 40
0.1910383220787749
 40
0.2121048595110769
 40
0.2415117921355685
 40
0.2951251488071279
 40
0.3425200852922116
 40
0.3645555513855971
 40
0.3809722822897615
 40
0.4050369942777186
 40
0.4321996317788689
 40
0.4717138144570269
 40
0.5105815192510423
 40
0.5457804123419295
 40
0.5725299058047463
 40
0.5971436932757324
 40
0.6442085117574431
 40
0.6860231961032796
 40
0.7136331526239184
 40
0.7490842577579733
 40
0.7847935908869591
 40
0.8382925778125533
 40
0.8718307726488077
 40
0.9128997260372718
 40
0.9414613443436195
 40
1.0
 40
1.0
 40
1.0
 40
1.0
 10
3.15219952729899
 20
0.1875007835920588
 30
0.0
 10
3.116922222948233
 20
0.189341115543705
 30
0.0
 10
3.069150400251146
 20
0.1834498041593591
 30
0.0
 10
3.01536715211148
 20
0.1923020029017692
 30
0.0
 10
2.9893644722967
 20
0.1829705169116114
 30
0.0
 10
2.977255339981326
 20
0.1580267400039368
 30
0.0
 10
2.95661311367013
 20
0.1327314059581859
 30
0.0
 10
2.940633126930692
 20
0.1062577670202494
 30
0.0
 10
2.92761354327655
 20
0.0881424531306703
 30
0.0
 10
2.927797711335018
 20
0.0713269556553957
 30
0.0
 10
2.937532939690414
 20
0.0571310439249526
 30
0.0
 10
2.956044313668116
 20
0.0393273145233763
 30
0.0
 10
2.983770989996401
 20
0.0542688386112644
 30
0.0
 10
3.011637241208234
 20
0.0520211513379092
 30
0.0
 10
3.038737407581493
 20
0.0544497103229684
 30
0.0
 10
3.055943466602685
 20
0.0389069436257525
 30
0.0
 10
3.081014614394292
 20
0.0344653307056646
 30
0.0
 10
3.109339295705183
 20
0.0346003488572837
 30
0.0
 10
3.139568604081546
 20
0.0327101541806307
 30
0.0
 10
3.163979056104267
 20
0.0427699908035777
 30
0.0
 10
3.188845318902537
 20
0.052862754929027
 30
0.0
 10
3.19764713273392
 20
0.085619042962243
 30
0.0
 10
3.215514326631762
 20
0.1097728878694451
 30
0.0
 10
3.231866918963135
 20
0.1403548156659404
 30
0.0
 10
3.21751196028552
 20
0.1669411752774597
 30
0.0
 10
3.189617745672905
 20
0.1839279908202869
 30
0.0
 10
3.167158303505175
 20
0.1867204202871964
 30
0.0
 10
3.15219952729899
 20
0.1875007835920588
 30
0.0
  0
HATCH
  5
12DE
330
12A8
100
AcDbEntity
  8
FEATURES
 62
    12
100
AcDbHatch
 10
0.0
 20
0.0
 30
0.0
210
0.0
220
0.0
230
1.0
  2
SOLID
 70
     1
 71
     1
 91
        1
 92
        1
 93
        1
 72
     4
 94
        3
 73
     0
 74
     0
 95
       33
 96
       29
 40
0.0
 40
0.0
 40
0.0
 40
0.0
 40
0.0629380458657882
 40
0.1468444756251002
 40
0.2210804853023975
 40
0.2462016333979067
 40
0.2807581918867059
 40
0.3012978344457674
 40
0.3373360546734914
 40
0.3897727684567086
 40
0.4373095290451678
 40
0.4657504849370316
 40
0.4970580960489926
 40
0.5404739411168938
 40
0.6052008212059293
 40
0.667312877238518
 40
0.7017430859130889
 40
0.739557582057878
 40
0.7631949554386779
 40
0.7981091024346464
 40
0.8319520267967719
 40
0.8535769743998927
 40
0.878974187356889
 40
0.8931024233913673
 40
0.9287759979464099
 40
0.9499117222613961
 40
0.9735767363143536
 40
1.0
 40
1.0
 40
1.0
 40
1.0
 10
3.434044833292262
 20
0.5437175851241705
 10
3.413317450275457
 20
0.5458000928185278
 10
3.363273899195917
 20
0.5334047119133185
 10
3.287200802603508
 20
0.5407844546591836
 10
3.229416173758295
 20
0.549364799140049
 10
3.179417946995244
 20
0.5607369697617361
 10
3.166789377736706
 20
0.5310111697226105
 10
3.137713437625933
 20
0.5132870605871922
 10
3.156541537082887
 20
0.4712852086870232
 10
3.161325930735529
 20
0.4286913372586536
 10
3.167020784794744
 20
0.3847063960731258
 10
3.17874408290831
 20
0.3499994068321826
 10
3.206009006696803
 20
0.3240749565385208
 10
3.255558624912027
 20
0.3243811593769887
 10
3.312250495878402
 20
0.318910057771987
 10
3.366936721942977
 20
0.3278765636104204
 10
3.412641952201881
 20
0.3185053995354146
 10
3.443804931467014
 20
0.3292456960395302
 10
3.473950428607822
 20
0.3467533673858654
 10
3.475314864531072
 20
0.3813003697052828
 10
3.484996929720552
 20
0.4102136142315675
 10
3.50436827825493
 20
0.4314365341959139
 10
3.500429638325784
 20
0.4552835862881093
 10
3.480443416467239
 20
0.4731915897860901
 10
3.488654844125449
 20
0.4996627315626707
 10
3.483671951555721
 20
0.5287252152491302
 10
3.459001325972423
 20
0.5387151034992286
 10
3.442746805198652
 20
0.5428432864519053
 10
3.434044833292262
 20
0.5437175851241705
 97
        1
330
3AA
 75
     0
 76
     1
 98
        1
 10
0.0
 20
0.0
  0
SPLINE
  5
3AA
102
{ACAD_REACTORS
330
12DE
102
}
330
12A8
100
AcDbEntity
  8
FEATURES
 62
    14
100
AcDbSpline
210
0.0
220
0.0
230
1.0
 70
    11
 71
     3
 72
    33
 73
    29
 74
     0
 42
0.0000000001
 43
0.00000001
 40
0.0
 40
0.0
 40
0.0
 40
0.0
 40
0.0629380458657882
 40
0.1468444756251002
 40
0.2210804853023975
 40
0.2462016333979067
 40
0.2807581918867059
 40
0.3012978344457674
 40
0.3373360546734914
 40
0.3897727684567086
 40
0.4373095290451678
 40
0.4657504849370316
 40
0.4970580960489926
 40
0.5404739411168938
 40
0.6052008212059293
 40
0.667312877238518
 40
0.7017430859130889
 40
0.739557582057878
 40
0.7631949554386779
 40
0.7981091024346464
 40
0.8319520267967719
 40
0.8535769743998927
 40
0.878974187356889
 40
0.8931024233913673
 40
0.9287759979464099
 40
0.9499117222613961
 40
0.9735767363143536
 40
1.0
 40
1.0
 40
1.0
 40
1.0
 10
3.434044833292262
 20
0.5437175851241705
 30
0.0
 10
3.413317450275457
 20
0.5458000928185278
 30
0.0
 10
3.363273899195917
 20
0.5334047119133185
 30
0.0
 10
3.287200802603508
 20
0.5407844546591836
 30
0.0
 10
3.229416173758295
 20
0.549364799140049
 30
0.0
 10
3.179417946995244
 20
0.5607369697617361
 30
0.0
 10
3.166789377736706
 20
0.5310111697226105
 30
0.0
 10
3.137713437625933
 20
0.5132870605871922
 30
0.0
 10
3.156541537082887
 20
0.4712852086870232
 30
0.0
 10
3.161325930735529
 20
0.4286913372586536
 30
0.0
 10
3.167020784794744
 20
0.3847063960731258
 30
0.0
 10
3.17874408290831
 20
0.3499994068321826
 30
0.0
 10
3.206009006696803
 20
0.3240749565385208
 30
0.0
 10
3.255558624912027
 20
0.3243811593769887
 30
0.0
 10
3.312250495878402
 20
0.318910057771987
 30
0.0
 10
3.366936721942977
 20
0.3278765636104204
 30
0.0
 10
3.412641952201881
 20
0.3185053995354146
 30
0.0
 10
3.443804931467014
 20
0.3292456960395302
 30
0.0
 10
3.473950428607822
 20
0.3467533673858654
 30
0.0
 10
3.475314864531072
 20
0.3813003697052828
 30
0.0
 10
3.484996929720552
 20
0.4102136142315675
 30
0.0
 10
3.50436827825493
 20
0.4314365341959139
 30
0.0
 10
3.500429638325784
 20
0.4552835862881093
 30
0.0
 10
3.480443416467239
 20
0.4731915897860901
 30
0.0
 10
3.488654844125449
 20
0.4996627315626707
 30
0.0
 10
3.483671951555721
 20
0.5287252152491302
 30
0.0
 10
3.459001325972423
 20
0.5387151034992286
 30
0.0
 10
3.442746805198652
 20
0.5428432864519053
 30
0.0
 10
3.434044833292262
 20
0.5437175851241705
 30
0.0
  0
HATCH
  5
12DF
330
12A8
100
AcDbEntity
  8
FEATURES
 62
    12
100
AcDbHatch
 10
0.0
 20
0.0
 30
0.0
210
0.0
220
0.0
230
1.0
  2
SOLID
 70
     1
 71
     1
 91
        1
 92
        1
 93
        1
 72
     4
 94
        3
 73
     0
 74
     0
 95
       42
 96
       38
 40
0.0
 40
0.0
 40
0.0
 40
0.0
 40
0.0431570176096279
 40
0.0889046185028366
 40
0.1338484812382402
 40
0.1881190411003893
 40
0.222056900084549
 40
0.2336390471654058
 40
0.2639677467002622
 40
0.2829674807211753
 40
0.2937081319614852
 40
0.3018542007181645
 40
0.324916906295055
 40
0.3807799899827037
 40
0.4032144103232082
 40
0.430781732086688
 40
0.4393662951128474
 40
0.4596715625901411
 40
0.5026840398605273
 40
0.5320551084561886
 40
0.5487251028406153
 40
0.5775488364828766
 40
0.6192085092022421
 40
0.6382350903949768
 40
0.6645247962773024
 40
0.6877638922294296
 40
0.7233665356860923
 40
0.7489995341093898
 40
0.7845361643044118
 40
0.8205266724197481
 40
0.8656337865309495
 40
0.888072757002387
 40
0.9107785713289837
 40
0.9182308801386524
 40
0.9406653004791654
 40
0.9690284530967491
 40
1.0
 40
1.0
 40
1.0
 40
1.0
 10
3.877999424607339
 20
0.7585044031537738
 10
3.86014545535275
 20
0.7605340055301522
 10
3.821773458240557
 20
0.7382038188555331
 10
3.76784123458512
 20
0.7191488638031931
 10
3.703600473935836
 20
0.7056432856414698
 10
3.645610703416082
 20
0.7159636688629085
 10
3.599927390003074
 20
0.7100771171039746
 10
3.569386429834111
 20
0.725445844027572
 10
3.540632805348338
 20
0.721066707304507
 10
3.516452093881753
 20
0.7261299616771542
 10
3.495883849111209
 20
0.721633929824927
 10
3.499009214190153
 20
0.7004869001504019
 10
3.495238755619454
 20
0.6641128711046367
 10
3.487695931868188
 20
0.6191682053514391
 10
3.477856431468894
 20
0.572813727348473
 10
3.48023667989591
 20
0.5480653748645725
 10
3.477349965486439
 20
0.5205432354177368
 10
3.518482975652006
 20
0.5151376226164164
 10
3.545092425382649
 20
0.4864469635443829
 10
3.581619097849256
 20
0.4698403069855566
 10
3.60780600347411
 20
0.4484140340477989
 10
3.648435921125667
 20
0.4481740101664702
 10
3.686743574759646
 20
0.4435583311050912
 10
3.726027867918845
 20
0.4440880774223519
 10
3.752850536843084
 20
0.4598945520471602
 10
3.785954591380914
 20
0.4771720299786821
 10
3.822639357467722
 20
0.4881151713194765
 10
3.854011770668336
 20
0.5181819439142927
 10
3.882300926900768
 20
0.5503028381551118
 10
3.912458538200269
 20
0.5922025295080289
 10
3.948570369951142
 20
0.62205743538488
 10
3.965658939402346
 20
0.6586458436256599
 10
3.969223420071842
 20
0.6824971936934681
 10
3.963528119209116
 20
0.705142125109111
 10
3.947844902393655
 20
0.7275651647957151
 10
3.914596271552796
 20
0.7415597342786917
 10
3.890812289740381
 20
0.7570478630896851
 10
3.877999424607339
 20
0.7585044031537738
 97
        1
330
3AD
 75
     0
 76
     1
 98
        1
 10
0.0
 20
0.0
  0
SPLINE
  5
3AD
102
{ACAD_REACTORS
330
12DF
102
}
330
12A8
100
AcDbEntity
  8
FEATURES
 62
    14
100
AcDbSpline
210
0.0
220
0.0
230
1.0
 70
    11
 71
     3
 72
    42
 73
    38
 74
     0
 42
0.0000000001
 43
0.00000001
 40
0.0
 40
0.0
 40
0.0
 40
0.0
 40
0.0431570176096279
 40
0.0889046185028366
 40
0.1338484812382402
 40
0.1881190411003893
 40
0.222056900084549
 40
0.2336390471654058
 40
0.2639677467002622
 40
0.2829674807211753
 40
0.2937081319614852
 40
0.3018542007181645
 40
0.324916906295055
 40
0.3807799899827037
 40
0.4032144103232082
 40
0.430781732086688
 40
0.4393662951128474
 40
0.4596715625901411
 40
0.5026840398605273
 40
0.5320551084561886
 40
0.5487251028406153
 40
0.5775488364828766
 40
0.6192085092022421
 40
0.6382350903949768
 40
0.6645247962773024
 40
0.6877638922294296
 40
0.7233665356860923
 40
0.7489995341093898
 40
0.7845361643044118
 40
0.8205266724197481
 40
0.8656337865309495
 40
0.888072757002387
 40
0.9107785713289837
 40
0.9182308801386524
 40
0.9406653004791654
 40
0.9690284530967491
 40
1.0
 40
1.0
 40
1.0
 40
1.0
 10
3.877999424607339
 20
0.7585044031537738
 30
0.0
 10
3.86014545535275
 20
0.7605340055301522
 30
0.0
 10
3.821773458240557
 20
0.7382038188555331
 30
0.0
 10
3.76784123458512
 20
0.7191488638031931
 30
0.0
 10
3.703600473935836
 20
0.7056432856414698
 30
0.0
 10
3.645610703416082
 20
0.7159636688629085
 30
0.0
 10
3.599927390003074
 20
0.7100771171039746
 30
0.0
 10
3.569386429834111
 20
0.725445844027572
 30
0.0
 10
3.540632805348338
 20
0.721066707304507
 30
0.0
 10
3.516452093881753
 20
0.7261299616771542
 30
0.0
 10
3.495883849111209
 20
0.721633929824927
 30
0.0
 10
3.499009214190153
 20
0.7004869001504019
 30
0.0
 10
3.495238755619454
 20
0.6641128711046367
 30
0.0
 10
3.487695931868188
 20
0.6191682053514391
 30
0.0
 10
3.477856431468894
 20
0.572813727348473
 30
0.0
 10
3.48023667989591
 20
0.5480653748645725
 30
0.0
 10
3.477349965486439
 20
0.5205432354177368
 30
0.0
 10
3.518482975652006
 20
0.5151376226164164
 30
0.0
 10
3.545092425382649
 20
0.4864469635443829
 30
0.0
 10
3.581619097849256
 20
0.4698403069855566
 30
0.0
 10
3.60780600347411
 20
0.4484140340477989
 30
0.0
 10
3.648435921125667
 20
0.4481740101664702
 30
0.0
 10
3.686743574759646
 20
0.4435583311050912
 30
0.0
 10
3.726027867918845
 20
0.4440880774223519
 30
0.0
 10
3.752850536843084
 20
0.4598945520471602
 30
0.0
 10
3.785954591380914
 20
0.4771720299786821
 30
0.0
 10
3.822639357467722
 20
0.4881151713194765
 30
0.0
 10
3.854011770668336
 20
0.5181819439142927
 30
0.0
 10
3.882300926900768
 20
0.5503028381551118
 30
0.0
 10
3.912458538200269
 20
0.5922025295080289
 30
0.0
 10
3.948570369951142
 20
0.62205743538488
 30
0.0
 10
3.965658939402346
 20
0.6586458436256599
 30
0.0
 10
3.969223420071842
 20
0.6824971936934681
 30
0.0
 10
3.963528119209116
 20
0.705142125109111
 30
0.0
 10
3.947844902393655
 20
0.7275651647957151
 30
0.0
 10
3.914596271552796
 20
0.7415597342786917
 30
0.0
 10
3.890812289740381
 20
0.7570478630896851
 30
0.0
 10
3.877999424607339
 20
0.7585044031537738
 30
0.0
  0
HATCH
  5
12E0
330
12A8
100
AcDbEntity
  8
FEATURES
 62
    12
100
AcDbHatch
 10
0.0
 20
0.0
 30
0.0
210
0.0
220
0.0
230
1.0
  2
SOLID
 70
     1
 71
     1
 91
        1
 92
        1
 93
        1
 72
     4
 94
        3
 73
     0
 74
     0
 95
       26
 96
       22
 40
0.0
 40
0.0
 40
0.0
 40
0.0
 40
0.0756001358987517
 40
0.1424614849482197
 40
0.1736414622219754
 40
0.1973021696748281
 40
0.2159984744979097
 40
0.2690471803290188
 40
0.3359697670793707
 40
0.3849082601177412
 40
0.4484503449079559
 40
0.5256080038461921
 40
0.596204350944215
 40
0.6459387274128713
 40
0.6576239179273249
 40
0.6973535656763706
 40
0.7838239754831104
 40
0.8445869661581407
 40
0.9544277569937474
 40
0.9684499856110436
 40
1.0
 40
1.0
 40
1.0
 40
1.0
 10
4.518180611518517
 20
0.0000000000000018
 10
4.535619801230069
 20
0.0068915142708743
 10
4.51496399395316
 20
0.0764424499650467
 10
4.509193498711795
 20
0.1229776834764227
 10
4.517475395214291
 20
0.1626847059125733
 10
4.527890733303252
 20
0.1822933462967775
 10
4.530389316954313
 20
0.2190784384454645
 10
4.465098209138091
 20
0.1908677249028958
 10
4.424780556622807
 20
0.1752830149052365
 10
4.376482397007663
 20
0.1402218866649658
 10
4.325532397091251
 20
0.1121431485654369
 10
4.269738287699397
 20
0.0639844113319548
 10
4.224094495417575
 20
0.0540833026468377
 10
4.165472114415167
 20
-0.0022653843595233
 10
4.203423209956043
 20
0.0010411286566647
 10
4.243619418614941
 20
-0.0009087961118244
 10
4.304949381015234
 20
0.0001514462398244
 10
4.385616624729749
 20
0.0001046769366049
 10
4.445347700530647
 20
-0.0008980888803141
 10
4.493245625914881
 20
0.0005210721185342
 10
4.510902758379927
 20
-0.0028760183010625
 10
4.518180611518517
 20
0.0000000000000018
 97
        1
330
3B0
 75
     0
 76
     1
 98
        1
 10
0.0
 20
0.0
  0
SPLINE
  5
3B0
102
{ACAD_REACTORS
330
12E0
102
}
330
12A8
100
AcDbEntity
  8
FEATURES
 62
    14
100
AcDbSpline
210
0.0
220
0.0
230
1.0
 70
    11
 71
     3
 72
    26
 73
    22
 74
     0
 42
0.0000000001
 43
0.00000001
 40
0.0
 40
0.0
 40
0.0
 40
0.0
 40
0.0756001358987517
 40
0.1424614849482197
 40
0.1736414622219754
 40
0.1973021696748281
 40
0.2159984744979097
 40
0.2690471803290188
 40
0.3359697670793707
 40
0.3849082601177412
 40
0.4484503449079559
 40
0.5256080038461921
 40
0.596204350944215
 40
0.6459387274128713
 40
0.6576239179273249
 40
0.6973535656763706
 40
0.7838239754831104
 40
0.8445869661581407
 40
0.9544277569937474
 40
0.9684499856110436
 40
1.0
 40
1.0
 40
1.0
 40
1.0
 10
4.518180611518517
 20
0.0000000000000018
 30
0.0
 10
4.535619801230069
 20
0.0068915142708743
 30
0.0
 10
4.51496399395316
 20
0.0764424499650467
 30
0.0
 10
4.509193498711795
 20
0.1229776834764227
 30
0.0
 10
4.517475395214291
 20
0.1626847059125733
 30
0.0
 10
4.527890733303252
 20
0.1822933462967775
 30
0.0
 10
4.530389316954313
 20
0.2190784384454645
 30
0.0
 10
4.465098209138091
 20
0.1908677249028958
 30
0.0
 10
4.424780556622807
 20
0.1752830149052365
 30
0.0
 10
4.376482397007663
 20
0.1402218866649658
 30
0.0
 10
4.325532397091251
 20
0.1121431485654369
 30
0.0
 10
4.269738287699397
 20
0.0639844113319548
 30
0.0
 10
4.224094495417575
 20
0.0540833026468377
 30
0.0
 10
4.165472114415167
 20
-0.0022653843595233
 30
0.0
 10
4.203423209956043
 20
0.0010411286566647
 30
0.0
 10
4.243619418614941
 20
-0.0009087961118244
 30
0.0
 10
4.304949381015234
 20
0.0001514462398244
 30
0.0
 10
4.385616624729749
 20
0.0001046769366049
 30
0.0
 10
4.445347700530647
 20
-0.0008980888803141
 30
0.0
 10
4.493245625914881
 20
0.0005210721185342
 30
0.0
 10
4.510902758379927
 20
-0.0028760183010625
 30
0.0
 10
4.518180611518517
 20
0.0000000000000018
 30
0.0
  0
HATCH
  5
12E1
330
12A8
100
AcDbEntity
  8
FEATURES
 62
    12
100
AcDbHatch
 10
0.0
 20
0.0
 30
0.0
210
0.0
220
0.0
230
1.0
  2
SOLID
 70
     1
 71
     1
 91
        1
 92
        1
 93
        1
 72
     4
 94
        3
 73
     0
 74
     0
 95
       34
 96
       30
 40
0.0
 40
0.0
 40
0.0
 40
0.0
 40
0.0846871519129574
 40
0.1565511261209594
 40
0.1996794010658107
 40
0.2243937968218024
 40
0.2367083099509305
 40
0.2623635456366186
 40
0.306025711804024
 40
0.3568334431560683
 40
0.4061021841944667
 40
0.4384318531615914
 40
0.4563905181415712
 40
0.4707430875455045
 40
0.4810051818197722
 40
0.5081997316466932
 40
0.5436039568928595
 40
0.5815737057076681
 40
0.6174910356676352
 40
0.6698277164665151
 40
0.7042057322853209
 40
0.7237037114063753
 40
0.740123062245288
 40
0.7713295212617244
 40
0.8407732732053453
 40
0.8988357818219083
 40
0.9481472537799052
 40
0.9624591046717035
 40
1.0
 40
1.0
 40
1.0
 40
1.0
 10
0.6907499095120215
 20
0.1608108760541143
 10
0.6803370159343274
 20
0.1721327089373421
 10
0.6375014308023026
 20
0.1543912135214942
 10
0.5965209085306356
 20
0.1604112331840764
 10
0.5709689816267769
 20
0.1550836255847212
 10
0.546735973903651
 20
0.1603723924665843
 10
0.5495979144505156
 20
0.1445401885024538
 10
0.5479775370525886
 20
0.1285499709381046
 10
0.5505551297990792
 20
0.1026050456197183
 10
0.5509709866505546
 20
0.0723679280907739
 10
0.5498229903765832
 20
0.0447360863694453
 10
0.5501346565717995
 20
0.0229111356618947
 10
0.5508735879599271
 20
0.0107696096988814
 10
0.548960470646108
 20
-0.0017223170870739
 10
0.5624217611312474
 20
0.0011684571983661
 10
0.576292951622321
 20
-0.0005629546831791
 10
0.5981782399463782
 20
0.0001787194448504
 10
0.6210434976216277
 20
-0.0000376097101817
 10
0.6477949734078834
 20
-0.0000178788538125
 10
0.6734542811727522
 20
0.000172815525044
 10
0.6963949217183654
 20
-0.0003370069421287
 10
0.7102670425730366
 20
0.0006343925255106
 10
0.7277938507989461
 20
-0.0027309141322878
 10
0.7173440154533921
 20
0.0325458666398255
 10
0.7174033066038703
 20
0.059692661022833
 10
0.7083152952561136
 20
0.0977580997905179
 10
0.7037434178083117
 20
0.1229657771068098
 10
0.6982783907892269
 20
0.1431819529065486
 10
0.6953658322232457
 20
0.1557920304135099
 10
0.6907499095120215
 20
0.1608108760541143
 97
        1
330
3B3
 75
     0
 76
     1
 98
        1
 10
0.0
 20
0.0
  0
SPLINE
  5
3B3
102
{ACAD_REACTORS
330
12E1
102
}
330
12A8
100
AcDbEntity
  8
FEATURES
 62
    14
100
AcDbSpline
210
0.0
220
0.0
230
1.0
 70
    11
 71
     3
 72
    34
 73
    30
 74
     0
 42
0.0000000001
 43
0.00000001
 40
0.0
 40
0.0
 40
0.0
 40
0.0
 40
0.0846871519129574
 40
0.1565511261209594
 40
0.1996794010658107
 40
0.2243937968218024
 40
0.2367083099509305
 40
0.2623635456366186
 40
0.306025711804024
 40
0.3568334431560683
 40
0.4061021841944667
 40
0.4384318531615914
 40
0.4563905181415712
 40
0.4707430875455045
 40
0.4810051818197722
 40
0.5081997316466932
 40
0.5436039568928595
 40
0.5815737057076681
 40
0.6174910356676352
 40
0.6698277164665151
 40
0.7042057322853209
 40
0.7237037114063753
 40
0.740123062245288
 40
0.7713295212617244
 40
0.8407732732053453
 40
0.8988357818219083
 40
0.9481472537799052
 40
0.9624591046717035
 40
1.0
 40
1.0
 40
1.0
 40
1.0
 10
0.6907499095120215
 20
0.1608108760541143
 30
0.0
 10
0.6803370159343274
 20
0.1721327089373421
 30
0.0
 10
0.6375014308023026
 20
0.1543912135214942
 30
0.0
 10
0.5965209085306356
 20
0.1604112331840764
 30
0.0
 10
0.5709689816267769
 20
0.1550836255847212
 30
0.0
 10
0.546735973903651
 20
0.1603723924665843
 30
0.0
 10
0.5495979144505156
 20
0.1445401885024538
 30
0.0
 10
0.5479775370525886
 20
0.1285499709381046
 30
0.0
 10
0.5505551297990792
 20
0.1026050456197183
 30
0.0
 10
0.5509709866505546
 20
0.0723679280907739
 30
0.0
 10
0.5498229903765832
 20
0.0447360863694453
 30
0.0
 10
0.5501346565717995
 20
0.0229111356618947
 30
0.0
 10
0.5508735879599271
 20
0.0107696096988814
 30
0.0
 10
0.548960470646108
 20
-0.0017223170870739
 30
0.0
 10
0.5624217611312474
 20
0.0011684571983661
 30
0.0
 10
0.576292951622321
 20
-0.0005629546831791
 30
0.0
 10
0.5981782399463782
 20
0.0001787194448504
 30
0.0
 10
0.6210434976216277
 20
-0.0000376097101817
 30
0.0
 10
0.6477949734078834
 20
-0.0000178788538125
 30
0.0
 10
0.6734542811727522
 20
0.000172815525044
 30
0.0
 10
0.6963949217183654
 20
-0.0003370069421287
 30
0.0
 10
0.7102670425730366
 20
0.0006343925255106
 30
0.0
 10
0.7277938507989461
 20
-0.0027309141322878
 30
0.0
 10
0.7173440154533921
 20
0.0325458666398255
 30
0.0
 10
0.7174033066038703
 20
0.059692661022833
 30
0.0
 10
0.7083152952561136
 20
0.0977580997905179
 30
0.0
 10
0.7037434178083117
 20
0.1229657771068098
 30
0.0
 10
0.6982783907892269
 20
0.1431819529065486
 30
0.0
 10
0.6953658322232457
 20
0.1557920304135099
 30
0.0
 10
0.6907499095120215
 20
0.1608108760541143
 30
0.0
  0
HATCH
  5
12E2
330
12A8
100
AcDbEntity
  8
FEATURES
 62
    46
100
AcDbHatch
 10
0.0
 20
0.0
 30
0.0
210
0.0
220
0.0
230
1.0
  2
SOLID
 70
     1
 71
     1
 91
        1
 92
        1
 93
        1
 72
     4
 94
        3
 73
     0
 74
     0
 95
       42
 96
       38
 40
0.0
 40
0.0
 40
0.0
 40
0.0
 40
0.0435890983265488
 40
0.1035356952363037
 40
0.1543546526448496
 40
0.1757708650819464
 40
0.1892733290578538
 40
0.199818376137148
 40
0.2123604857337519
 40
0.2207218921314877
 40
0.2558591868956901
 40
0.2819561252402535
 40
0.3099742589656839
 40
0.3323268361429425
 40
0.360344969868372
 40
0.3903772771150505
 40
0.4431510716680987
 40
0.4595279206139655
 40
0.4753716652974261
 40
0.4999178404980944
 40
0.5333832263815097
 40
0.5551560435278777
 40
0.5975784440036833
 40
0.6303045288249819
 40
0.6598665646454592
 40
0.6749403043964748
 40
0.7187535126749443
 40
0.7493770344508455
 40
0.7865521532575553
 40
0.8120947054982436
 40
0.8335320141930624
 40
0.9021248123632927
 40
0.921053751170289
 40
0.9342514817739277
 40
0.9509201460857525
 40
0.9712388323022433
 40
1.0
 40
1.0
 40
1.0
 40
1.0
 10
5.022565099821179
 20
9.50304821439657
 10
4.777660831004823
 20
9.495958528730368
 10
4.287008153221308
 20
8.931932830928227
 10
3.375289175279562
 20
8.699411049293508
 10
2.604807570822828
 20
8.573682208179049
 10
2.059934173482901
 20
8.46357540258432
 10
1.823869293350469
 20
8.71804648788819
 10
1.617342257235691
 20
8.532477473672836
 10
1.613444542161091
 20
8.315535056638678
 10
1.251630874075403
 20
8.206548925380913
 10
0.8404461897860358
 20
8.304913443090422
 10
0.308038302880135
 20
8.1492407794469
 10
-0.1071159933933359
 20
7.90363826333971
 10
-0.3091302298809069
 20
7.44517167965723
 10
-0.2631391006162289
 20
6.945178318452401
 10
-0.0277911539793649
 20
6.316105452986145
 10
0.2069052785814165
 20
5.755395625569451
 10
0.2883380964643152
 20
5.246457498907718
 10
0.4614690177533305
 20
4.927808754624484
 10
0.9388266695511902
 20
4.790617222990244
 10
1.413302401711206
 20
4.945931756185979
 10
1.909861849920333
 20
5.286846053368125
 10
2.53666827504199
 20
5.25332950858151
 10
3.105007991208055
 20
5.550928029128068
 10
3.53332535768655
 20
5.753792303537354
 10
4.068748536019598
 20
5.823998265558549
 10
4.579854383692663
 20
6.005437162773246
 10
5.25039541651563
 20
6.160730434269185
 10
5.753064594872598
 20
6.317974895796679
 10
6.344538799347788
 20
6.490109735969488
 10
6.226424932618755
 20
7.282790704620991
 10
6.263664617591331
 20
7.937907349494752
 10
5.887984473800174
 20
8.445252072964822
 10
5.816568468757481
 20
8.733594405476302
 10
5.745616421783865
 20
9.035164437527614
 10
5.488394900865075
 20
9.344559026274352
 10
5.184159007833557
 20
9.507726164760266
 10
5.022565099821179
 20
9.50304821439657
 97
        1
330
3BF
 75
     0
 76
     1
 98
        1
 10
0.0
 20
0.0
  0
SPLINE
  5
3BF
102
{ACAD_REACTORS
330
12E2
102
}
330
12A8
100
AcDbEntity
  8
FEATURES
 62
   250
100
AcDbSpline
210
0.0
220
0.0
230
1.0
 70
    11
 71
     3
 72
    42
 73
    38
 74
     0
 42
0.0000000001
 43
0.00000001
 40
0.0
 40
0.0
 40
0.0
 40
0.0
 40
0.0435890983265488
 40
0.1035356952363037
 40
0.1543546526448496
 40
0.1757708650819464
 40
0.1892733290578538
 40
0.199818376137148
 40
0.2123604857337519
 40
0.2207218921314877
 40
0.2558591868956901
 40
0.2819561252402535
 40
0.3099742589656839
 40
0.3323268361429425
 40
0.360344969868372
 40
0.3903772771150505
 40
0.4431510716680987
 40
0.4595279206139655
 40
0.4753716652974261
 40
0.4999178404980944
 40
0.5333832263815097
 40
0.5551560435278777
 40
0.5975784440036833
 40
0.6303045288249819
 40
0.6598665646454592
 40
0.6749403043964748
 40
0.7187535126749443
 40
0.7493770344508455
 40
0.7865521532575553
 40
0.8120947054982436
 40
0.8335320141930624
 40
0.9021248123632927
 40
0.921053751170289
 40
0.9342514817739277
 40
0.9509201460857525
 40
0.9712388323022433
 40
1.0
 40
1.0
 40
1.0
 40
1.0
 10
5.022565099821179
 20
9.50304821439657
 30
0.0
 10
4.777660831004823
 20
9.495958528730368
 30
0.0
 10
4.287008153221308
 20
8.931932830928227
 30
0.0
 10
3.375289175279562
 20
8.699411049293508
 30
0.0
 10
2.604807570822828
 20
8.573682208179049
 30
0.0
 10
2.059934173482901
 20
8.46357540258432
 30
0.0
 10
1.823869293350469
 20
8.71804648788819
 30
0.0
 10
1.617342257235691
 20
8.532477473672836
 30
0.0
 10
1.613444542161091
 20
8.315535056638678
 30
0.0
 10
1.251630874075403
 20
8.206548925380913
 30
0.0
 10
0.8404461897860358
 20
8.304913443090422
 30
0.0
 10
0.308038302880135
 20
8.1492407794469
 30
0.0
 10
-0.1071159933933359
 20
7.90363826333971
 30
0.0
 10
-0.3091302298809069
 20
7.44517167965723
 30
0.0
 10
-0.2631391006162289
 20
6.945178318452401
 30
0.0
 10
-0.0277911539793649
 20
6.316105452986145
 30
0.0
 10
0.2069052785814165
 20
5.755395625569451
 30
0.0
 10
0.2883380964643152
 20
5.246457498907718
 30
0.0
 10
0.4614690177533305
 20
4.927808754624484
 30
0.0
 10
0.9388266695511902
 20
4.790617222990244
 30
0.0
 10
1.413302401711206
 20
4.945931756185979
 30
0.0
 10
1.909861849920333
 20
5.286846053368125
 30
0.0
 10
2.53666827504199
 20
5.25332950858151
 30
0.0
 10
3.105007991208055
 20
5.550928029128068
 30
0.0
 10
3.53332535768655
 20
5.753792303537354
 30
0.0
 10
4.068748536019598
 20
5.823998265558549
 30
0.0
 10
4.579854383692663
 20
6.005437162773246
 30
0.0
 10
5.25039541651563
 20
6.160730434269185
 30
0.0
 10
5.753064594872598
 20
6.317974895796679
 30
0.0
 10
6.344538799347788
 20
6.490109735969488
 30
0.0
 10
6.226424932618755
 20
7.282790704620991
 30
0.0
 10
6.263664617591331
 20
7.937907349494752
 30
0.0
 10
5.887984473800174
 20
8.445252072964822
 30
0.0
 10
5.816568468757481
 20
8.733594405476302
 30
0.0
 10
5.745616421783865
 20
9.035164437527614
 30
0.0
 10
5.488394900865075
 20
9.344559026274352
 30
0.0
 10
5.184159007833557
 20
9.507726164760266
 30
0.0
 10
5.022565099821179
 20
9.50304821439657
 30
0.0
  0
HATCH
  5
12E3
330
12A8
100
AcDbEntity
  8
FEATURES
 62
   253
100
AcDbHatch
 10
0.0
 20
0.0
 30
0.0
210
0.0
220
0.0
230
1.0
  2
SOLID
 70
     1
 71
     1
 91
        1
 92
        1
 93
        1
 72
     4
 94
        3
 73
     0
 74
     0
 95
       30
 96
       26
 40
0.0
 40
0.0
 40
0.0
 40
0.0
 40
0.0643881104342926
 40
0.1255116538307588
 40
0.1604461724350406
 40
0.2114333857918221
 40
0.2516994852342497
 40
0.2921539535220256
 40
0.3257811701905509
 40
0.3600215563201681
 40
0.4108869831938279
 40
0.4388489118374166
 40
0.4687472071905044
 40
0.4954126350973044
 40
0.5473330455493166
 40
0.6061989456963797
 40
0.6502474265933483
 40
0.6808533544529803
 40
0.7017375664144948
 40
0.7417444607402343
 40
0.7712317402556158
 40
0.8134432796917107
 40
0.8584621474627284
 40
0.9216743065256777
 40
1.0
 40
1.0
 40
1.0
 40
1.0
 10
2.576520225949423
 20
-2.512506630030128
 10
2.369092647827614
 20
-2.294657788906543
 10
1.872028621810188
 20
-1.944887307580576
 10
1.128633513496965
 20
-1.932099177173713
 10
0.4254318232087826
 20
-1.918399256318592
 10
0.0059067482610828
 20
-2.378404440051201
 10
-0.4517275490576651
 20
-2.774836683278401
 10
-0.6544318802352507
 20
-3.263589027202112
 10
-0.8597177164192544
 20
-3.740782737387589
 10
-0.6657925186624425
 20
-4.273634788989742
 10
-0.5722302849469543
 20
-4.794400312948177
 10
-0.1457626126102127
 20
-5.140780451518571
 10
-0.210726262524588
 20
-5.555387088826818
 10
-0.0197124241987581
 20
-6.057190437581569
 10
0.680628195667424
 20
-6.173823737632368
 10
1.355536800890491
 20
-6.356246954394924
 10
1.968319409030016
 20
-6.212464724201215
 10
2.368535074373426
 20
-5.996585482262342
 10
2.805276307404114
 20
-6.102190533090058
 10
3.148964573552036
 20
-5.768736291374179
 10
3.431018491329723
 20
-5.367445000385464
 10
3.683344970242956
 20
-4.835909698633072
 10
3.335777463525432
 20
-4.184581739358697
 10
3.157614922745921
 20
-3.359108695263995
 10
2.828848004983627
 20
-2.777511480125781
 10
2.576520225949423
 20
-2.512506630030128
 97
        1
330
3C2
 75
     0
 76
     1
 98
        1
 10
0.0
 20
0.0
  0
SPLINE
  5
3C2
102
{ACAD_REACTORS
330
12E3
102
}
330
12A8
100
AcDbEntity
  8
FEATURES
 62
   250
100
AcDbSpline
210
0.0
220
0.0
230
1.0
 70
    11
 71
     3
 72
    30
 73
    26
 74
     0
 42
0.0000000001
 43
0.00000001
 40
0.0
 40
0.0
 40
0.0
 40
0.0
 40
0.0643881104342926
 40
0.1255116538307588
 40
0.1604461724350406
 40
0.2114333857918221
 40
0.2516994852342497
 40
0.2921539535220256
 40
0.3257811701905509
 40
0.3600215563201681
 40
0.4108869831938279
 40
0.4388489118374166
 40
0.4687472071905044
 40
0.4954126350973044
 40
0.5473330455493166
 40
0.6061989456963797
 40
0.6502474265933483
 40
0.6808533544529803
 40
0.7017375664144948
 40
0.7417444607402343
 40
0.7712317402556158
 40
0.8134432796917107
 40
0.8584621474627284
 40
0.9216743065256777
 40
1.0
 40
1.0
 40
1.0
 40
1.0
 10
2.576520225949423
 20
-2.512506630030128
 30
0.0
 10
2.369092647827614
 20
-2.294657788906543
 30
0.0
 10
1.872028621810188
 20
-1.944887307580576
 30
0.0
 10
1.128633513496965
 20
-1.932099177173713
 30
0.0
 10
0.4254318232087826
 20
-1.918399256318592
 30
0.0
 10
0.0059067482610828
 20
-2.378404440051201
 30
0.0
 10
-0.4517275490576651
 20
-2.774836683278401
 30
0.0
 10
-0.6544318802352507
 20
-3.263589027202112
 30
0.0
 10
-0.8597177164192544
 20
-3.740782737387589
 30
0.0
 10
-0.6657925186624425
 20
-4.273634788989742
 30
0.0
 10
-0.5722302849469543
 20
-4.794400312948177
 30
0.0
 10
-0.1457626126102127
 20
-5.140780451518571
 30
0.0
 10
-0.210726262524588
 20
-5.555387088826818
 30
0.0
 10
-0.0197124241987581
 20
-6.057190437581569
 30
0.0
 10
0.680628195667424
 20
-6.173823737632368
 30
0.0
 10
1.355536800890491
 20
-6.356246954394924
 30
0.0
 10
1.968319409030016
 20
-6.212464724201215
 30
0.0
 10
2.368535074373426
 20
-5.996585482262342
 30
0.0
 10
2.805276307404114
 20
-6.102190533090058
 30
0.0
 10
3.148964573552036
 20
-5.768736291374179
 30
0.0
 10
3.431018491329723
 20
-5.367445000385464
 30
0.0
 10
3.683344970242956
 20
-4.835909698633072
 30
0.0
 10
3.335777463525432
 20
-4.184581739358697
 30
0.0
 10
3.157614922745921
 20
-3.359108695263995
 30
0.0
 10
2.828848004983627
 20
-2.777511480125781
 30
0.0
 10
2.576520225949423
 20
-2.512506630030128
 30
0.0
  0
HATCH
  5
12E4
330
12A8
100
AcDbEntity
  8
FEATURES
 62
   253
100
AcDbHatch
 10
0.0
 20
0.0
 30
0.0
210
0.0
220
0.0
230
1.0
  2
SOLID
 70
     1
 71
     1
 91
        1
 92
        1
 93
        1
 72
     4
 94
        3
 73
     0
 74
     0
 95
       40
 96
       36
 40
0.0
 40
0.0
 40
0.0
 40
0.0
 40
0.061468220128234
 40
0.1113171561515045
 40
0.1421307853913864
 40
0.1979921376129458
 40
0.2422874886802043
 40
0.2717859554294983
 40
0.3157447456810594
 40
0.3792387743809528
 40
0.4340633083267503
 40
0.4584919386232845
 40
0.4951809121548709
 40
0.5318560833258718
 40
0.5513339389424831
 40
0.5734415730171464
 40
0.6135457343850689
 40
0.6334011694676092
 40
0.6506454842032878
 40
0.6856248549082259
 40
0.7036725457666678
 40
0.729472054830852
 40
0.762506030068876
 40
0.7857232622585262
 40
0.8036583884583862
 40
0.8259257563547918
 40
0.8475393027001336
 40
0.8675471484760383
 40
0.8889251605873133
 40
0.8977743191910706
 40
0.9365302339551977
 40
0.9593737384608787
 40
0.9803694005786103
 40
0.9885856380761466
 40
1.0
 40
1.0
 40
1.0
 40
1.0
 10
25.52888534693037
 20
37.73414026014848
 10
25.18916447620092
 20
37.80066150025401
 10
24.76112064900681
 20
38.30117810493847
 10
24.17527104679763
 20
38.89770650126621
 10
23.36039928602807
 20
38.84479733777678
 10
22.78881942358944
 20
38.34596534321451
 10
22.04667035545808
 20
38.26563634075193
 10
21.49751148324148
 20
37.89196176435016
 10
20.96824657402883
 20
37.33785371965926
 10
20.50564902587914
 20
36.57762099098129
 10
20.02158547112467
 20
35.90144031922585
 10
20.0205208885813
 20
35.24709093617356
 10
20.08773238440926
 20
34.70215253079779
 10
20.4334662868545
 20
34.26298755526771
 10
20.86331148893055
 20
34.12735505787072
 10
21.31557254157067
 20
34.20814642284523
 10
21.77763078771136
 20
34.1403062442639
 10
22.18978600901508
 20
34.28329329128751
 10
22.50323757482863
 20
34.57493662296288
 10
22.91755651417083
 20
34.40221106884746
 10
23.37430787005218
 20
34.40388609915878
 10
23.66845457828978
 20
34.75135213189034
 10
24.14239646976813
 20
34.90363279015251
 10
24.25796370474001
 20
35.33220276565194
 10
24.61876374228893
 20
35.52395264935241
 10
24.94657360211738
 20
35.25880798569476
 10
25.27817530390388
 20
35.54822087211578
 10
25.33751277676805
 20
35.90585717967507
 10
25.63221169251682
 20
36.03530775471159
 10
25.75948319466309
 20
36.40568535148714
 10
25.83012103587052
 20
36.78642355650335
 10
25.9192858367729
 20
37.23690634365954
 10
25.86620649246214
 20
37.53710818436734
 10
25.70659340868409
 20
37.71298871281749
 10
25.59196992890628
 20
37.72178757597113
 10
25.52888534693037
 20
37.73414026014848
 97
        1
330
3C5
 75
     0
 76
     1
 98
        1
 10
0.0
 20
0.0
  0
SPLINE
  5
3C5
102
{ACAD_REACTORS
330
12E4
102
}
330
12A8
100
AcDbEntity
  8
FEATURES
 62
   250
100
AcDbSpline
210
0.0
220
0.0
230
1.0
 70
    11
 71
     3
 72
    40
 73
    36
 74
     0
 42
0.0000000001
 43
0.00000001
 40
0.0
 40
0.0
 40
0.0
 40
0.0
 40
0.061468220128234
 40
0.1113171561515045
 40
0.1421307853913864
 40
0.1979921376129458
 40
0.2422874886802043
 40
0.2717859554294983
 40
0.3157447456810594
 40
0.3792387743809528
 40
0.4340633083267503
 40
0.4584919386232845
 40
0.4951809121548709
 40
0.5318560833258718
 40
0.5513339389424831
 40
0.5734415730171464
 40
0.6135457343850689
 40
0.6334011694676092
 40
0.6506454842032878
 40
0.6856248549082259
 40
0.7036725457666678
 40
0.729472054830852
 40
0.762506030068876
 40
0.7857232622585262
 40
0.8036583884583862
 40
0.8259257563547918
 40
0.8475393027001336
 40
0.8675471484760383
 40
0.8889251605873133
 40
0.8977743191910706
 40
0.9365302339551977
 40
0.9593737384608787
 40
0.9803694005786103
 40
0.9885856380761466
 40
1.0
 40
1.0
 40
1.0
 40
1.0
 10
25.52888534693037
 20
37.73414026014848
 30
0.0
 10
25.18916447620092
 20
37.80066150025401
 30
0.0
 10
24.76112064900681
 20
38.30117810493847
 30
0.0
 10
24.17527104679763
 20
38.89770650126621
 30
0.0
 10
23.36039928602807
 20
38.84479733777678
 30
0.0
 10
22.78881942358944
 20
38.34596534321451
 30
0.0
 10
22.04667035545808
 20
38.26563634075193
 30
0.0
 10
21.49751148324148
 20
37.89196176435016
 30
0.0
 10
20.96824657402883
 20
37.33785371965926
 30
0.0
 10
20.50564902587914
 20
36.57762099098129
 30
0.0
 10
20.02158547112467
 20
35.90144031922585
 30
0.0
 10
20.0205208885813
 20
35.24709093617356
 30
0.0
 10
20.08773238440926
 20
34.70215253079779
 30
0.0
 10
20.4334662868545
 20
34.26298755526771
 30
0.0
 10
20.86331148893055
 20
34.12735505787072
 30
0.0
 10
21.31557254157067
 20
34.20814642284523
 30
0.0
 10
21.77763078771136
 20
34.1403062442639
 30
0.0
 10
22.18978600901508
 20
34.28329329128751
 30
0.0
 10
22.50323757482863
 20
34.57493662296288
 30
0.0
 10
22.91755651417083
 20
34.40221106884746
 30
0.0
 10
23.37430787005218
 20
34.40388609915878
 30
0.0
 10
23.66845457828978
 20
34.75135213189034
 30
0.0
 10
24.14239646976813
 20
34.90363279015251
 30
0.0
 10
24.25796370474001
 20
35.33220276565194
 30
0.0
 10
24.61876374228893
 20
35.52395264935241
 30
0.0
 10
24.94657360211738
 20
35.25880798569476
 30
0.0
 10
25.27817530390388
 20
35.54822087211578
 30
0.0
 10
25.33751277676805
 20
35.90585717967507
 30
0.0
 10
25.63221169251682
 20
36.03530775471159
 30
0.0
 10
25.75948319466309
 20
36.40568535148714
 30
0.0
 10
25.83012103587052
 20
36.78642355650335
 30
0.0
 10
25.9192858367729
 20
37.23690634365954
 30
0.0
 10
25.86620649246214
 20
37.53710818436734
 30
0.0
 10
25.70659340868409
 20
37.71298871281749
 30
0.0
 10
25.59196992890628
 20
37.72178757597113
 30
0.0
 10
25.52888534693037
 20
37.73414026014848
 30
0.0
  0
TEXT
  5
3C8
330
12A8
100
AcDbEntity
  8
FEATURE_NUMBERS
 62
   250
100
AcDbText
 10
0.192088
 20
10.51215
 30
0.0
 40
2.0
  1
F16
  7
STYLE-GARAMOND
 11
0.192088
 21
12.51215
 31
0.0
100
AcDbText
 73
     3
  0
TEXT
  5
3C9
330
12A8
100
AcDbEntity
  8
FEATURE_NUMBERS
 62
   250
100
AcDbText
 10
-6.371342
 20
-4.30383
 30
0.0
 40
2.0
  1
F15
  7
STYLE-GARAMOND
 11
-6.371342
 21
-2.30383
 31
0.0
100
AcDbText
 73
     3
  0
TEXT
  5
3CA
330
12A8
100
AcDbEntity
  8
FEATURE_NUMBERS
 62
   250
100
AcDbText
 10
20.405203
 20
31.108668
 30
0.0
 40
2.0
  1
F18
  7
STYLE-GARAMOND
 11
20.405203
 21
33.108668
 31
0.0
100
AcDbText
 73
     3
  0
HATCH
  5
12E5
330
12A8
100
AcDbEntity
  8
FEATURE_NUMBERS
 62
   253
100
AcDbHatch
 10
0.0
 20
0.0
 30
0.0
210
0.0
220
0.0
230
1.0
  2
SOLID
 70
     1
 71
     1
 91
        1
 92
        1
 93
        1
 72
     4
 94
        3
 73
     0
 74
     0
 95
       19
 96
       15
 40
0.0
 40
0.0
 40
0.0
 40
0.0
 40
0.0881464678442384
 40
0.175360248711882
 40
0.2432921818945203
 40
0.353753241819644
 40
0.4485055790993175
 40
0.547078630256081
 40
0.604853657967455
 40
0.6564372430391946
 40
0.7262082677333045
 40
0.8299534097388332
 40
0.9294145243403831
 40
1.0
 40
1.0
 40
1.0
 40
1.0
 10
37.929350162085
 20
31.70839793950028
 10
37.85788630833014
 20
31.69290784962681
 10
37.77456861282718
 20
31.4864015666952
 10
37.5338920026754
 20
31.4474875792631
 10
37.36249958085801
 20
31.23479827317756
 10
37.40315860634442
 20
30.93834763431615
 10
37.60932263851939
 20
30.74069686768935
 10
37.86541551056746
 20
30.61528885484811
 10
38.02546185615336
 20
30.75223560264736
 10
38.17144119267721
 20
30.85658543928984
 10
38.16017127045106
 20
31.09303103662123
 10
38.20565917839667
 20
31.33934579073381
 10
38.1701407818752
 20
31.61425942127233
 10
37.98657661974264
 20
31.72080201408737
 10
37.929350162085
 20
31.70839793950028
 97
        1
330
3CB
 75
     0
 76
     1
 98
        1
 10
0.0
 20
0.0
  0
SPLINE
  5
3CB
102
{ACAD_REACTORS
330
12E5
102
}
330
12A8
100
AcDbEntity
  8
FEATURE_NUMBERS
 62
   250
100
AcDbSpline
210
0.0
220
0.0
230
1.0
 70
    11
 71
     3
 72
    19
 73
    15
 74
     0
 42
0.0000000001
 43
0.00000001
 40
0.0
 40
0.0
 40
0.0
 40
0.0
 40
0.0881464678442384
 40
0.175360248711882
 40
0.2432921818945203
 40
0.353753241819644
 40
0.4485055790993175
 40
0.547078630256081
 40
0.604853657967455
 40
0.6564372430391946
 40
0.7262082677333045
 40
0.8299534097388332
 40
0.9294145243403831
 40
1.0
 40
1.0
 40
1.0
 40
1.0
 10
37.929350162085
 20
31.70839793950028
 30
0.0
 10
37.85788630833014
 20
31.69290784962681
 30
0.0
 10
37.77456861282718
 20
31.4864015666952
 30
0.0
 10
37.5338920026754
 20
31.4474875792631
 30
0.0
 10
37.36249958085801
 20
31.23479827317756
 30
0.0
 10
37.40315860634442
 20
30.93834763431615
 30
0.0
 10
37.60932263851939
 20
30.74069686768935
 30
0.0
 10
37.86541551056746
 20
30.61528885484811
 30
0.0
 10
38.02546185615336
 20
30.75223560264736
 30
0.0
 10
38.17144119267721
 20
30.85658543928984
 30
0.0
 10
38.16017127045106
 20
31.09303103662123
 30
0.0
 10
38.20565917839667
 20
31.33934579073381
 30
0.0
 10
38.1701407818752
 20
31.61425942127233
 30
0.0
 10
37.98657661974264
 20
31.72080201408737
 30
0.0
 10
37.929350162085
 20
31.70839793950028
 30
0.0
  0
HATCH
  5
3F6
330
12A8
100
AcDbEntity
  8
PHASEI_STPS
  6
CONTINUOUS
 62
     7
100
AcDbHatch
 10
0.0
 20
0.0
 30
0.0
210
0.0
220
0.0
230
1.0
  2
SOLID
 70
     1
 71
     0
 91
        1
 92
        1
 93
        1
 72
     2
 10
205.9842074491807
 20
256.2664131754852
 40
0.2378991845865966
 50
0.0
 51
360.0
 73
     1
 97
        0
 75
     0
 76
     1
 98
        0
  0
HATCH
  5
3F7
330
12A8
100
AcDbEntity
  8
PHASEI_STPS
  6
CONTINUOUS
 62
     7
100
AcDbHatch
 10
0.0
 20
0.0
 30
0.0
210
0.0
220
0.0
230
1.0
  2
SOLID
 70
     1
 71
     0
 91
        1
 92
        1
 93
        1
 72
     2
 10
250.1315870921271
 20
279.7399913147797
 40
0.2378991845865966
 50
0.0
 51
360.0
 73
     1
 97
        0
 75
     0
 76
     1
 98
        0
  0
LWPOLYLINE
  5
3FE
330
12A8
100
AcDbEntity
  8
SITE_ISOLATION_FENCE
  6
DGN_STYLE_2
100
AcDbPolyline
 90
       19
 70
   128
 43
0.0
 10
107.976992
 20
-57.844084
 10
102.518252
 20
-108.501194
 10
73.041054
 20
-105.0076
 10
-24.997922
 20
-111.121389
 10
-136.137874
 20
-59.809231
 10
-167.143519
 20
-40.594465
 10
-144.653509
 20
-3.91173
 10
-145.308558
 20
15.739735
 10
-134.609427
 20
31.679257
 10
-129.587386
 20
43.688486
 10
-99.673489
 20
77.314326
 10
-80.895422
 20
158.758731
 10
-84.825715
 20
176.00835
 10
-36.788801
 20
221.20672
 10
14.305009
 20
208.760792
 10
110.815537
 20
140.635713
 10
144.223028
 20
62.029853
 10
143.567979
 20
1.98371
 10
122.388067
 20
-1.509884
  0
TEXT
  5
3FF
330
12A8
100
AcDbEntity
  8
FEATURE_NUMBERS
 62
   250
100
AcDbText
 10
5.095187
 20
-0.594622
 30
0.0
 40
2.0
  1
F01
  7
STYLE-GARAMOND
 11
5.095187
 21
1.405378
 31
0.0
100
AcDbText
 73
     3
  0
CIRCLE
  5
404
330
12A8
100
AcDbEntity
  8
NORTH_ARRORW
100
AcDbCircle
 10
143.088519
 20
-118.990337
 30
0.0
 40
7.085059504304177
  0
LWPOLYLINE
  5
405
330
12A8
100
AcDbEntity
  8
NORTH_ARRORW
100
AcDbPolyline
 90
        3
 70
   129
 43
0.0
 10
136.00346
 20
-118.990337
 10
136.00346
 20
-118.990337
 10
136.00346
 20
-118.990337
  0
LWPOLYLINE
  5
406
330
12A8
100
AcDbEntity
  8
NORTH_ARRORW
100
AcDbPolyline
 90
        2
 70
   129
 43
0.0
 10
136.00346
 20
-118.990337
 10
150.173574
 20
-118.998138
  0
LINE
  5
408
330
12A8
100
AcDbEntity
  8
NORTH_ARRORW
100
AcDbLine
 10
143.189778
 20
-111.906001
 30
0.0
 11
136.00346
 21
-118.990337
 31
0.0
  0
LINE
  5
409
330
12A8
100
AcDbEntity
  8
NORTH_ARRORW
100
AcDbLine
 10
143.189778
 20
-111.906001
 30
0.0
 11
150.173574
 21
-118.998138
 31
0.0
  0
LINE
  5
407
330
12A8
100
AcDbEntity
  8
NORTH_ARRORW
100
AcDbLine
 10
143.098005
 20
-118.994242
 30
0.0
 11
143.098044
 21
-126.07539
 31
0.0
  0
LINE
  5
40A
330
12A8
100
AcDbEntity
  8
SITE_ISOLATION_FENCE
  6
DGN_STYLE_2
100
AcDbLine
 10
273.665563
 20
-55.023742
 30
0.0
 11
314.718821
 21
-55.023742
 31
0.0
  0
LINE
  5
40C
330
12A8
100
AcDbEntity
  8
STRIPPED_BLOCK
100
AcDbLine
 10
273.665563
 20
-63.420999
 30
0.0
 11
314.718821
 21
-63.420999
 31
0.0
  0
LINE
  5
40D
330
12A8
100
AcDbEntity
  8
EXCAVATION_BOUNDARY
100
AcDbLine
 10
273.665563
 20
-73.217799
 30
0.0
 11
314.718821
 21
-73.217799
 31
0.0
  0
LINE
  5
40E
330
12A8
100
AcDbEntity
  8
PHASE_II_UNITS
100
AcDbLine
 10
273.665563
 20
-82.79166
 30
0.0
 11
314.718821
 21
-82.79166
 31
0.0
  0
LINE
  5
40F
330
12A8
100
AcDbEntity
  8
PHASEIII_UNITS
100
AcDbLine
 10
273.665563
 20
-92.344885
 30
0.0
 11
314.718821
 21
-92.344885
 31
0.0
  0
TEXT
  5
411
330
12A8
100
AcDbEntity
  8
PHASEIII_UNITS
  6
DGN_STYLE_2
100
AcDbText
 10
320.783507
 20
-64.152472
 30
0.0
 40
3.0
  1
Phase III stripped block
  7
STYLE-GARAMOND
 11
320.783507
 21
-61.152472
 31
0.0
100
AcDbText
 73
     3
  0
LWPOLYLINE
  5
412
330
12A8
100
AcDbEntity
  8
PHASEIII_UNITS
100
AcDbPolyline
 90
        4
 70
   129
 43
0.0
 10
3.579363
 20
152.9164
 10
-1.420637
 20
152.9164
 10
-1.420637
 20
147.9164
 10
3.579363
 20
147.9164
  0
TEXT
  5
413
330
12A8
100
AcDbEntity
  8
PHASEIII_UNITS
  6
DGN_STYLE_2
100
AcDbText
 10
320.783507
 20
-74.002218
 30
0.0
 40
3.0
  1
Phase III unit excavation boundary
  7
STYLE-GARAMOND
 11
320.783507
 21
-71.002218
 31
0.0
100
AcDbText
 73
     3
  0
TEXT
  5
410
330
12A8
100
AcDbEntity
  8
PHASEIII_UNITS
  6
DGN_STYLE_2
100
AcDbText
 10
320.783507
 20
-55.69117
 30
0.0
 40
3.0
  1
Phase III site boundary fence
  7
STYLE-GARAMOND
 11
320.783507
 21
-52.69117
 31
0.0
100
AcDbText
 73
     3
  0
TEXT
  5
414
330
12A8
100
AcDbEntity
  8
PHASEIII_UNITS
  6
DGN_STYLE_2
100
AcDbText
 10
320.783507
 20
-83.213259
 30
0.0
 40
3.0
  1
Phase II unit
  7
STYLE-GARAMOND
 11
320.783507
 21
-80.213259
 31
0.0
100
AcDbText
 73
     3
  0
LWPOLYLINE
  5
415
330
12A8
100
AcDbEntity
  8
PHASEIII_UNITS
100
AcDbPolyline
 90
        4
 70
   129
 43
0.0
 10
65.0
 20
5.0
 10
60.0
 20
5.0
 10
60.0
 20
0.0
 10
65.0
 20
0.0
  0
TEXT
  5
418
330
12A8
100
AcDbEntity
  8
PHASEIII_UNITS
  6
DGN_STYLE_2
100
AcDbText
 10
320.783507
 20
-103.495118
 30
0.0
 40
3.0
  1
Phase I STP
  7
STYLE-GARAMOND
 11
320.783507
 21
-100.495118
 31
0.0
100
AcDbText
 73
     3
  0
TEXT
  5
416
330
12A8
100
AcDbEntity
  8
PHASEIII_UNITS
  6
DGN_STYLE_2
100
AcDbText
 10
320.783507
 20
-92.940534
 30
0.0
 40
3.0
  1
Phase III unit
  7
STYLE-GARAMOND
 11
320.783507
 21
-89.940534
 31
0.0
100
AcDbText
 73
     3
  0
TEXT
  5
41A
330
12A8
100
AcDbEntity
  8
PHASEIII_UNITS
  6
DGN_STYLE_2
100
AcDbText
 10
320.783507
 20
-125.839478
 30
0.0
 40
3.0
  1
Phase III STP
  7
STYLE-GARAMOND
 11
320.783507
 21
-122.839478
 31
0.0
100
AcDbText
 73
     3
  0
TEXT
  5
41B
330
12A8
100
AcDbEntity
  8
FEATURE_NUMBERS
 62
   250
100
AcDbText
 10
35.406391
 20
27.465834
 30
0.0
 40
2.0
  1
F06
  7
STYLE-GARAMOND
 11
35.406391
 21
29.465834
 31
0.0
100
AcDbText
 73
     3
  0
HATCH
  5
12E6
330
12A8
100
AcDbEntity
  8
FEATURES
 62
    12
100
AcDbHatch
 10
0.0
 20
0.0
 30
0.0
210
0.0
220
0.0
230
1.0
  2
SOLID
 70
     1
 71
     1
 91
        1
 92
        3
 72
     0
 73
     1
 93
        4
 10
1.68596921355109
 20
0.3298444458737499
 10
1.574395571420979
 20
0.9405770556677453
 10
1.872503703841573
 20
0.9950378942563223
 10
1.984077345971684
 20
0.3843052844623269
 97
        1
330
4A9
 75
     0
 76
     1
 98
        1
 10
0.0
 20
0.0
  0
LWPOLYLINE
  5
4A9
102
{ACAD_REACTORS
330
12E6
102
}
330
12A8
100
AcDbEntity
  8
FEATURES
 62
    14
100
AcDbPolyline
 90
        4
 70
   129
 43
0.0
 10
1.872504
 20
0.995038
 10
1.984077
 20
0.384305
 10
1.685969
 20
0.329844
 10
1.574396
 20
0.940577
  0
TEXT
  5
E0E
330
12A8
100
AcDbEntity
  8
PHASEI_LABELS
100
AcDbText
 10
-1379.619983
 20
-246.653781
 30
0.0
 40
5.0
  1
K01
  7
STYLE-GARAMOND
 11
-1379.619983
 21
-241.653781
 31
0.0
100
AcDbText
 73
     3
  0
TEXT
  5
E0F
330
12A8
100
AcDbEntity
  8
PHASEI_LABELS
100
AcDbText
 10
-1334.919157
 20
-220.687905
 30
0.0
 40
5.0
  1
K02
  7
STYLE-GARAMOND
 11
-1334.919157
 21
-215.687905
 31
0.0
100
AcDbText
 73
     3
  0
TEXT
  5
E10
330
12A8
100
AcDbEntity
  8
PHASEI_LABELS
100
AcDbText
 10
-1354.145319
 20
-301.230206
 30
0.0
 40
5.0
  1
J01
  7
STYLE-GARAMOND
 11
-1354.145319
 21
-296.230206
 31
0.0
100
AcDbText
 73
     3
  0
TEXT
  5
E11
330
12A8
100
AcDbEntity
  8
PHASEI_LABELS
100
AcDbText
 10
-1306.320242
 20
-276.226029
 30
0.0
 40
5.0
  1
J02
  7
STYLE-GARAMOND
 11
-1306.320242
 21
-271.226029
 31
0.0
100
AcDbText
 73
     3
  0
TEXT
  5
E12
330
12A8
100
AcDbEntity
  8
PHASEI_LABELS
100
AcDbText
 10
-1255.370913
 20
-243.768684
 30
0.0
 40
5.0
  1
J03
  7
STYLE-GARAMOND
 11
-1255.370913
 21
-238.768684
 31
0.0
100
AcDbText
 73
     3
  0
TEXT
  5
E13
330
12A8
100
AcDbEntity
  8
PHASEI_LABELS
100
AcDbText
 10
-1203.940931
 20
-217.081533
 30
0.0
 40
5.0
  1
J04
  7
STYLE-GARAMOND
 11
-1203.940931
 21
-212.081533
 31
0.0
100
AcDbText
 73
     3
  0
TEXT
  5
E14
330
12A8
100
AcDbEntity
  8
PHASEI_LABELS
100
AcDbText
 10
-1329.87229
 20
-355.518121
 30
0.0
 40
5.0
  1
I01
  7
STYLE-GARAMOND
 11
-1329.87229
 21
-350.518121
 31
0.0
100
AcDbText
 73
     3
  0
TEXT
  5
E15
330
12A8
100
AcDbEntity
  8
PHASEI_LABELS
100
AcDbText
 10
-1277.961653
 20
-326.667148
 30
0.0
 40
5.0
  1
I02
  7
STYLE-GARAMOND
 11
-1277.961653
 21
-321.667148
 31
0.0
100
AcDbText
 73
     3
  0
TEXT
  5
E16
330
12A8
100
AcDbEntity
  8
PHASEI_LABELS
100
AcDbText
 10
-1228.934941
 20
-295.411926
 30
0.0
 40
5.0
  1
I03
  7
STYLE-GARAMOND
 11
-1228.934941
 21
-290.411926
 31
0.0
100
AcDbText
 73
     3
  0
TEXT
  5
E17
330
12A8
100
AcDbEntity
  8
PHASEI_LABELS
100
AcDbText
 10
-1181.109864
 20
-265.839678
 30
0.0
 40
5.0
  1
I04
  7
STYLE-GARAMOND
 11
-1181.109864
 21
-260.839678
 31
0.0
100
AcDbText
 73
     3
  0
TEXT
  5
E18
330
12A8
100
AcDbEntity
  8
PHASEI_LABELS
100
AcDbText
 10
-1134.390291
 20
-238.479338
 30
0.0
 40
5.0
  1
I05
  7
STYLE-GARAMOND
 11
-1134.390291
 21
-233.479338
 31
0.0
100
AcDbText
 73
     3
  0
TEXT
  5
E19
330
12A8
100
AcDbEntity
  8
PHASEI_LABELS
100
AcDbText
 10
-1309.660787
 20
-409.613696
 30
0.0
 40
5.0
  1
H01
  7
STYLE-GARAMOND
 11
-1309.660787
 21
-404.613696
 31
0.0
100
AcDbText
 73
     3
  0
TEXT
  5
E1A
330
12A8
100
AcDbEntity
  8
PHASEI_LABELS
100
AcDbText
 10
-1253.183937
 20
-376.194652
 30
0.0
 40
5.0
  1
H02
  7
STYLE-GARAMOND
 11
-1253.183937
 21
-371.194652
 31
0.0
100
AcDbText
 73
     3
  0
TEXT
  5
E1B
330
12A8
100
AcDbEntity
  8
PHASEI_LABELS
100
AcDbText
 10
-1203.436244
 20
-344.458581
 30
0.0
 40
5.0
  1
H03
  7
STYLE-GARAMOND
 11
-1203.436244
 21
-339.458581
 31
0.0
100
AcDbText
 73
     3
  0
TEXT
  5
E1C
330
12A8
100
AcDbEntity
  8
PHASEI_LABELS
100
AcDbText
 10
-1152.486915
 20
-319.694829
 30
0.0
 40
5.0
  1
H04
  7
STYLE-GARAMOND
 11
-1152.486915
 21
-314.694829
 31
0.0
100
AcDbText
 73
     3
  0
TEXT
  5
E1D
330
12A8
100
AcDbEntity
  8
PHASEI_LABELS
100
AcDbText
 10
-1097.11557
 20
-285.073661
 30
0.0
 40
5.0
  1
H05
  7
STYLE-GARAMOND
 11
-1097.11557
 21
-280.073661
 31
0.0
100
AcDbText
 73
     3
  0
TEXT
  5
E1E
330
12A8
100
AcDbEntity
  8
PHASEI_LABELS
100
AcDbText
 10
-1040.63872
 20
-257.785448
 30
0.0
 40
5.0
  1
H06
  7
STYLE-GARAMOND
 11
-1040.63872
 21
-252.785448
 31
0.0
100
AcDbText
 73
     3
  0
TEXT
  5
E1F
330
12A8
100
AcDbEntity
  8
PHASEI_LABELS
100
AcDbText
 10
-982.359417
 20
-230.617448
 30
0.0
 40
5.0
  1
H07
  7
STYLE-GARAMOND
 11
-982.359417
 21
-225.617448
 31
0.0
100
AcDbText
 73
     3
  0
TEXT
  5
E20
330
12A8
100
AcDbEntity
  8
PHASEI_LABELS
100
AcDbText
 10
-928.766492
 20
-201.285625
 30
0.0
 40
5.0
  1
H08
  7
STYLE-GARAMOND
 11
-928.766492
 21
-196.285625
 31
0.0
100
AcDbText
 73
     3
  0
TEXT
  5
E21
330
12A8
100
AcDbEntity
  8
PHASEI_LABELS
100
AcDbText
 10
-857.389366
 20
-162.577236
 30
0.0
 40
5.0
  1
H09
  7
STYLE-GARAMOND
 11
-857.389366
 21
-157.577236
 31
0.0
100
AcDbText
 73
     3
  0
TEXT
  5
E22
330
12A8
100
AcDbEntity
  8
PHASEI_LABELS
100
AcDbText
 10
-798.172788
 20
-130.88925
 30
0.0
 40
5.0
  1
H10
  7
STYLE-GARAMOND
 11
-798.172788
 21
-125.88925
 31
0.0
100
AcDbText
 73
     3
  0
TEXT
  5
E23
330
12A8
100
AcDbEntity
  8
PHASEI_LABELS
100
AcDbText
 10
-744.099209
 20
-101.797851
 30
0.0
 40
5.0
  1
H11
  7
STYLE-GARAMOND
 11
-744.099209
 21
-96.797851
 31
0.0
100
AcDbText
 73
     3
  0
TEXT
  5
E24
330
12A8
100
AcDbEntity
  8
PHASEI_LABELS
100
AcDbText
 10
-682.335164
 20
-62.368187
 30
0.0
 40
5.0
  1
H12
  7
STYLE-GARAMOND
 11
-682.335164
 21
-57.368187
 31
0.0
100
AcDbText
 73
     3
  0
TEXT
  5
E25
330
12A8
100
AcDbEntity
  8
PHASEI_LABELS
100
AcDbText
 10
-617.086378
 20
-26.112131
 30
0.0
 40
5.0
  1
H13
  7
STYLE-GARAMOND
 11
-617.086378
 21
-21.112131
 31
0.0
100
AcDbText
 73
     3
  0
TEXT
  5
E26
330
12A8
100
AcDbEntity
  8
PHASEI_LABELS
100
AcDbText
 10
-553.880372
 20
9.230312
 30
0.0
 40
5.0
  1
H14
  7
STYLE-GARAMOND
 11
-553.880372
 21
14.230312
 31
0.0
100
AcDbText
 73
     3
  0
TEXT
  5
E27
330
12A8
100
AcDbEntity
  8
PHASEI_LABELS
100
AcDbText
 10
-492.020196
 20
44.04382
 30
0.0
 40
5.0
  1
H15
  7
STYLE-GARAMOND
 11
-492.020196
 21
49.04382
 31
0.0
100
AcDbText
 73
     3
  0
TEXT
  5
E28
330
12A8
100
AcDbEntity
  8
PHASEI_LABELS
100
AcDbText
 10
-436.504655
 20
75.299041
 30
0.0
 40
5.0
  1
H16
  7
STYLE-GARAMOND
 11
-436.504655
 21
80.299041
 31
0.0
100
AcDbText
 73
     3
  0
TEXT
  5
E29
330
12A8
100
AcDbEntity
  8
PHASEI_LABELS
100
AcDbText
 10
-379.066497
 20
109.679785
 30
0.0
 40
5.0
  1
H17
  7
STYLE-GARAMOND
 11
-379.066497
 21
114.679785
 31
0.0
100
AcDbText
 73
     3
  0
TEXT
  5
E2B
330
12A8
100
AcDbEntity
  8
PHASEI_LABELS
100
AcDbText
 10
-1305.242456
 20
-485.563877
 30
0.0
 40
5.0
  1
G01
  7
STYLE-GARAMOND
 11
-1305.242456
 21
-480.563877
 31
0.0
100
AcDbText
 73
     3
  0
TEXT
  5
E2C
330
12A8
100
AcDbEntity
  8
PHASEI_LABELS
100
AcDbText
 10
-1255.050115
 20
-454.518355
 30
0.0
 40
5.0
  1
G02
  7
STYLE-GARAMOND
 11
-1255.050115
 21
-449.518355
 31
0.0
100
AcDbText
 73
     3
  0
TEXT
  5
E2D
330
12A8
100
AcDbEntity
  8
PHASEI_LABELS
100
AcDbText
 10
-1202.968815
 20
-430.221859
 30
0.0
 40
5.0
  1
G03
  7
STYLE-GARAMOND
 11
-1202.968815
 21
-425.221859
 31
0.0
100
AcDbText
 73
     3
  0
TEXT
  5
E2E
330
12A8
100
AcDbEntity
  8
PHASEI_LABELS
100
AcDbText
 10
-1148.728704
 20
-401.605986
 30
0.0
 40
5.0
  1
G04
  7
STYLE-GARAMOND
 11
-1148.728704
 21
-396.605986
 31
0.0
100
AcDbText
 73
     3
  0
TEXT
  5
E2F
330
12A8
100
AcDbEntity
  8
PHASEI_LABELS
100
AcDbText
 10
-1095.567999
 20
-372.990113
 30
0.0
 40
5.0
  1
G05
  7
STYLE-GARAMOND
 11
-1095.567999
 21
-367.990113
 31
0.0
100
AcDbText
 73
     3
  0
TEXT
  5
E30
330
12A8
100
AcDbEntity
  8
PHASEI_LABELS
100
AcDbText
 10
-1041.058037
 20
-345.724046
 30
0.0
 40
5.0
  1
G06
  7
STYLE-GARAMOND
 11
-1041.058037
 21
-340.724046
 31
0.0
100
AcDbText
 73
     3
  0
TEXT
  5
E31
330
12A8
100
AcDbEntity
  8
PHASEI_LABELS
100
AcDbText
 10
-992.619729
 20
-318.781931
 30
0.0
 40
5.0
  1
G07
  7
STYLE-GARAMOND
 11
-992.619729
 21
-313.781931
 31
0.0
100
AcDbText
 73
     3
  0
TEXT
  5
E32
330
12A8
100
AcDbEntity
  8
PHASEI_LABELS
100
AcDbText
 10
-931.903187
 20
-286.656565
 30
0.0
 40
5.0
  1
G08
  7
STYLE-GARAMOND
 11
-931.903187
 21
-281.656565
 31
0.0
100
AcDbText
 73
     3
  0
TEXT
  5
E33
330
12A8
100
AcDbEntity
  8
PHASEI_LABELS
100
AcDbText
 10
-865.519768
 20
-251.021704
 30
0.0
 40
5.0
  1
G09
  7
STYLE-GARAMOND
 11
-865.519768
 21
-246.021704
 31
0.0
100
AcDbText
 73
     3
  0
TEXT
  5
E34
330
12A8
100
AcDbEntity
  8
PHASEI_LABELS
100
AcDbText
 10
-804.425435
 20
-215.953762
 30
0.0
 40
5.0
  1
G10
  7
STYLE-GARAMOND
 11
-804.425435
 21
-210.953762
 31
0.0
100
AcDbText
 73
     3
  0
TEXT
  5
E35
330
12A8
100
AcDbEntity
  8
PHASEI_LABELS
100
AcDbText
 10
-741.819934
 20
-177.619291
 30
0.0
 40
5.0
  1
G11
  7
STYLE-GARAMOND
 11
-741.819934
 21
-172.619291
 31
0.0
100
AcDbText
 73
     3
  0
TEXT
  5
E36
330
12A8
100
AcDbEntity
  8
PHASEI_LABELS
100
AcDbText
 10
-685.151161
 20
-143.874157
 30
0.0
 40
5.0
  1
G12
  7
STYLE-GARAMOND
 11
-685.151161
 21
-138.874157
 31
0.0
100
AcDbText
 73
     3
  0
TEXT
  5
E37
330
12A8
100
AcDbEntity
  8
PHASEI_LABELS
100
AcDbText
 10
-627.133133
 20
-110.129024
 30
0.0
 40
5.0
  1
G13
  7
STYLE-GARAMOND
 11
-627.133133
 21
-105.129024
 31
0.0
100
AcDbText
 73
     3
  0
TEXT
  5
E38
330
12A8
100
AcDbEntity
  8
PHASEI_LABELS
100
AcDbText
 10
-562.645419
 20
-74.561654
 30
0.0
 40
5.0
  1
G14
  7
STYLE-GARAMOND
 11
-562.645419
 21
-69.561654
 31
0.0
100
AcDbText
 73
     3
  0
TEXT
  5
E39
330
12A8
100
AcDbEntity
  8
PHASEI_LABELS
100
AcDbText
 10
-503.143208
 20
-41.963855
 30
0.0
 40
5.0
  1
G15
  7
STYLE-GARAMOND
 11
-503.143208
 21
-36.963855
 31
0.0
100
AcDbText
 73
     3
  0
TEXT
  5
E3A
330
12A8
100
AcDbEntity
  8
PHASEI_LABELS
100
AcDbText
 10
-442.696517
 20
-10.783352
 30
0.0
 40
5.0
  1
G16
  7
STYLE-GARAMOND
 11
-442.696517
 21
-5.783352
 31
0.0
100
AcDbText
 73
     3
  0
TEXT
  5
E3B
330
12A8
100
AcDbEntity
  8
PHASEI_LABELS
100
AcDbText
 10
-383.194306
 20
21.814446
 30
0.0
 40
5.0
  1
G17
  7
STYLE-GARAMOND
 11
-383.194306
 21
26.814446
 31
0.0
100
AcDbText
 73
     3
  0
TEXT
  5
E3C
330
12A8
100
AcDbEntity
  8
PHASEI_LABELS
100
AcDbText
 10
-321.330897
 20
57.246836
 30
0.0
 40
5.0
  1
G18
  7
STYLE-GARAMOND
 11
-321.330897
 21
62.246836
 31
0.0
100
AcDbText
 73
     3
  0
TEXT
  5
E3D
330
12A8
100
AcDbEntity
  8
PHASEI_LABELS
100
AcDbText
 10
-1298.819996
 20
-561.119231
 30
0.0
 40
5.0
  1
F01
  7
STYLE-GARAMOND
 11
-1298.819996
 21
-556.119231
 31
0.0
100
AcDbText
 73
     3
  0
TEXT
  5
E3E
330
12A8
100
AcDbEntity
  8
PHASEI_LABELS
100
AcDbText
 10
-1244.984662
 20
-528.521432
 30
0.0
 40
5.0
  1
F02
  7
STYLE-GARAMOND
 11
-1244.984662
 21
-523.521432
 31
0.0
100
AcDbText
 73
     3
  0
TEXT
  5
E3F
330
12A8
100
AcDbEntity
  8
PHASEI_LABELS
100
AcDbText
 10
-1190.677088
 20
-500.647952
 30
0.0
 40
5.0
  1
F03
  7
STYLE-GARAMOND
 11
-1190.677088
 21
-495.647952
 31
0.0
100
AcDbText
 73
     3
  0
TEXT
  5
E40
330
12A8
100
AcDbEntity
  8
PHASEI_LABELS
100
AcDbText
 10
-1134.480556
 20
-468.522585
 30
0.0
 40
5.0
  1
F04
  7
STYLE-GARAMOND
 11
-1134.480556
 21
-463.522585
 31
0.0
100
AcDbText
 73
     3
  0
TEXT
  5
E41
330
12A8
100
AcDbEntity
  8
PHASEI_LABELS
100
AcDbText
 10
-1074.506105
 20
-434.035059
 30
0.0
 40
5.0
  1
F05
  7
STYLE-GARAMOND
 11
-1074.506105
 21
-429.035059
 31
0.0
100
AcDbText
 73
     3
  0
TEXT
  5
E42
330
12A8
100
AcDbEntity
  8
PHASEI_LABELS
100
AcDbText
 10
-1027.282128
 20
-408.99617
 30
0.0
 40
5.0
  1
F06
  7
STYLE-GARAMOND
 11
-1027.282128
 21
-403.99617
 31
0.0
100
AcDbText
 73
     3
  0
TEXT
  5
E43
330
12A8
100
AcDbEntity
  8
PHASEI_LABELS
100
AcDbText
 10
-975.807993
 20
-383.957282
 30
0.0
 40
5.0
  1
F07
  7
STYLE-GARAMOND
 11
-975.807993
 21
-378.957282
 31
0.0
100
AcDbText
 73
     3
  0
TEXT
  5
E44
330
12A8
100
AcDbEntity
  8
PHASEI_LABELS
100
AcDbText
 10
-909.694425
 20
-349.942187
 30
0.0
 40
5.0
  1
F08
  7
STYLE-GARAMOND
 11
-909.694425
 21
-344.942187
 31
0.0
100
AcDbText
 73
     3
  0
TEXT
  5
E45
330
12A8
100
AcDbEntity
  8
PHASEI_LABELS
100
AcDbText
 10
-783.134167
 20
-276.242817
 30
0.0
 40
5.0
  1
F09
  7
STYLE-GARAMOND
 11
-783.134167
 21
-271.242817
 31
0.0
100
AcDbText
 73
     3
  0
TEXT
  5
E46
330
12A8
100
AcDbEntity
  8
PHASEI_LABELS
100
AcDbText
 10
-718.248423
 20
-237.975836
 30
0.0
 40
5.0
  1
F10
  7
STYLE-GARAMOND
 11
-718.248423
 21
-232.975836
 31
0.0
100
AcDbText
 73
     3
  0
TEXT
  5
E47
330
12A8
100
AcDbEntity
  8
PHASEI_LABELS
100
AcDbText
 10
-632.206337
 20
-194.417618
 30
0.0
 40
5.0
  1
F11
  7
STYLE-GARAMOND
 11
-632.206337
 21
-189.417618
 31
0.0
100
AcDbText
 73
     3
  0
TEXT
  5
E48
330
12A8
100
AcDbEntity
  8
PHASEI_LABELS
100
AcDbText
 10
-562.787091
 20
-152.371182
 30
0.0
 40
5.0
  1
F12
  7
STYLE-GARAMOND
 11
-562.787091
 21
-147.371182
 31
0.0
100
AcDbText
 73
     3
  0
TEXT
  5
E49
330
12A8
100
AcDbEntity
  8
PHASEI_LABELS
100
AcDbText
 10
-483.45081
 20
-104.183132
 30
0.0
 40
5.0
  1
F13
  7
STYLE-GARAMOND
 11
-483.45081
 21
-99.183132
 31
0.0
100
AcDbText
 73
     3
  0
TEXT
  5
E4A
330
12A8
100
AcDbEntity
  8
PHASEI_LABELS
100
AcDbText
 10
-415.448283
 20
-65.916151
 30
0.0
 40
5.0
  1
F14
  7
STYLE-GARAMOND
 11
-415.448283
 21
-60.916151
 31
0.0
100
AcDbText
 73
     3
  0
TEXT
  5
E4B
330
12A8
100
AcDbEntity
  8
PHASEI_LABELS
100
AcDbText
 10
-233.919315
 20
58.853104
 30
0.0
 40
5.0
  1
F17
  7
STYLE-GARAMOND
 11
-233.919315
 21
63.853104
 31
0.0
100
AcDbText
 73
     3
  0
TEXT
  5
E4C
330
12A8
100
AcDbEntity
  8
PHASEI_LABELS
100
AcDbText
 10
-178.195023
 20
94.285494
 30
0.0
 40
5.0
  1
F18
  7
STYLE-GARAMOND
 11
-178.195023
 21
99.285494
 31
0.0
100
AcDbText
 73
     3
  0
TEXT
  5
E4D
330
12A8
100
AcDbEntity
  8
PHASEI_LABELS
100
AcDbText
 10
-119.637291
 20
125.465997
 30
0.0
 40
5.0
  1
F19
  7
STYLE-GARAMOND
 11
-119.637291
 21
130.465997
 31
0.0
100
AcDbText
 73
     3
  0
TEXT
  5
E4E
330
12A8
100
AcDbEntity
  8
PHASEI_LABELS
100
AcDbText
 10
-64.385238
 20
160.898387
 30
0.0
 40
5.0
  1
F20
  7
STYLE-GARAMOND
 11
-64.385238
 21
165.898387
 31
0.0
100
AcDbText
 73
     3
  0
TEXT
  5
E4F
330
12A8
100
AcDbEntity
  8
PHASEI_LABELS
100
AcDbText
 10
-13.855583
 20
188.299435
 30
0.0
 40
5.0
  1
F21
  7
STYLE-GARAMOND
 11
-13.855583
 21
193.299435
 31
0.0
100
AcDbText
 73
     3
  0
TEXT
  5
E50
330
12A8
100
AcDbEntity
  8
PHASEI_LABELS
100
AcDbText
 10
43.049309
 20
220.046856
 30
0.0
 40
5.0
  1
F22
  7
STYLE-GARAMOND
 11
43.049309
 21
225.046856
 31
0.0
100
AcDbText
 73
     3
  0
TEXT
  5
E51
330
12A8
100
AcDbEntity
  8
PHASEI_LABELS
100
AcDbText
 10
95.940164
 20
247.447904
 30
0.0
 40
5.0
  1
F23
  7
STYLE-GARAMOND
 11
95.940164
 21
252.447904
 31
0.0
100
AcDbText
 73
     3
  0
TEXT
  5
E52
330
12A8
100
AcDbEntity
  8
PHASEI_LABELS
100
AcDbText
 10
146.942059
 20
282.880294
 30
0.0
 40
5.0
  1
F24
  7
STYLE-GARAMOND
 11
146.942059
 21
287.880294
 31
0.0
100
AcDbText
 73
     3
  0
TEXT
  5
E5A
330
12A8
100
AcDbEntity
  8
PHASEI_LABELS
100
AcDbText
 10
-1286.156661
 20
-624.513221
 30
0.0
 40
5.0
  1
E01
  7
STYLE-GARAMOND
 11
-1286.156661
 21
-619.513221
 31
0.0
100
AcDbText
 73
     3
  0
TEXT
  5
E5B
330
12A8
100
AcDbEntity
  8
PHASEI_LABELS
100
AcDbText
 10
-1219.706841
 20
-590.202589
 30
0.0
 40
5.0
  1
E02
  7
STYLE-GARAMOND
 11
-1219.706841
 21
-585.202589
 31
0.0
100
AcDbText
 73
     3
  0
TEXT
  5
E5C
330
12A8
100
AcDbEntity
  8
PHASEI_LABELS
100
AcDbText
 10
-1158.615877
 20
-558.572475
 30
0.0
 40
5.0
  1
E03
  7
STYLE-GARAMOND
 11
-1158.615877
 21
-553.572475
 31
0.0
100
AcDbText
 73
     3
  0
TEXT
  5
E5D
330
12A8
100
AcDbEntity
  8
PHASEI_LABELS
100
AcDbText
 10
-1095.381371
 20
-524.261843
 30
0.0
 40
5.0
  1
E04
  7
STYLE-GARAMOND
 11
-1095.381371
 21
-519.261843
 31
0.0
100
AcDbText
 73
     3
  0
TEXT
  5
E5E
330
12A8
100
AcDbEntity
  8
PHASEI_LABELS
100
AcDbText
 10
-1040.721035
 20
-491.023417
 30
0.0
 40
5.0
  1
E05
  7
STYLE-GARAMOND
 11
-1040.721035
 21
-486.023417
 31
0.0
100
AcDbText
 73
     3
  0
TEXT
  5
E5F
330
12A8
100
AcDbEntity
  8
PHASEI_LABELS
100
AcDbText
 10
-979.094185
 20
-456.712785
 30
0.0
 40
5.0
  1
E06
  7
STYLE-GARAMOND
 11
-979.094185
 21
-451.712785
 31
0.0
100
AcDbText
 73
     3
  0
TEXT
  5
E60
330
12A8
100
AcDbEntity
  8
PHASEI_LABELS
100
AcDbText
 10
-920.68265
 20
-423.47436
 30
0.0
 40
5.0
  1
E07
  7
STYLE-GARAMOND
 11
-920.68265
 21
-418.47436
 31
0.0
100
AcDbText
 73
     3
  0
TEXT
  5
E61
330
12A8
100
AcDbEntity
  8
PHASEI_LABELS
100
AcDbText
 10
-866.022314
 20
-390.772038
 30
0.0
 40
5.0
  1
E08
  7
STYLE-GARAMOND
 11
-866.022314
 21
-385.772038
 31
0.0
100
AcDbText
 73
     3
  0
TEXT
  5
E62
330
12A8
100
AcDbEntity
  8
PHASEI_LABELS
100
AcDbText
 10
-802.787807
 20
-356.461406
 30
0.0
 40
5.0
  1
E09
  7
STYLE-GARAMOND
 11
-802.787807
 21
-351.461406
 31
0.0
100
AcDbText
 73
     3
  0
TEXT
  5
E63
330
12A8
100
AcDbEntity
  8
PHASEI_LABELS
100
AcDbText
 10
-746.787757
 20
-327.51181
 30
0.0
 40
5.0
  1
E10
  7
STYLE-GARAMOND
 11
-746.787757
 21
-322.51181
 31
0.0
100
AcDbText
 73
     3
  0
TEXT
  5
E64
330
12A8
100
AcDbEntity
  8
PHASEI_LABELS
100
AcDbText
 10
-683.553251
 20
-290.788711
 30
0.0
 40
5.0
  1
E11
  7
STYLE-GARAMOND
 11
-683.553251
 21
-285.788711
 31
0.0
100
AcDbText
 73
     3
  0
TEXT
  5
E65
330
12A8
100
AcDbEntity
  8
PHASEI_LABELS
100
AcDbText
 10
-620.318745
 20
-257.550286
 30
0.0
 40
5.0
  1
E12
  7
STYLE-GARAMOND
 11
-620.318745
 21
-252.550286
 31
0.0
100
AcDbText
 73
     3
  0
TEXT
  5
E66
330
12A8
100
AcDbEntity
  8
PHASEI_LABELS
100
AcDbText
 10
-568.337837
 20
-228.60069
 30
0.0
 40
5.0
  1
E13
  7
STYLE-GARAMOND
 11
-568.337837
 21
-223.60069
 31
0.0
100
AcDbText
 73
     3
  0
TEXT
  5
E67
330
12A8
100
AcDbEntity
  8
PHASEI_LABELS
100
AcDbText
 10
-509.390416
 20
-191.073436
 30
0.0
 40
5.0
  1
E14
  7
STYLE-GARAMOND
 11
-509.390416
 21
-186.073436
 31
0.0
100
AcDbText
 73
     3
  0
TEXT
  5
E68
330
12A8
100
AcDbEntity
  8
PHASEI_LABELS
100
AcDbText
 10
-451.514766
 20
-152.473975
 30
0.0
 40
5.0
  1
E15
  7
STYLE-GARAMOND
 11
-451.514766
 21
-147.473975
 31
0.0
100
AcDbText
 73
     3
  0
TEXT
  5
E69
330
12A8
100
AcDbEntity
  8
PHASEI_LABELS
100
AcDbText
 10
-396.318544
 20
-119.235549
 30
0.0
 40
5.0
  1
E16
  7
STYLE-GARAMOND
 11
-396.318544
 21
-114.235549
 31
0.0
100
AcDbText
 73
     3
  0
TEXT
  5
E6A
330
12A8
100
AcDbEntity
  8
PHASEI_LABELS
100
AcDbText
 10
-339.514666
 20
-86.533228
 30
0.0
 40
5.0
  1
E17
  7
STYLE-GARAMOND
 11
-339.514666
 21
-81.533228
 31
0.0
100
AcDbText
 73
     3
  0
TEXT
  5
E6B
330
12A8
100
AcDbEntity
  8
PHASEI_LABELS
100
AcDbText
 10
-284.10409
 20
-55.171166
 30
0.0
 40
5.0
  1
E18
  7
STYLE-GARAMOND
 11
-284.10409
 21
-50.171166
 31
0.0
100
AcDbText
 73
     3
  0
TEXT
  5
E6C
330
12A8
100
AcDbEntity
  8
PHASEI_LABELS
100
AcDbText
 10
-206.936557
 20
-7.994046
 30
0.0
 40
5.0
  1
E19
  7
STYLE-GARAMOND
 11
-206.936557
 21
-2.994046
 31
0.0
100
AcDbText
 73
     3
  0
TEXT
  5
E6D
330
12A8
100
AcDbEntity
  8
PHASEI_LABELS
100
AcDbText
 10
-132.562893
 20
38.9954
 30
0.0
 40
5.0
  1
E20
  7
STYLE-GARAMOND
 11
-132.562893
 21
43.9954
 31
0.0
100
AcDbText
 73
     3
  0
TEXT
  5
E6E
330
12A8
100
AcDbEntity
  8
PHASEI_LABELS
100
AcDbText
 10
-26.981979
 20
113.218432
 30
0.0
 40
5.0
  1
E22
  7
STYLE-GARAMOND
 11
-26.981979
 21
118.218432
 31
0.0
100
AcDbText
 73
     3
  0
TEXT
  5
E6F
330
12A8
100
AcDbEntity
  8
PHASEI_LABELS
100
AcDbText
 10
20.493312
 20
137.504479
 30
0.0
 40
5.0
  1
E23
  7
STYLE-GARAMOND
 11
20.493312
 21
142.504479
 31
0.0
100
AcDbText
 73
     3
  0
TEXT
  5
E70
330
12A8
100
AcDbEntity
  8
PHASEI_LABELS
100
AcDbText
 10
67.651249
 20
166.454075
 30
0.0
 40
5.0
  1
E24
  7
STYLE-GARAMOND
 11
67.651249
 21
171.454075
 31
0.0
100
AcDbText
 73
     3
  0
TEXT
  5
E71
330
12A8
100
AcDbEntity
  8
PHASEI_LABELS
100
AcDbText
 10
115.345072
 20
193.259257
 30
0.0
 40
5.0
  1
E25
  7
STYLE-GARAMOND
 11
115.345072
 21
198.259257
 31
0.0
100
AcDbText
 73
     3
  0
TEXT
  5
E72
330
12A8
100
AcDbEntity
  8
PHASEI_LABELS
100
AcDbText
 10
161.967123
 20
217.920024
 30
0.0
 40
5.0
  1
E26
  7
STYLE-GARAMOND
 11
161.967123
 21
222.920024
 31
0.0
100
AcDbText
 73
     3
  0
TEXT
  5
E73
330
12A8
100
AcDbEntity
  8
PHASEI_LABELS
100
AcDbText
 10
212.340374
 20
243.652998
 30
0.0
 40
5.0
  1
E27
  7
STYLE-GARAMOND
 11
212.340374
 21
248.652998
 31
0.0
100
AcDbText
 73
     3
  0
TEXT
  5
E74
330
12A8
100
AcDbEntity
  8
PHASEI_LABELS
100
AcDbText
 10
254.67534
 20
268.313765
 30
0.0
 40
5.0
  1
E28
  7
STYLE-GARAMOND
 11
254.67534
 21
273.313765
 31
0.0
100
AcDbText
 73
     3
  0
TEXT
  5
E75
330
12A8
100
AcDbEntity
  8
PHASEI_LABELS
100
AcDbText
 10
-1290.688431
 20
-719.709932
 30
0.0
 40
5.0
  1
D01
  7
STYLE-GARAMOND
 11
-1290.688431
 21
-714.709932
 31
0.0
100
AcDbText
 73
     3
  0
TEXT
  5
E76
330
12A8
100
AcDbEntity
  8
PHASEI_LABELS
100
AcDbText
 10
-1252.236962
 20
-685.487469
 30
0.0
 40
5.0
  1
D02
  7
STYLE-GARAMOND
 11
-1252.236962
 21
-680.487469
 31
0.0
100
AcDbText
 73
     3
  0
TEXT
  5
E77
330
12A8
100
AcDbEntity
  8
PHASEI_LABELS
100
AcDbText
 10
-1202.117461
 20
-654.713781
 30
0.0
 40
5.0
  1
D03
  7
STYLE-GARAMOND
 11
-1202.117461
 21
-649.713781
 31
0.0
100
AcDbText
 73
     3
  0
TEXT
  5
E78
330
12A8
100
AcDbEntity
  8
PHASEI_LABELS
100
AcDbText
 10
-1159.953437
 20
-631.898806
 30
0.0
 40
5.0
  1
D04
  7
STYLE-GARAMOND
 11
-1159.953437
 21
-626.898806
 31
0.0
100
AcDbText
 73
     3
  0
TEXT
  5
E79
330
12A8
100
AcDbEntity
  8
PHASEI_LABELS
100
AcDbText
 10
-1113.28131
 20
-604.043312
 30
0.0
 40
5.0
  1
D05
  7
STYLE-GARAMOND
 11
-1113.28131
 21
-599.043312
 31
0.0
100
AcDbText
 73
     3
  0
TEXT
  5
E7A
330
12A8
100
AcDbEntity
  8
PHASEI_LABELS
100
AcDbText
 10
-1060.244801
 20
-572.739044
 30
0.0
 40
5.0
  1
D06
  7
STYLE-GARAMOND
 11
-1060.244801
 21
-567.739044
 31
0.0
100
AcDbText
 73
     3
  0
TEXT
  5
E7B
330
12A8
100
AcDbEntity
  8
PHASEI_LABELS
100
AcDbText
 10
-1009.594935
 20
-544.61826
 30
0.0
 40
5.0
  1
D07
  7
STYLE-GARAMOND
 11
-1009.594935
 21
-539.61826
 31
0.0
100
AcDbText
 73
     3
  0
TEXT
  5
E7C
330
12A8
100
AcDbEntity
  8
PHASEI_LABELS
100
AcDbText
 10
-960.111873
 20
-516.974999
 30
0.0
 40
5.0
  1
D08
  7
STYLE-GARAMOND
 11
-960.111873
 21
-511.974999
 31
0.0
100
AcDbText
 73
     3
  0
TEXT
  5
E7D
330
12A8
100
AcDbEntity
  8
PHASEI_LABELS
100
AcDbText
 10
-909.196825
 20
-488.588925
 30
0.0
 40
5.0
  1
D09
  7
STYLE-GARAMOND
 11
-909.196825
 21
-483.588925
 31
0.0
100
AcDbText
 73
     3
  0
TEXT
  5
E7E
330
12A8
100
AcDbEntity
  8
PHASEI_LABELS
100
AcDbText
 10
-864.115792
 20
-463.651626
 30
0.0
 40
5.0
  1
D10
  7
STYLE-GARAMOND
 11
-864.115792
 21
-458.651626
 31
0.0
100
AcDbText
 73
     3
  0
TEXT
  5
E7F
330
12A8
100
AcDbEntity
  8
PHASEI_LABELS
100
AcDbText
 10
-816.9133
 20
-437.918456
 30
0.0
 40
5.0
  1
D11
  7
STYLE-GARAMOND
 11
-816.9133
 21
-432.918456
 31
0.0
100
AcDbText
 73
     3
  0
TEXT
  5
E80
330
12A8
100
AcDbEntity
  8
PHASEI_LABELS
100
AcDbText
 10
-762.020513
 20
-407.94064
 30
0.0
 40
5.0
  1
D12
  7
STYLE-GARAMOND
 11
-762.020513
 21
-402.94064
 31
0.0
100
AcDbText
 73
     3
  0
TEXT
  5
E81
330
12A8
100
AcDbEntity
  8
PHASEI_LABELS
100
AcDbText
 10
-703.28258
 20
-375.097687
 30
0.0
 40
5.0
  1
D13
  7
STYLE-GARAMOND
 11
-703.28258
 21
-370.097687
 31
0.0
100
AcDbText
 73
     3
  0
TEXT
  5
E82
330
12A8
100
AcDbEntity
  8
PHASEI_LABELS
100
AcDbText
 10
-644.942421
 20
-341.671095
 30
0.0
 40
5.0
  1
D14
  7
STYLE-GARAMOND
 11
-644.942421
 21
-336.671095
 31
0.0
100
AcDbText
 73
     3
  0
TEXT
  5
E83
330
12A8
100
AcDbEntity
  8
PHASEI_LABELS
100
AcDbText
 10
-579.707515
 20
-306.918051
 30
0.0
 40
5.0
  1
D15
  7
STYLE-GARAMOND
 11
-579.707515
 21
-301.918051
 31
0.0
100
AcDbText
 73
     3
  0
TEXT
  5
E84
330
12A8
100
AcDbEntity
  8
PHASEI_LABELS
100
AcDbText
 10
-520.465735
 20
-271.899717
 30
0.0
 40
5.0
  1
D16
  7
STYLE-GARAMOND
 11
-520.465735
 21
-266.899717
 31
0.0
100
AcDbText
 73
     3
  0
TEXT
  5
E85
330
12A8
100
AcDbEntity
  8
PHASEI_LABELS
100
AcDbText
 10
-458.943385
 20
-237.279318
 30
0.0
 40
5.0
  1
D17
  7
STYLE-GARAMOND
 11
-458.943385
 21
-232.279318
 31
0.0
100
AcDbText
 73
     3
  0
TEXT
  5
E86
330
12A8
100
AcDbEntity
  8
PHASEI_LABELS
100
AcDbText
 10
-401.133591
 20
-208.893244
 30
0.0
 40
5.0
  1
D18
  7
STYLE-GARAMOND
 11
-401.133591
 21
-203.893244
 31
0.0
100
AcDbText
 73
     3
  0
TEXT
  5
E87
330
12A8
100
AcDbEntity
  8
PHASEI_LABELS
100
AcDbText
 10
-351.146681
 20
-180.77246
 30
0.0
 40
5.0
  1
D19
  7
STYLE-GARAMOND
 11
-351.146681
 21
-175.77246
 31
0.0
100
AcDbText
 73
     3
  0
POINT
  5
E91
330
12A8
100
AcDbEntity
  8
PHASEI_STPS
100
AcDbPoint
 10
-1376.817794
 20
-233.974246
 30
0.0
 50
5.894098
  0
POINT
  5
E92
330
12A8
100
AcDbEntity
  8
PHASEI_STPS
100
AcDbPoint
 10
-1353.469538
 20
-288.406239
 30
0.0
 50
5.894098
  0
POINT
  5
E93
330
12A8
100
AcDbEntity
  8
PHASEI_STPS
100
AcDbPoint
 10
-1326.217438
 20
-343.67035
 30
0.0
 50
5.894098
  0
POINT
  5
E94
330
12A8
100
AcDbEntity
  8
PHASEI_STPS
100
AcDbPoint
 10
-1306.745807
 20
-400.5719
 30
0.0
 50
5.894098
  0
POINT
  5
E95
330
12A8
100
AcDbEntity
  8
PHASEI_STPS
100
AcDbPoint
 10
-1301.634418
 20
-474.650601
 30
0.0
 50
5.894098
  0
POINT
  5
E96
330
12A8
100
AcDbEntity
  8
PHASEI_STPS
100
AcDbPoint
 10
-1295.750251
 20
-549.356265
 30
0.0
 50
5.894098
  0
POINT
  5
E97
330
12A8
100
AcDbEntity
  8
PHASEI_STPS
100
AcDbPoint
 10
-1282.636877
 20
-614.24116
 30
0.0
 50
5.894098
  0
POINT
  5
E98
330
12A8
100
AcDbEntity
  8
PHASEI_STPS
100
AcDbPoint
 10
-1286.358903
 20
-709.886719
 30
0.0
 50
5.894098
  0
POINT
  5
E99
330
12A8
100
AcDbEntity
  8
PHASEI_STPS
100
AcDbPoint
 10
-1276.876639
 20
-780.775093
 30
0.0
 50
5.894098
  0
POINT
  5
E9A
330
12A8
100
AcDbEntity
  8
PHASEI_STPS
100
AcDbPoint
 10
-1259.059355
 20
-839.160781
 30
0.0
 50
5.894098
  0
TEXT
  5
E9C
330
12A8
100
AcDbEntity
  8
TRANSECTS
100
AcDbText
 10
-1296.221239
 20
-918.51566
 30
0.0
 40
21.802446
  1
A
 50
305.196457
  7
ROMANS
100
AcDbText
  0
TEXT
  5
E9D
330
12A8
100
AcDbEntity
  8
TRANSECTS
100
AcDbText
 10
-1310.507388
 20
-859.345372
 30
0.0
 40
21.802446
  1
B
 50
305.044925
  7
ROMANS
100
AcDbText
  0
TEXT
  5
E9E
330
12A8
100
AcDbEntity
  8
TRANSECTS
100
AcDbText
 10
-1329.687669
 20
-789.847436
 30
0.0
 40
21.802446
  1
C
 50
305.725399
  7
ROMANS
100
AcDbText
  0
TEXT
  5
E9F
330
12A8
100
AcDbEntity
  8
TRANSECTS
100
AcDbText
 10
-1341.168349
 20
-721.176307
 30
0.0
 40
21.802446
  1
D
 50
306.244721
  7
ROMANS
100
AcDbText
  0
TEXT
  5
EA0
330
12A8
100
AcDbEntity
  8
TRANSECTS
100
AcDbText
 10
-1354.976216
 20
-633.215936
 30
0.0
 40
21.802446
  1
E
 50
300.757834
  7
ROMANS
100
AcDbText
  0
TEXT
  5
EA1
330
12A8
100
AcDbEntity
  8
TRANSECTS
100
AcDbText
 10
-1367.197616
 20
-569.207201
 30
0.0
 40
21.802446
  1
F
 50
302.606721
  7
ROMANS
100
AcDbText
  0
TEXT
  5
EA2
330
12A8
100
AcDbEntity
  8
TRANSECTS
100
AcDbText
 10
-1381.823391
 20
-488.579043
 30
0.0
 40
21.802446
  1
G
 50
294.816457
  7
ROMANS
100
AcDbText
  0
TEXT
  5
EA3
330
12A8
100
AcDbEntity
  8
TRANSECTS
100
AcDbText
 10
-1394.192983
 20
-423.116398
 30
0.0
 40
21.802446
  1
H
 50
300.430305
  7
ROMANS
100
AcDbText
  0
TEXT
  5
EA4
330
12A8
100
AcDbEntity
  8
TRANSECTS
100
AcDbText
 10
-1401.822637
 20
-372.098058
 30
0.0
 40
21.802446
  1
I
 50
302.811931
  7
ROMANS
100
AcDbText
  0
TEXT
  5
EA5
330
12A8
100
AcDbEntity
  8
TRANSECTS
100
AcDbText
 10
-1414.164063
 20
-310.999582
 30
0.0
 40
21.802446
  1
J
 50
309.360284
  7
ROMANS
100
AcDbText
  0
TEXT
  5
EA6
330
12A8
100
AcDbEntity
  8
TRANSECTS
100
AcDbText
 10
-1426.303508
 20
-257.966031
 30
0.0
 40
21.802446
  1
K
 50
307.191535
  7
ROMANS
100
AcDbText
  0
POINT
  5
EAC
330
12A8
100
AcDbEntity
  8
PHASEI_STPS
100
AcDbPoint
 10
-1332.27193
 20
-207.965439
 30
0.0
 50
5.894098
  0
POINT
  5
EAD
330
12A8
100
AcDbEntity
  8
PHASEI_STPS
100
AcDbPoint
 10
-1305.546585
 20
-263.651533
 30
0.0
 50
5.894098
  0
POINT
  5
EAE
330
12A8
100
AcDbEntity
  8
PHASEI_STPS
100
AcDbPoint
 10
-1252.547407
 20
-233.73044
 30
0.0
 50
5.894098
  0
POINT
  5
EAF
330
12A8
100
AcDbEntity
  8
PHASEI_STPS
100
AcDbPoint
 10
-1202.120959
 20
-205.912191
 30
0.0
 50
5.894098
  0
POINT
  5
EB0
330
12A8
100
AcDbEntity
  8
PHASEI_STPS
100
AcDbPoint
 10
-1276.957651
 20
-316.12998
 30
0.0
 50
5.894098
  0
POINT
  5
EB1
330
12A8
100
AcDbEntity
  8
PHASEI_STPS
100
AcDbPoint
 10
-1225.199821
 20
-284.109492
 30
0.0
 50
5.894098
  0
POINT
  5
EB2
330
12A8
100
AcDbEntity
  8
PHASEI_STPS
100
AcDbPoint
 10
-1178.414816
 20
-256.497468
 30
0.0
 50
5.894098
  0
POINT
  5
EB3
330
12A8
100
AcDbEntity
  8
PHASEI_STPS
100
AcDbPoint
 10
-1131.632138
 20
-229.108438
 30
0.0
 50
5.894098
  0
POINT
  5
EB4
330
12A8
100
AcDbEntity
  8
PHASEI_STPS
100
AcDbPoint
 10
-1247.819567
 20
-366.499949
 30
0.0
 50
5.894098
  0
POINT
  5
EB5
330
12A8
100
AcDbEntity
  8
PHASEI_STPS
100
AcDbPoint
 10
-1197.90853
 20
-335.777987
 30
0.0
 50
5.894098
  0
POINT
  5
EB6
330
12A8
100
AcDbEntity
  8
PHASEI_STPS
100
AcDbPoint
 10
-1146.752212
 20
-310.229544
 30
0.0
 50
5.894098
  0
POINT
  5
EB7
330
12A8
100
AcDbEntity
  8
PHASEI_STPS
100
AcDbPoint
 10
-1091.724868
 20
-276.97868
 30
0.0
 50
5.894098
  0
POINT
  5
EB8
330
12A8
100
AcDbEntity
  8
PHASEI_STPS
100
AcDbPoint
 10
-1034.628571
 20
-248.431413
 30
0.0
 50
5.894098
  0
POINT
  5
EB9
330
12A8
100
AcDbEntity
  8
PHASEI_STPS
100
AcDbPoint
 10
-978.421217
 20
-221.110624
 30
0.0
 50
5.894098
  0
POINT
  5
EBA
330
12A8
100
AcDbEntity
  8
PHASEI_STPS
100
AcDbPoint
 10
-1250.081757
 20
-446.719992
 30
0.0
 50
5.894098
  0
POINT
  5
EBB
330
12A8
100
AcDbEntity
  8
PHASEI_STPS
100
AcDbPoint
 10
-1196.262108
 20
-420.884733
 30
0.0
 50
5.894098
  0
POINT
  5
EBC
330
12A8
100
AcDbEntity
  8
PHASEI_STPS
100
AcDbPoint
 10
-1142.682867
 20
-392.804413
 30
0.0
 50
5.894098
  0
POINT
  5
EBD
330
12A8
100
AcDbEntity
  8
PHASEI_STPS
100
AcDbPoint
 10
-1089.424067
 20
-364.964212
 30
0.0
 50
5.894098
  0
POINT
  5
EBE
330
12A8
100
AcDbEntity
  8
PHASEI_STPS
100
AcDbPoint
 10
-1035.491822
 20
-336.901738
 30
0.0
 50
5.894098
  0
POINT
  5
EBF
330
12A8
100
AcDbEntity
  8
PHASEI_STPS
100
AcDbPoint
 10
-985.065373
 20
-309.083489
 30
0.0
 50
5.894098
  0
POINT
  5
EC0
330
12A8
100
AcDbEntity
  8
PHASEI_STPS
100
AcDbPoint
 10
-925.671352
 20
-277.774726
 30
0.0
 50
5.894098
  0
POINT
  5
EC1
330
12A8
100
AcDbEntity
  8
PHASEI_STPS
100
AcDbPoint
 10
-1240.527948
 20
-519.069557
 30
0.0
 50
5.894098
  0
POINT
  5
EC2
330
12A8
100
AcDbEntity
  8
PHASEI_STPS
100
AcDbPoint
 10
-1186.937447
 20
-490.766516
 30
0.0
 50
5.894098
  0
POINT
  5
EC3
330
12A8
100
AcDbEntity
  8
PHASEI_STPS
100
AcDbPoint
 10
-1131.244142
 20
-457.459217
 30
0.0
 50
5.894098
  0
POINT
  5
EC4
330
12A8
100
AcDbEntity
  8
PHASEI_STPS
100
AcDbPoint
 10
-1070.814866
 20
-424.636423
 30
0.0
 50
5.894098
  0
POINT
  5
EC5
330
12A8
100
AcDbEntity
  8
PHASEI_STPS
100
AcDbPoint
 10
-1022.972405
 20
-399.14374
 30
0.0
 50
5.894098
  0
POINT
  5
EC6
330
12A8
100
AcDbEntity
  8
PHASEI_STPS
100
AcDbPoint
 10
-970.505936
 20
-373.66153
 30
0.0
 50
5.894098
  0
POINT
  5
EC7
330
12A8
100
AcDbEntity
  8
PHASEI_STPS
100
AcDbPoint
 10
-905.897107
 20
-340.383492
 30
0.0
 50
5.894098
  0
POINT
  5
EC8
330
12A8
100
AcDbEntity
  8
PHASEI_STPS
100
AcDbPoint
 10
-1216.669035
 20
-580.460224
 30
0.0
 50
5.894098
  0
POINT
  5
EC9
330
12A8
100
AcDbEntity
  8
PHASEI_STPS
100
AcDbPoint
 10
-1155.108681
 20
-547.87099
 30
0.0
 50
5.894098
  0
POINT
  5
ECA
330
12A8
100
AcDbEntity
  8
PHASEI_STPS
100
AcDbPoint
 10
-1092.286594
 20
-513.815536
 30
0.0
 50
5.894098
  0
POINT
  5
ECB
330
12A8
100
AcDbEntity
  8
PHASEI_STPS
100
AcDbPoint
 10
-1037.010944
 20
-481.553331
 30
0.0
 50
5.894098
  0
POINT
  5
ECC
330
12A8
100
AcDbEntity
  8
PHASEI_STPS
100
AcDbPoint
 10
-975.337994
 20
-446.736883
 30
0.0
 50
5.894098
  0
POINT
  5
ECD
330
12A8
100
AcDbEntity
  8
PHASEI_STPS
100
AcDbPoint
 10
-916.184002
 20
-414.183338
 30
0.0
 50
5.894098
  0
POINT
  5
ECE
330
12A8
100
AcDbEntity
  8
PHASEI_STPS
100
AcDbPoint
 10
-860.919612
 20
-382.143855
 30
0.0
 50
5.894098
  0
POINT
  5
ECF
330
12A8
100
AcDbEntity
  8
PHASEI_STPS
100
AcDbPoint
 10
-1011.520233
 20
-696.484465
 30
0.0
 50
5.894098
  0
POINT
  5
ED0
330
12A8
100
AcDbEntity
  8
PHASEI_STPS
100
AcDbPoint
 10
-965.706534
 20
-668.43302
 30
0.0
 50
5.894098
  0
POINT
  5
ED1
330
12A8
100
AcDbEntity
  8
PHASEI_STPS
100
AcDbPoint
 10
-917.443961
 20
-640.728668
 30
0.0
 50
5.894098
  0
POINT
  5
ED2
330
12A8
100
AcDbEntity
  8
PHASEI_STPS
100
AcDbPoint
 10
-872.357891
 20
-614.873346
 30
0.0
 50
5.894098
  0
POINT
  5
ED3
330
12A8
100
AcDbEntity
  8
PHASEI_STPS
100
AcDbPoint
 10
-823.900397
 20
-589.411755
 30
0.0
 50
5.894098
  0
POINT
  5
ED4
330
12A8
100
AcDbEntity
  8
PHASEI_STPS
100
AcDbPoint
 10
-776.057937
 20
-563.919071
 30
0.0
 50
5.894098
  0
POINT
  5
ED7
330
12A8
100
AcDbEntity
  8
PHASEI_STPS
100
AcDbPoint
 10
-848.18571
 20
-679.29463
 30
0.0
 50
5.894098
  0
POINT
  5
ED8
330
12A8
100
AcDbEntity
  8
PHASEI_STPS
100
AcDbPoint
 10
-1246.398809
 20
-675.10432
 30
0.0
 50
5.894098
  0
POINT
  5
ED9
330
12A8
100
AcDbEntity
  8
PHASEI_STPS
100
AcDbPoint
 10
-1155.876779
 20
-623.334452
 30
0.0
 50
5.894098
  0
POINT
  5
EDA
330
12A8
100
AcDbEntity
  8
PHASEI_STPS
100
AcDbPoint
 10
-1107.707266
 20
-594.980646
 30
0.0
 50
5.894098
  0
POINT
  5
EDB
330
12A8
100
AcDbEntity
  8
PHASEI_STPS
100
AcDbPoint
 10
-1054.311686
 20
-564.434843
 30
0.0
 50
5.894098
  0
POINT
  5
EDC
330
12A8
100
AcDbEntity
  8
PHASEI_STPS
100
AcDbPoint
 10
-1003.192577
 20
-536.230152
 30
0.0
 50
5.894098
  0
POINT
  5
EDD
330
12A8
100
AcDbEntity
  8
PHASEI_STPS
100
AcDbPoint
 10
-954.704287
 20
-507.66917
 30
0.0
 50
5.894098
  0
POINT
  5
EDE
330
12A8
100
AcDbEntity
  8
PHASEI_STPS
100
AcDbPoint
 10
-903.585179
 20
-479.46448
 30
0.0
 50
5.894098
  0
POINT
  5
EDF
330
12A8
100
AcDbEntity
  8
PHASEI_STPS
100
AcDbPoint
 10
-858.202852
 20
-453.847425
 30
0.0
 50
5.894098
  0
POINT
  5
EE0
330
12A8
100
AcDbEntity
  8
PHASEI_STPS
100
AcDbPoint
 10
-812.501748
 20
-428.023195
 30
0.0
 50
5.894098
  0
POINT
  5
EE1
330
12A8
100
AcDbEntity
  8
PHASEI_STPS
100
AcDbPoint
 10
-1229.546833
 20
-748.530071
 30
0.0
 50
5.894098
  0
POINT
  5
EE2
330
12A8
100
AcDbEntity
  8
PHASEI_STPS
100
AcDbPoint
 10
-1186.990828
 20
-722.397355
 30
0.0
 50
5.894098
  0
POINT
  5
EE3
330
12A8
100
AcDbEntity
  8
PHASEI_STPS
100
AcDbPoint
 10
-1089.380864
 20
-660.048304
 30
0.0
 50
5.894098
  0
POINT
  5
EE4
330
12A8
100
AcDbEntity
  8
PHASEI_STPS
100
AcDbPoint
 10
-1037.589976
 20
-631.654284
 30
0.0
 50
5.894098
  0
POINT
  5
EE5
330
12A8
100
AcDbEntity
  8
PHASEI_STPS
100
AcDbPoint
 10
-985.810348
 20
-603.482985
 30
0.0
 50
5.894098
  0
POINT
  5
EE6
330
12A8
100
AcDbEntity
  8
PHASEI_STPS
100
AcDbPoint
 10
-934.69124
 20
-575.278294
 30
0.0
 50
5.894098
  0
POINT
  5
EE7
330
12A8
100
AcDbEntity
  8
PHASEI_STPS
100
AcDbPoint
 10
-881.116646
 20
-544.799692
 30
0.0
 50
5.894098
  0
POINT
  5
EE8
330
12A8
100
AcDbEntity
  8
PHASEI_STPS
100
AcDbPoint
 10
-835.415543
 20
-518.975462
 30
0.0
 50
5.894098
  0
POINT
  5
EE9
330
12A8
100
AcDbEntity
  8
PHASEI_STPS
100
AcDbPoint
 10
-789.725699
 20
-493.373954
 30
0.0
 50
5.894098
  0
POINT
  5
EEC
330
12A8
100
AcDbEntity
  8
PHASEI_STPS
100
AcDbPoint
 10
-1210.991087
 20
-812.336261
 30
0.0
 50
5.894098
  0
POINT
  5
EED
330
12A8
100
AcDbEntity
  8
PHASEI_STPS
100
AcDbPoint
 10
-1165.289983
 20
-786.512032
 30
0.0
 50
5.894098
  0
POINT
  5
EEE
330
12A8
100
AcDbEntity
  8
PHASEI_STPS
100
AcDbPoint
 10
-1119.60014
 20
-760.910523
 30
0.0
 50
5.894098
  0
POINT
  5
EEF
330
12A8
100
AcDbEntity
  8
PHASEI_STPS
100
AcDbPoint
 10
-1069.173691
 20
-733.092274
 30
0.0
 50
5.894098
  0
POINT
  5
EF6
330
12A8
100
AcDbEntity
  8
PHASEI_STPS
100
AcDbPoint
 10
-739.050385
 20
-459.84743
 30
0.0
 50
5.894098
  0
POINT
  5
EF7
330
12A8
100
AcDbEntity
  8
PHASEI_STPS
100
AcDbPoint
 10
-687.056578
 20
-425.342503
 30
0.0
 50
5.894098
  0
POINT
  5
EF8
330
12A8
100
AcDbEntity
  8
PHASEI_STPS
100
AcDbPoint
 10
-631.861566
 20
-394.5602
 30
0.0
 50
5.894098
  0
POINT
  5
EF9
330
12A8
100
AcDbEntity
  8
PHASEI_STPS
100
AcDbPoint
 10
-574.790891
 20
-364.107261
 30
0.0
 50
5.894098
  0
POINT
  5
EFA
330
12A8
100
AcDbEntity
  8
PHASEI_STPS
100
AcDbPoint
 10
-519.620063
 20
-333.803345
 30
0.0
 50
5.894098
  0
POINT
  5
EFB
330
12A8
100
AcDbEntity
  8
PHASEI_STPS
100
AcDbPoint
 10
-454.090641
 20
-297.727366
 30
0.0
 50
5.894098
  0
POINT
  5
EFC
330
12A8
100
AcDbEntity
  8
PHASEI_STPS
100
AcDbPoint
 10
-387.73779
 20
-262.290727
 30
0.0
 50
5.894098
  0
POINT
  5
EFD
330
12A8
100
AcDbEntity
  8
PHASEI_STPS
100
AcDbPoint
 10
-755.253256
 20
-399.21514
 30
0.0
 50
5.894098
  0
POINT
  5
EFE
330
12A8
100
AcDbEntity
  8
PHASEI_STPS
100
AcDbPoint
 10
-697.296736
 20
-365.686463
 30
0.0
 50
5.894098
  0
POINT
  5
EFF
330
12A8
100
AcDbEntity
  8
PHASEI_STPS
100
AcDbPoint
 10
-636.986116
 20
-332.251789
 30
0.0
 50
5.894098
  0
POINT
  5
F00
330
12A8
100
AcDbEntity
  8
PHASEI_STPS
100
AcDbPoint
 10
-574.012343
 20
-298.449042
 30
0.0
 50
5.894098
  0
POINT
  5
F01
330
12A8
100
AcDbEntity
  8
PHASEI_STPS
100
AcDbPoint
 10
-515.064417
 20
-263.367023
 30
0.0
 50
5.894098
  0
POINT
  5
F02
330
12A8
100
AcDbEntity
  8
PHASEI_STPS
100
AcDbPoint
 10
-923.560111
 20
-191.847552
 30
0.0
 50
5.894098
  0
POINT
  5
F03
330
12A8
100
AcDbEntity
  8
PHASEI_STPS
100
AcDbPoint
 10
-452.832253
 20
-228.329115
 30
0.0
 50
5.894098
  0
POINT
  5
F04
330
12A8
100
AcDbEntity
  8
PHASEI_STPS
100
AcDbPoint
 10
-395.081858
 20
-199.842484
 30
0.0
 50
5.894098
  0
POINT
  5
F05
330
12A8
100
AcDbEntity
  8
PHASEI_STPS
100
AcDbPoint
 10
-346.224697
 20
-171.202527
 30
0.0
 50
5.894098
  0
POINT
  5
F06
330
12A8
100
AcDbEntity
  8
PHASEI_STPS
100
AcDbPoint
 10
-779.622722
 20
-265.610944
 30
0.0
 50
5.894098
  0
POINT
  5
F07
330
12A8
100
AcDbEntity
  8
PHASEI_STPS
100
AcDbPoint
 10
-712.763552
 20
-226.785347
 30
0.0
 50
5.894098
  0
POINT
  5
F08
330
12A8
100
AcDbEntity
  8
PHASEI_STPS
100
AcDbPoint
 10
-629.006859
 20
-181.965296
 30
0.0
 50
5.894098
  0
POINT
  5
F09
330
12A8
100
AcDbEntity
  8
PHASEI_STPS
100
AcDbPoint
 10
-559.384688
 20
-140.881334
 30
0.0
 50
5.894098
  0
POINT
  5
F0A
330
12A8
100
AcDbEntity
  8
PHASEI_STPS
100
AcDbPoint
 10
-412.705338
 20
-55.732017
 30
0.0
 50
5.894098
  0
POINT
  5
F0B
330
12A8
100
AcDbEntity
  8
PHASEI_STPS
100
AcDbPoint
 10
-478.903988
 20
-94.591006
 30
0.0
 50
5.894098
  0
POINT
  5
F0C
330
12A8
100
AcDbEntity
  8
PHASEI_STPS
100
AcDbPoint
 10
-741.471053
 20
-317.1644
 30
0.0
 50
5.894098
  0
POINT
  5
F0D
330
12A8
100
AcDbEntity
  8
PHASEI_STPS
100
AcDbPoint
 10
-678.853493
 20
-279.977075
 30
0.0
 50
5.894098
  0
POINT
  5
F0E
330
12A8
100
AcDbEntity
  8
PHASEI_STPS
100
AcDbPoint
 10
-616.531504
 20
-248.599406
 30
0.0
 50
5.894098
  0
POINT
  5
F0F
330
12A8
100
AcDbEntity
  8
PHASEI_STPS
100
AcDbPoint
 10
-562.822359
 20
-216.366724
 30
0.0
 50
5.894098
  0
POINT
  5
F10
330
12A8
100
AcDbEntity
  8
PHASEI_STPS
100
AcDbPoint
 10
-506.012205
 20
-181.346113
 30
0.0
 50
5.894098
  0
POINT
  5
F11
330
12A8
100
AcDbEntity
  8
PHASEI_STPS
100
AcDbPoint
 10
-446.149549
 20
-141.79561
 30
0.0
 50
5.894098
  0
POINT
  5
F12
330
12A8
100
AcDbEntity
  8
PHASEI_STPS
100
AcDbPoint
 10
-392.440404
 20
-109.562928
 30
0.0
 50
5.894098
  0
POINT
  5
F13
330
12A8
100
AcDbEntity
  8
PHASEI_STPS
100
AcDbPoint
 10
-334.805972
 20
-76.301391
 30
0.0
 50
5.894098
  0
POINT
  5
F14
330
12A8
100
AcDbEntity
  8
PHASEI_STPS
100
AcDbPoint
 10
-798.225237
 20
-206.593425
 30
0.0
 50
5.894098
  0
POINT
  5
F15
330
12A8
100
AcDbEntity
  8
PHASEI_STPS
100
AcDbPoint
 10
-735.146912
 20
-167.675881
 30
0.0
 50
5.894098
  0
POINT
  5
F16
330
12A8
100
AcDbEntity
  8
PHASEI_STPS
100
AcDbPoint
 10
-677.825232
 20
-134.123434
 30
0.0
 50
5.894098
  0
POINT
  5
F17
330
12A8
100
AcDbEntity
  8
PHASEI_STPS
100
AcDbPoint
 10
-620.503553
 20
-100.570986
 30
0.0
 50
5.894098
  0
POINT
  5
F18
330
12A8
100
AcDbEntity
  8
PHASEI_STPS
100
AcDbPoint
 10
-557.116274
 20
-64.927136
 30
0.0
 50
5.894098
  0
POINT
  5
F19
330
12A8
100
AcDbEntity
  8
PHASEI_STPS
100
AcDbPoint
 10
-436.105015
 20
-1.63704
 30
0.0
 50
5.894098
  0
POINT
  5
F1A
330
12A8
100
AcDbEntity
  8
PHASEI_STPS
100
AcDbPoint
 10
-378.147
 20
31.403629
 30
0.0
 50
5.894098
  0
POINT
  5
F1B
330
12A8
100
AcDbEntity
  8
PHASEI_STPS
100
AcDbPoint
 10
-315.420241
 20
67.080872
 30
0.0
 50
5.894098
  0
POINT
  5
F1C
330
12A8
100
AcDbEntity
  8
PHASEI_STPS
100
AcDbPoint
 10
-248.914412
 20
-196.623571
 30
0.0
 50
5.894098
  0
POINT
  5
F1D
330
12A8
100
AcDbEntity
  8
PHASEI_STPS
100
AcDbPoint
 10
-180.229748
 20
-154.181442
 30
0.0
 50
5.894098
  0
POINT
  5
F1E
330
12A8
100
AcDbEntity
  8
PHASEI_STPS
100
AcDbPoint
 10
-119.469515
 20
-118.607756
 30
0.0
 50
5.894098
  0
POINT
  5
F1F
330
12A8
100
AcDbEntity
  8
PHASEI_STPS
100
AcDbPoint
 10
-1136.03003
 20
-694.050391
 30
0.0
 50
5.894098
  0
POINT
  5
F20
330
12A8
100
AcDbEntity
  8
PHASEI_STPS
100
AcDbPoint
 10
-1195.676187
 20
-645.71278
 30
0.0
 50
5.894098
  0
POINT
  5
F22
330
12A8
100
AcDbEntity
  8
PHASEI_STPS
100
AcDbPoint
 10
-323.011374
 20
-225.996292
 30
0.0
 50
5.894098
  0
POINT
  5
F23
330
12A8
100
AcDbEntity
  8
PHASEI_STPS
100
AcDbPoint
 10
-798.044265
 20
-346.927646
 30
0.0
 50
5.894098
  0
POINT
  5
F24
330
12A8
100
AcDbEntity
  8
PHASEI_STPS
100
AcDbPoint
 10
-279.789674
 20
-44.225826
 30
0.0
 50
5.894098
  0
POINT
  5
F25
330
12A8
100
AcDbEntity
  8
PHASEI_STPS
100
AcDbPoint
 10
-859.137311
 20
-242.023763
 30
0.0
 50
5.894098
  0
POINT
  5
F26
330
12A8
100
AcDbEntity
  8
PHASEI_STPS
100
AcDbPoint
 10
-497.401485
 20
-32.004077
 30
0.0
 50
5.894098
  0
POINT
  5
F27
330
12A8
100
AcDbEntity
  8
PHASEI_STPS
100
AcDbPoint
 10
-852.528197
 20
-152.804531
 30
0.0
 50
5.894098
  0
POINT
  5
F28
330
12A8
100
AcDbEntity
  8
PHASEI_STPS
100
AcDbPoint
 10
-792.96003
 20
-119.386662
 30
0.0
 50
5.894098
  0
POINT
  5
F29
330
12A8
100
AcDbEntity
  8
PHASEI_STPS
100
AcDbPoint
 10
-739.512617
 20
-91.258568
 30
0.0
 50
5.894098
  0
POINT
  5
F2A
330
12A8
100
AcDbEntity
  8
PHASEI_STPS
100
AcDbPoint
 10
-676.452759
 20
-52.817841
 30
0.0
 50
5.894098
  0
POINT
  5
F2B
330
12A8
100
AcDbEntity
  8
PHASEI_STPS
100
AcDbPoint
 10
-611.093773
 20
-17.306129
 30
0.0
 50
5.894098
  0
POINT
  5
F2C
330
12A8
100
AcDbEntity
  8
PHASEI_STPS
100
AcDbPoint
 10
-548.336355
 20
18.204992
 30
0.0
 50
5.894098
  0
POINT
  5
F2D
330
12A8
100
AcDbEntity
  8
PHASEI_STPS
100
AcDbPoint
 10
-485.919168
 20
54.020403
 30
0.0
 50
5.894098
  0
POINT
  5
F2E
330
12A8
100
AcDbEntity
  8
PHASEI_STPS
100
AcDbPoint
 10
-432.169315
 20
85.078102
 30
0.0
 50
5.894098
  0
POINT
  5
F2F
330
12A8
100
AcDbEntity
  8
PHASEI_STPS
100
AcDbPoint
 10
-375.202717
 20
118.495381
 30
0.0
 50
5.894098
  0
POINT
  5
F38
330
12A8
100
AcDbEntity
  8
PHASEI_STPS
100
AcDbPoint
 10
-230.814118
 20
69.943521
 30
0.0
 50
5.894098
  0
POINT
  5
F39
330
12A8
100
AcDbEntity
  8
PHASEI_STPS
100
AcDbPoint
 10
-173.84752
 20
103.360799
 30
0.0
 50
5.894098
  0
POINT
  5
F3A
330
12A8
100
AcDbEntity
  8
PHASEI_STPS
100
AcDbPoint
 10
-114.306847
 20
136.512341
 30
0.0
 50
5.894098
  0
POINT
  5
F3B
330
12A8
100
AcDbEntity
  8
PHASEI_STPS
100
AcDbPoint
 10
-60.254554
 20
170.499647
 30
0.0
 50
5.894098
  0
POINT
  5
F3C
330
12A8
100
AcDbEntity
  8
PHASEI_STPS
100
AcDbPoint
 10
-9.381216
 20
198.893477
 30
0.0
 50
5.894098
  0
POINT
  5
F3D
330
12A8
100
AcDbEntity
  8
PHASEI_STPS
100
AcDbPoint
 10
46.942711
 20
229.685439
 30
0.0
 50
5.894098
  0
POINT
  5
F3E
330
12A8
100
AcDbEntity
  8
PHASEI_STPS
100
AcDbPoint
 10
101.032794
 20
260.438848
 30
0.0
 50
5.894098
  0
POINT
  5
F3F
330
12A8
100
AcDbEntity
  8
PHASEI_STPS
100
AcDbPoint
 10
152.208572
 20
291.762285
 30
0.0
 50
5.894098
  0
POINT
  5
F42
330
12A8
100
AcDbEntity
  8
PHASEI_STPS
100
AcDbPoint
 10
-201.296866
 20
2.127542
 30
0.0
 50
5.894098
  0
POINT
  5
F43
330
12A8
100
AcDbEntity
  8
PHASEI_STPS
100
AcDbPoint
 10
-127.934094
 20
47.410897
 30
0.0
 50
5.894098
  0
POINT
  5
F44
330
12A8
100
AcDbEntity
  8
PHASEI_STPS
100
AcDbPoint
 10
-21.743421
 20
120.569031
 30
0.0
 50
5.894098
  0
POINT
  5
F45
330
12A8
100
AcDbEntity
  8
PHASEI_STPS
100
AcDbPoint
 10
24.230174
 20
149.075775
 30
0.0
 50
5.894098
  0
POINT
  5
F46
330
12A8
100
AcDbEntity
  8
PHASEI_STPS
100
AcDbPoint
 10
71.064438
 20
176.499131
 30
0.0
 50
5.894098
  0
POINT
  5
F47
330
12A8
100
AcDbEntity
  8
PHASEI_STPS
100
AcDbPoint
 10
119.000333
 20
204.197413
 30
0.0
 50
5.894098
  0
POINT
  5
F48
330
12A8
100
AcDbEntity
  8
PHASEI_STPS
100
AcDbPoint
 10
166.499527
 20
227.665578
 30
0.0
 50
5.894098
  0
POINT
  5
F49
330
12A8
100
AcDbEntity
  8
PHASEI_STPS
100
AcDbPoint
 10
217.581515
 20
254.650417
 30
0.0
 50
5.894098
  0
POINT
  5
F4A
330
12A8
100
AcDbEntity
  8
PHASEI_STPS
100
AcDbPoint
 10
260.872686
 20
278.941655
 30
0.0
 50
5.894098
  0
POINT
  5
F4B
330
12A8
100
AcDbEntity
  8
PHASEI_STPS
100
AcDbPoint
 10
-91.135374
 20
21.32343
 30
0.0
 50
5.894098
  0
POINT
  5
F4E
330
12A8
100
AcDbEntity
  8
PHASEI_STPS
100
AcDbPoint
 10
-49.077871
 20
-67.363783
 30
0.0
 50
5.894098
  0
POINT
  5
F4F
330
12A8
100
AcDbEntity
  8
PHASEI_STPS
100
AcDbPoint
 10
38.742944
 20
-20.025761
 30
0.0
 50
5.894098
  0
POINT
  5
F50
330
12A8
100
AcDbEntity
  8
PHASEI_STPS
100
AcDbPoint
 10
125.629189
 20
28.355593
 30
0.0
 50
5.894098
  0
POINT
  5
F51
330
12A8
100
AcDbEntity
  8
PHASEI_STPS
100
AcDbPoint
 10
178.400949
 20
59.689359
 30
0.0
 50
5.894098
  0
POINT
  5
F52
330
12A8
100
AcDbEntity
  8
PHASEI_STPS
100
AcDbPoint
 10
221.65242
 20
83.596041
 30
0.0
 50
5.894098
  0
POINT
  5
F53
330
12A8
100
AcDbEntity
  8
PHASEI_STPS
100
AcDbPoint
 10
264.903892
 20
107.502724
 30
0.0
 50
5.894098
  0
POINT
  5
F71
330
12A8
100
AcDbEntity
  8
PHASEI_STPS
100
AcDbPoint
 10
-134.453013
 20
-7.372052
 30
0.0
 50
5.894098
  0
POINT
  5
F72
330
12A8
100
AcDbEntity
  8
PHASEI_STPS
100
AcDbPoint
 10
-124.031073
 20
-6.418692
 30
0.0
 50
5.894098
  0
POINT
  5
F75
330
12A8
100
AcDbEntity
  8
PHASEI_STPS
100
AcDbPoint
 10
35.680639
 20
91.687452
 30
0.0
 50
5.894098
  0
POINT
  5
F77
330
12A8
100
AcDbEntity
  8
PHASEI_STPS
100
AcDbPoint
 10
-2.503466
 20
-43.804534
 30
0.0
 50
5.894098
  0
POINT
  5
F7B
330
12A8
100
AcDbEntity
  8
PHASEI_STPS
100
AcDbPoint
 10
95.203962
 20
5.340484
 30
0.0
 50
5.894098
  0
POINT
  5
F7D
330
12A8
100
AcDbEntity
  8
PHASEI_STPS
100
AcDbPoint
 10
-985.810348
 20
-603.482985
 30
0.0
 50
5.894098
  0
TEXT
  5
F81
330
12A8
100
AcDbEntity
  8
PHASEI_LABELS
  6
DGN_STYLE_2
100
AcDbText
 10
-1191.294941
 20
-731.741253
 30
0.0
 40
5.0
  1
C03
  7
STYLE-GARAMOND
 11
-1191.294941
 21
-726.741253
 31
0.0
100
AcDbText
 73
     3
  0
TEXT
  5
F83
330
12A8
100
AcDbEntity
  8
PHASEI_LABELS
  6
DGN_STYLE_2
100
AcDbText
 10
-1094.255492
 20
-670.230039
 30
0.0
 40
5.0
  1
C05
  7
STYLE-GARAMOND
 11
-1094.255492
 21
-665.230039
 31
0.0
100
AcDbText
 73
     3
  0
TEXT
  5
F84
330
12A8
100
AcDbEntity
  8
PHASEI_LABELS
  6
DGN_STYLE_2
100
AcDbText
 10
-1040.716486
 20
-641.357429
 30
0.0
 40
5.0
  1
C06
  7
STYLE-GARAMOND
 11
-1040.716486
 21
-636.357429
 31
0.0
100
AcDbText
 73
     3
  0
TEXT
  5
F85
330
12A8
100
AcDbEntity
  8
PHASEI_LABELS
  6
DGN_STYLE_2
100
AcDbText
 10
-989.68712
 20
-613.740149
 30
0.0
 40
5.0
  1
C07
  7
STYLE-GARAMOND
 11
-989.68712
 21
-608.740149
 31
0.0
100
AcDbText
 73
     3
  0
TEXT
  5
F87
330
12A8
100
AcDbEntity
  8
PHASEI_LABELS
  6
DGN_STYLE_2
100
AcDbText
 10
-886.248087
 20
-553.023978
 30
0.0
 40
5.0
  1
C09
  7
STYLE-GARAMOND
 11
-886.248087
 21
-548.023978
 31
0.0
100
AcDbText
 73
     3
  0
TEXT
  5
F8B
330
12A8
100
AcDbEntity
  8
PHASEI_LABELS
  6
DGN_STYLE_2
100
AcDbText
 10
-692.587462
 20
-434.185987
 30
0.0
 40
5.0
  1
C13
  7
STYLE-GARAMOND
 11
-692.587462
 21
-429.185987
 31
0.0
100
AcDbText
 73
     3
  0
TEXT
  5
F8C
330
12A8
100
AcDbEntity
  8
PHASEI_LABELS
  6
DGN_STYLE_2
100
AcDbText
 10
-636.120541
 20
-403.639602
 30
0.0
 40
5.0
  1
C14
  7
STYLE-GARAMOND
 11
-636.120541
 21
-398.639602
 31
0.0
100
AcDbText
 73
     3
  0
TEXT
  5
F8D
330
12A8
100
AcDbEntity
  8
PHASEI_LABELS
  6
DGN_STYLE_2
100
AcDbText
 10
-579.486311
 20
-374.55777
 30
0.0
 40
5.0
  1
C15
  7
STYLE-GARAMOND
 11
-579.486311
 21
-369.55777
 31
0.0
100
AcDbText
 73
     3
  0
TEXT
  5
F8E
330
12A8
100
AcDbEntity
  8
PHASEI_LABELS
  6
DGN_STYLE_2
100
AcDbText
 10
-525.110758
 20
-342.756054
 30
0.0
 40
5.0
  1
C16
  7
STYLE-GARAMOND
 11
-525.110758
 21
-337.756054
 31
0.0
100
AcDbText
 73
     3
  0
TEXT
  5
F8F
330
12A8
100
AcDbEntity
  8
PHASEI_LABELS
  6
DGN_STYLE_2
100
AcDbText
 10
-459.860094
 20
-307.188346
 30
0.0
 40
5.0
  1
C17
  7
STYLE-GARAMOND
 11
-459.860094
 21
-302.188346
 31
0.0
100
AcDbText
 73
     3
  0
TEXT
  5
F90
330
12A8
100
AcDbEntity
  8
PHASEI_LABELS
  6
DGN_STYLE_2
100
AcDbText
 10
-393.354609
 20
-273.294412
 30
0.0
 40
5.0
  1
C18
  7
STYLE-GARAMOND
 11
-393.354609
 21
-268.294412
 31
0.0
100
AcDbText
 73
     3
  0
TEXT
  5
F91
330
12A8
100
AcDbEntity
  8
PHASEI_LABELS
  6
DGN_STYLE_2
100
AcDbText
 10
-327.978463
 20
-235.634485
 30
0.0
 40
5.0
  1
C19
  7
STYLE-GARAMOND
 11
-327.978463
 21
-230.634485
 31
0.0
100
AcDbText
 73
     3
  0
TEXT
  5
F93
330
12A8
100
AcDbEntity
  8
PHASEI_LABELS
  6
DGN_STYLE_2
100
AcDbText
 10
-184.845275
 20
-163.745869
 30
0.0
 40
5.0
  1
C21
  7
STYLE-GARAMOND
 11
-184.845275
 21
-158.745869
 31
0.0
100
AcDbText
 73
     3
  0
TEXT
  5
F94
330
12A8
100
AcDbEntity
  8
PHASEI_LABELS
  6
DGN_STYLE_2
100
AcDbText
 10
-125.032167
 20
-130.270379
 30
0.0
 40
5.0
  1
C22
  7
STYLE-GARAMOND
 11
-125.032167
 21
-125.270379
 31
0.0
100
AcDbText
 73
     3
  0
TEXT
  5
F95
330
12A8
100
AcDbEntity
  8
PHASEI_LABELS
  6
DGN_STYLE_2
100
AcDbText
 10
-53.758364
 20
-77.086193
 30
0.0
 40
5.0
  1
C23
  7
STYLE-GARAMOND
 11
-53.758364
 21
-72.086193
 31
0.0
100
AcDbText
 73
     3
  0
TEXT
  5
F96
330
12A8
100
AcDbEntity
  8
PHASEI_LABELS
  6
DGN_STYLE_2
100
AcDbText
 10
-7.651582
 20
-50.935552
 30
0.0
 40
5.0
  1
C24
  7
STYLE-GARAMOND
 11
-7.651582
 21
-45.935552
 31
0.0
100
AcDbText
 73
     3
  0
TEXT
  5
F97
330
12A8
100
AcDbEntity
  8
PHASEI_LABELS
  6
DGN_STYLE_2
100
AcDbText
 10
35.0
 20
-30.0
 30
0.0
 40
5.0
  1
C25
  7
STYLE-GARAMOND
 11
35.0
 21
-25.0
 31
0.0
100
AcDbText
 73
     3
  0
TEXT
  5
FA9
330
12A8
100
AcDbEntity
  8
PHASEI_LABELS
100
AcDbText
 10
-1281.571458
 20
-789.132475
 30
0.0
 40
5.0
  1
C01
  7
STYLE-GARAMOND
 11
-1281.571458
 21
-784.132475
 31
0.0
100
AcDbText
 73
     3
  0
TEXT
  5
FAA
330
12A8
100
AcDbEntity
  8
PHASEI_LABELS
100
AcDbText
 10
-1234.624391
 20
-759.543238
 30
0.0
 40
5.0
  1
C02
  7
STYLE-GARAMOND
 11
-1234.624391
 21
-754.543238
 31
0.0
100
AcDbText
 73
     3
  0
TEXT
  5
FAC
330
12A8
100
AcDbEntity
  8
PHASEI_LABELS
100
AcDbText
 10
-1140.85233
 20
-706.087143
 30
0.0
 40
5.0
  1
C04
  7
STYLE-GARAMOND
 11
-1140.85233
 21
-701.087143
 31
0.0
100
AcDbText
 73
     3
  0
TEXT
  5
FB0
330
12A8
100
AcDbEntity
  8
PHASEI_LABELS
100
AcDbText
 10
-939.163819
 20
-588.169288
 30
0.0
 40
5.0
  1
C08
  7
STYLE-GARAMOND
 11
-939.163819
 21
-583.169288
 31
0.0
100
AcDbText
 73
     3
  0
TEXT
  5
FB2
330
12A8
100
AcDbEntity
  8
PHASEI_LABELS
100
AcDbText
 10
-839.105363
 20
-530.520559
 30
0.0
 40
5.0
  1
C10
  7
STYLE-GARAMOND
 11
-839.105363
 21
-525.520559
 31
0.0
100
AcDbText
 73
     3
  0
TEXT
  5
FB3
330
12A8
100
AcDbEntity
  8
PHASEI_LABELS
100
AcDbText
 10
-793.528998
 20
-506.412908
 30
0.0
 40
5.0
  1
C11
  7
STYLE-GARAMOND
 11
-793.528998
 21
-501.412908
 31
0.0
100
AcDbText
 73
     3
  0
TEXT
  5
FB4
330
12A8
100
AcDbEntity
  8
PHASEI_LABELS
100
AcDbText
 10
-744.285569
 20
-470.775512
 30
0.0
 40
5.0
  1
C12
  7
STYLE-GARAMOND
 11
-744.285569
 21
-465.775512
 31
0.0
100
AcDbText
 73
     3
  0
TEXT
  5
FBD
330
12A8
100
AcDbEntity
  8
PHASEI_LABELS
100
AcDbText
 10
-251.956056
 20
-208.421386
 30
0.0
 40
5.0
  1
C20
  7
STYLE-GARAMOND
 11
-251.956056
 21
-203.421386
 31
0.0
100
AcDbText
 73
     3
  0
TEXT
  5
FC3
330
12A8
100
AcDbEntity
  8
PHASEI_LABELS
100
AcDbText
 10
89.237019
 20
-1.583666
 30
0.0
 40
5.0
  1
C26
  7
STYLE-GARAMOND
 11
89.237019
 21
3.416334
 31
0.0
100
AcDbText
 73
     3
  0
TEXT
  5
FC4
330
12A8
100
AcDbEntity
  8
PHASEI_LABELS
100
AcDbText
 10
121.351043
 20
15.412908
 30
0.0
 40
5.0
  1
C27
  7
STYLE-GARAMOND
 11
121.351043
 21
20.412908
 31
0.0
100
AcDbText
 73
     3
  0
TEXT
  5
FC5
330
12A8
100
AcDbEntity
  8
PHASEI_LABELS
100
AcDbText
 10
175.309268
 20
46.857669
 30
0.0
 40
5.0
  1
C28
  7
STYLE-GARAMOND
 11
175.309268
 21
51.857669
 31
0.0
100
AcDbText
 73
     3
  0
TEXT
  5
FC6
330
12A8
100
AcDbEntity
  8
PHASEI_LABELS
100
AcDbText
 10
216.12302
 20
76.416237
 30
0.0
 40
5.0
  1
C29
  7
STYLE-GARAMOND
 11
216.12302
 21
81.416237
 31
0.0
100
AcDbText
 73
     3
  0
TEXT
  5
FC7
330
12A8
100
AcDbEntity
  8
PHASEI_LABELS
100
AcDbText
 10
262.794934
 20
94.548891
 30
0.0
 40
5.0
  1
C30
  7
STYLE-GARAMOND
 11
262.794934
 21
99.548891
 31
0.0
100
AcDbText
 73
     3
  0
TEXT
  5
FC8
330
12A8
100
AcDbEntity
  8
PHASEI_LABELS
100
AcDbText
 10
-139.48908
 20
-14.955062
 30
0.0
 40
5.0
  1
D22
  7
STYLE-GARAMOND
 11
-139.48908
 21
-9.955062
 31
0.0
100
AcDbText
 73
     3
  0
TEXT
  5
FC9
330
12A8
100
AcDbEntity
  8
PHASEI_LABELS
100
AcDbText
 10
-41.258985
 20
49.291997
 30
0.0
 40
5.0
  1
D24
  7
STYLE-GARAMOND
 11
-41.258985
 21
54.291997
 31
0.0
100
AcDbText
 73
     3
  0
TEXT
  5
FCA
330
12A8
100
AcDbEntity
  8
PHASEI_LABELS
100
AcDbText
 10
31.420459
 20
84.031159
 30
0.0
 40
5.0
  1
D25
  7
STYLE-GARAMOND
 11
31.420459
 21
89.031159
 31
0.0
100
AcDbText
 73
     3
  0
TEXT
  5
FCD
330
12A8
100
AcDbEntity
  8
PHASEI_LABELS
100
AcDbText
 10
-1260.725749
 20
-851.917182
 30
0.0
 40
5.0
  1
B01
  7
STYLE-GARAMOND
 11
-1260.725749
 21
-846.917182
 31
0.0
100
AcDbText
 73
     3
  0
TEXT
  5
FCE
330
12A8
100
AcDbEntity
  8
PHASEI_LABELS
100
AcDbText
 10
-1213.053919
 20
-823.092817
 30
0.0
 40
5.0
  1
B02
  7
STYLE-GARAMOND
 11
-1213.053919
 21
-818.092817
 31
0.0
100
AcDbText
 73
     3
  0
TEXT
  5
FCF
330
12A8
100
AcDbEntity
  8
PHASEI_LABELS
100
AcDbText
 10
-1166.953688
 20
-796.36477
 30
0.0
 40
5.0
  1
C03
  7
STYLE-GARAMOND
 11
-1166.953688
 21
-791.36477
 31
0.0
100
AcDbText
 73
     3
  0
TEXT
  5
FD0
330
12A8
100
AcDbEntity
  8
PHASEI_LABELS
100
AcDbText
 10
-1123.996654
 20
-772.25712
 30
0.0
 40
5.0
  1
B04
  7
STYLE-GARAMOND
 11
-1123.996654
 21
-767.25712
 31
0.0
100
AcDbText
 73
     3
  0
TEXT
  5
FD1
330
12A8
100
AcDbEntity
  8
PHASEI_LABELS
100
AcDbText
 10
-1073.181627
 20
-742.384596
 30
0.0
 40
5.0
  1
B05
  7
STYLE-GARAMOND
 11
-1073.181627
 21
-737.384596
 31
0.0
100
AcDbText
 73
     3
  0
TEXT
  5
FD2
330
12A8
100
AcDbEntity
  8
PHASEI_LABELS
100
AcDbText
 10
-1015.556338
 20
-705.699041
 30
0.0
 40
5.0
  1
B06
  7
STYLE-GARAMOND
 11
-1015.556338
 21
-700.699041
 31
0.0
100
AcDbText
 73
     3
  0
TEXT
  5
FD3
330
12A8
100
AcDbEntity
  8
PHASEI_LABELS
100
AcDbText
 10
-969.456107
 20
-677.398756
 30
0.0
 40
5.0
  1
B07
  7
STYLE-GARAMOND
 11
-969.456107
 21
-672.398756
 31
0.0
100
AcDbText
 73
     3
  0
TEXT
  5
FD4
330
12A8
100
AcDbEntity
  8
PHASEI_LABELS
100
AcDbText
 10
-921.784277
 20
-650.14663
 30
0.0
 40
5.0
  1
B08
  7
STYLE-GARAMOND
 11
-921.784277
 21
-645.14663
 31
0.0
100
AcDbText
 73
     3
  0
TEXT
  5
FD5
330
12A8
100
AcDbEntity
  8
PHASEI_LABELS
100
AcDbText
 10
-876.731778
 20
-625.5149
 30
0.0
 40
5.0
  1
B09
  7
STYLE-GARAMOND
 11
-876.731778
 21
-620.5149
 31
0.0
100
AcDbText
 73
     3
  0
TEXT
  5
FD6
330
12A8
100
AcDbEntity
  8
PHASEI_LABELS
100
AcDbText
 10
-829.059948
 20
-599.310932
 30
0.0
 40
5.0
  1
B10
  7
STYLE-GARAMOND
 11
-829.059948
 21
-594.310932
 31
0.0
100
AcDbText
 73
     3
  0
TEXT
  5
FD7
330
12A8
100
AcDbEntity
  8
PHASEI_LABELS
100
AcDbText
 10
-780.340386
 20
-573.631044
 30
0.0
 40
5.0
  1
B11
  7
STYLE-GARAMOND
 11
-780.340386
 21
-568.631044
 31
0.0
100
AcDbText
 73
     3
  0
TEXT
  5
FF1
330
12A8
100
AcDbEntity
  8
PHASEI_LABELS
100
AcDbText
 10
-853.732678
 20
-688.736776
 30
0.0
 40
5.0
  1
A10
  7
STYLE-GARAMOND
 11
-853.732678
 21
-683.736776
 31
0.0
100
AcDbText
 73
     3
  0
TEXT
  5
FFD
330
12A8
100
AcDbEntity
  8
PHASEI_LABELS
100
AcDbText
 10
-96.08833
 20
12.263504
 30
0.0
 40
5.0
  1
D23
  7
STYLE-GARAMOND
 11
-96.08833
 21
17.263504
 31
0.0
100
AcDbText
 73
     3
  0
POINT
  5
1022
330
12A8
100
AcDbEntity
  8
PHASEI_STPS
100
AcDbPoint
 10
-1141.427839
 20
-179.739058
 30
0.0
 50
5.894098
  0
TEXT
  5
105C
330
12A8
100
AcDbEntity
  8
PHASEI_LABELS
100
AcDbText
 10
-1146.257338
 20
-189.490274
 30
0.0
 40
5.0
  1
J05
  7
STYLE-GARAMOND
 11
-1146.257338
 21
-184.490274
 31
0.0
100
AcDbText
 73
     3
  0
POINT
  5
1093
330
12A8
100
AcDbEntity
  8
PHASEI_STPS
100
AcDbPoint
 10
-36.53043
 20
57.660487
 30
0.0
 50
5.894098
  0
POINT
  5
1095
330
12A8
100
AcDbEntity
  8
PHASEI_STPS
100
AcDbPoint
 10
-343.416837
 20
-12.215871
 30
0.0
 50
5.894098
  0
POINT
  5
1096
330
12A8
100
AcDbEntity
  8
PHASEI_STPS
100
AcDbPoint
 10
-286.965321
 20
29.526135
 30
0.0
 50
5.894098
  0
TEXT
  5
1097
330
12A8
100
AcDbEntity
  8
PHASEI_LABELS
100
AcDbText
 10
-346.484854
 20
-22.946439
 30
0.0
 40
5.0
  1
F15
  7
STYLE-GARAMOND
 11
-346.484854
 21
-17.946439
 31
0.0
100
AcDbText
 73
     3
  0
TEXT
  5
1098
330
12A8
100
AcDbEntity
  8
PHASEI_LABELS
100
AcDbText
 10
-289.419735
 20
19.409421
 30
0.0
 40
5.0
  1
F16
  7
STYLE-GARAMOND
 11
-289.419735
 21
24.409421
 31
0.0
100
AcDbText
 73
     3
  0
MTEXT
  5
108A
330
12A8
100
AcDbEntity
  8
PHASEI_LABELS
  6
DGN_STYLE_2
100
AcDbMText
 10
-173.84752
 20
103.360799
 30
0.0
 40
5.0
 41
0.0
 71
     1
 72
     1
  1
^J
  7
STYLE-GARAMOND
1001
ACAD
1000
MTEXTBEGIN
1070
    73
1070
     2
1070
    44
1040
0.79685
1000
MTEXTEND
  0
MTEXT
  5
108D
330
12A8
100
AcDbEntity
  8
PHASEI_LABELS
  6
DGN_STYLE_2
100
AcDbMText
 10
-114.306847
 20
136.512341
 30
0.0
 40
5.0
 41
0.0
 71
     1
 72
     1
  1
^J
  7
STYLE-GARAMOND
1001
ACAD
1000
MTEXTBEGIN
1070
    73
1070
     2
1070
    44
1040
0.79685
1000
MTEXTEND
  0
MTEXT
  5
1090
330
12A8
100
AcDbEntity
  8
PHASEI_LABELS
  6
DGN_STYLE_2
100
AcDbMText
 10
-60.254554
 20
170.499647
 30
0.0
 40
5.0
 41
0.0
 71
     1
 72
     1
  1
^J
  7
STYLE-GARAMOND
1001
ACAD
1000
MTEXTBEGIN
1070
    73
1070
     2
1070
    44
1040
0.79685
1000
MTEXTEND
  0
MTEXT
  5
10A5
330
12A8
100
AcDbEntity
  8
PHASEI_LABELS
  6
DGN_STYLE_2
100
AcDbMText
 10
101.032794
 20
260.438848
 30
0.0
 40
5.0
 41
0.0
 71
     1
 72
     1
  1
^J
  7
STYLE-GARAMOND
1001
ACAD
1000
MTEXTBEGIN
1070
    73
1070
     2
1070
    44
1040
0.79685
1000
MTEXTEND
  0
POINT
  5
10AB
330
12A8
100
AcDbEntity
  8
PHASEI_STPS
100
AcDbPoint
 10
-69.697865
 20
240.752964
 30
0.0
 50
5.894098
  0
POINT
  5
10AC
330
12A8
100
AcDbEntity
  8
PHASEI_STPS
100
AcDbPoint
 10
-119.697865
 20
214.971136
 30
0.0
 50
5.894098
  0
POINT
  5
10AD
330
12A8
100
AcDbEntity
  8
PHASEI_STPS
100
AcDbPoint
 10
-169.697865
 20
189.189309
 30
0.0
 50
5.894098
  0
TEXT
  5
10B4
330
12A8
100
AcDbEntity
  8
PHASEI_LABELS
100
AcDbText
 10
-70.811777
 20
230.272874
 30
0.0
 40
5.0
  1
G18
  7
STYLE-GARAMOND
 11
-70.811777
 21
235.272874
 31
0.0
100
AcDbText
 73
     3
  0
TEXT
  5
10B5
330
12A8
100
AcDbEntity
  8
PHASEI_LABELS
100
AcDbText
 10
-173.283551
 20
177.481514
 30
0.0
 40
5.0
  1
G16
  7
STYLE-GARAMOND
 11
-173.283551
 21
182.481514
 31
0.0
100
AcDbText
 73
     3
  0
TEXT
  5
10B6
330
12A8
100
AcDbEntity
  8
PHASEI_LABELS
100
AcDbText
 10
-79.886381
 20
86.121222
 30
0.0
 40
5.0
  1
E21
  7
STYLE-GARAMOND
 11
-79.886381
 21
91.121222
 31
0.0
100
AcDbText
 73
     3
  0
POINT
  5
10B8
330
12A8
100
AcDbEntity
  8
PHASEI_STPS
100
AcDbPoint
 10
-74.406599
 20
93.227133
 30
0.0
 50
5.894098
  0
MTEXT
  5
10C2
330
12A8
100
AcDbEntity
  8
PHASEI_LABELS
  6
DGN_STYLE_2
100
AcDbMText
 10
35.680639
 20
91.687452
 30
0.0
 40
5.0
 41
0.0
 71
     1
 72
     1
  1
^J
  7
STYLE-GARAMOND
1001
ACAD
1000
MTEXTBEGIN
1070
    73
1070
     2
1070
    44
1040
0.79685
1000
MTEXTEND
  0
MTEXT
  5
10C5
330
12A8
100
AcDbEntity
  8
PHASEI_LABELS
  6
DGN_STYLE_2
100
AcDbMText
 10
-36.53043
 20
57.660487
 30
0.0
 40
5.0
 41
0.0
 71
     1
 72
     1
  1
^J
  7
STYLE-GARAMOND
1001
ACAD
1000
MTEXTBEGIN
1070
    73
1070
     2
1070
    44
1040
0.79685
1000
MTEXTEND
  0
MTEXT
  5
10CE
330
12A8
100
AcDbEntity
  8
PHASEI_LABELS
  6
DGN_STYLE_2
100
AcDbMText
 10
-452.832253
 20
-228.329115
 30
0.0
 40
5.0
 41
0.0
 71
     1
 72
     1
  1
^J
  7
STYLE-GARAMOND
1001
ACAD
1000
MTEXTBEGIN
1070
    73
1070
     2
1070
    44
1040
0.79685
1000
MTEXTEND
  0
MTEXT
  5
10DD
330
12A8
100
AcDbEntity
  8
FEATURE_NUMBERS
  6
DGN_STYLE_2
100
AcDbMText
 10
-848.18571
 20
-679.29463
 30
0.0
 40
5.0
 41
0.0
 71
     1
 72
     1
  1
^J
  7
STYLE-GARAMOND
1001
ACAD
1000
MTEXTBEGIN
1070
    73
1070
     2
1070
    44
1040
0.79685
1000
MTEXTEND
  0
MTEXT
  5
10E0
330
12A8
100
AcDbEntity
  8
FEATURE_NUMBERS
  6
DGN_STYLE_2
100
AcDbMText
 10
-1259.059355
 20
-839.160781
 30
0.0
 40
5.0
 41
0.0
 71
     1
 72
     1
  1
^J
  7
STYLE-GARAMOND
1001
ACAD
1000
MTEXTBEGIN
1070
    73
1070
     2
1070
    44
1040
0.79685
1000
MTEXTEND
  0
MTEXT
  5
10E3
330
12A8
100
AcDbEntity
  8
FEATURE_NUMBERS
  6
DGN_STYLE_2
100
AcDbMText
 10
-1210.991087
 20
-812.336261
 30
0.0
 40
5.0
 41
0.0
 71
     1
 72
     1
  1
^J
  7
STYLE-GARAMOND
1001
ACAD
1000
MTEXTBEGIN
1070
    73
1070
     2
1070
    44
1040
0.79685
1000
MTEXTEND
  0
MTEXT
  5
10E9
330
12A8
100
AcDbEntity
  8
FEATURE_NUMBERS
  6
DGN_STYLE_2
100
AcDbMText
 10
-1119.60014
 20
-760.910523
 30
0.0
 40
5.0
 41
0.0
 71
     1
 72
     1
  1
^J
  7
STYLE-GARAMOND
1001
ACAD
1000
MTEXTBEGIN
1070
    73
1070
     2
1070
    44
1040
0.79685
1000
MTEXTEND
  0
MTEXT
  5
10EC
330
12A8
100
AcDbEntity
  8
FEATURE_NUMBERS
  6
DGN_STYLE_2
100
AcDbMText
 10
-1069.173691
 20
-733.092274
 30
0.0
 40
5.0
 41
0.0
 71
     1
 72
     1
  1
^J
  7
STYLE-GARAMOND
1001
ACAD
1000
MTEXTBEGIN
1070
    73
1070
     2
1070
    44
1040
0.79685
1000
MTEXTEND
  0
MTEXT
  5
10EF
330
12A8
100
AcDbEntity
  8
FEATURE_NUMBERS
  6
DGN_STYLE_2
100
AcDbMText
 10
-1011.520233
 20
-696.484465
 30
0.0
 40
5.0
 41
0.0
 71
     1
 72
     1
  1
^J
  7
STYLE-GARAMOND
1001
ACAD
1000
MTEXTBEGIN
1070
    73
1070
     2
1070
    44
1040
0.79685
1000
MTEXTEND
  0
MTEXT
  5
10F2
330
12A8
100
AcDbEntity
  8
FEATURE_NUMBERS
  6
DGN_STYLE_2
100
AcDbMText
 10
-965.706534
 20
-668.43302
 30
0.0
 40
5.0
 41
0.0
 71
     1
 72
     1
  1
^J
  7
STYLE-GARAMOND
1001
ACAD
1000
MTEXTBEGIN
1070
    73
1070
     2
1070
    44
1040
0.79685
1000
MTEXTEND
  0
MTEXT
  5
10F5
330
12A8
100
AcDbEntity
  8
FEATURE_NUMBERS
  6
DGN_STYLE_2
100
AcDbMText
 10
-917.443961
 20
-640.728668
 30
0.0
 40
5.0
 41
0.0
 71
     1
 72
     1
  1
^J
  7
STYLE-GARAMOND
1001
ACAD
1000
MTEXTBEGIN
1070
    73
1070
     2
1070
    44
1040
0.79685
1000
MTEXTEND
  0
MTEXT
  5
10F8
330
12A8
100
AcDbEntity
  8
FEATURE_NUMBERS
  6
DGN_STYLE_2
100
AcDbMText
 10
-872.357891
 20
-614.873346
 30
0.0
 40
5.0
 41
0.0
 71
     1
 72
     1
  1
^J
  7
STYLE-GARAMOND
1001
ACAD
1000
MTEXTBEGIN
1070
    73
1070
     2
1070
    44
1040
0.79685
1000
MTEXTEND
  0
MTEXT
  5
10FB
330
12A8
100
AcDbEntity
  8
FEATURE_NUMBERS
  6
DGN_STYLE_2
100
AcDbMText
 10
-823.900397
 20
-589.411755
 30
0.0
 40
5.0
 41
0.0
 71
     1
 72
     1
  1
^J
  7
STYLE-GARAMOND
1001
ACAD
1000
MTEXTBEGIN
1070
    73
1070
     2
1070
    44
1040
0.79685
1000
MTEXTEND
  0
MTEXT
  5
10FE
330
12A8
100
AcDbEntity
  8
FEATURE_NUMBERS
  6
DGN_STYLE_2
100
AcDbMText
 10
-776.057937
 20
-563.919071
 30
0.0
 40
5.0
 41
0.0
 71
     1
 72
     1
  1
^J
  7
STYLE-GARAMOND
1001
ACAD
1000
MTEXTBEGIN
1070
    73
1070
     2
1070
    44
1040
0.79685
1000
MTEXTEND
  0
MTEXT
  5
1104
330
12A8
100
AcDbEntity
  8
FEATURE_NUMBERS
  6
DGN_STYLE_2
100
AcDbMText
 10
-1276.876639
 20
-780.775093
 30
0.0
 40
5.0
 41
0.0
 71
     1
 72
     1
  1
^J
  7
STYLE-GARAMOND
1001
ACAD
1000
MTEXTBEGIN
1070
    73
1070
     2
1070
    44
1040
0.79685
1000
MTEXTEND
  0
MTEXT
  5
1107
330
12A8
100
AcDbEntity
  8
FEATURE_NUMBERS
  6
DGN_STYLE_2
100
AcDbMText
 10
-1229.546833
 20
-748.530071
 30
0.0
 40
5.0
 41
0.0
 71
     1
 72
     1
  1
^J
  7
STYLE-GARAMOND
1001
ACAD
1000
MTEXTBEGIN
1070
    73
1070
     2
1070
    44
1040
0.79685
1000
MTEXTEND
  0
MTEXT
  5
110A
330
12A8
100
AcDbEntity
  8
FEATURE_NUMBERS
  6
DGN_STYLE_2
100
AcDbMText
 10
-1186.990828
 20
-722.397355
 30
0.0
 40
5.0
 41
0.0
 71
     1
 72
     1
  1
^J
  7
STYLE-GARAMOND
1001
ACAD
1000
MTEXTBEGIN
1070
    73
1070
     2
1070
    44
1040
0.79685
1000
MTEXTEND
  0
MTEXT
  5
110D
330
12A8
100
AcDbEntity
  8
FEATURE_NUMBERS
  6
DGN_STYLE_2
100
AcDbMText
 10
-1136.03003
 20
-694.050391
 30
0.0
 40
5.0
 41
0.0
 71
     1
 72
     1
  1
^J
  7
STYLE-GARAMOND
1001
ACAD
1000
MTEXTBEGIN
1070
    73
1070
     2
1070
    44
1040
0.79685
1000
MTEXTEND
  0
MTEXT
  5
1110
330
12A8
100
AcDbEntity
  8
FEATURE_NUMBERS
  6
DGN_STYLE_2
100
AcDbMText
 10
-1089.380864
 20
-660.048304
 30
0.0
 40
5.0
 41
0.0
 71
     1
 72
     1
  1
^J
  7
STYLE-GARAMOND
1001
ACAD
1000
MTEXTBEGIN
1070
    73
1070
     2
1070
    44
1040
0.79685
1000
MTEXTEND
  0
MTEXT
  5
1113
330
12A8
100
AcDbEntity
  8
FEATURE_NUMBERS
  6
DGN_STYLE_2
100
AcDbMText
 10
-1037.589976
 20
-631.654284
 30
0.0
 40
5.0
 41
0.0
 71
     1
 72
     1
  1
^J
  7
STYLE-GARAMOND
1001
ACAD
1000
MTEXTBEGIN
1070
    73
1070
     2
1070
    44
1040
0.79685
1000
MTEXTEND
  0
MTEXT
  5
1116
330
12A8
100
AcDbEntity
  8
FEATURE_NUMBERS
  6
DGN_STYLE_2
100
AcDbMText
 10
-985.810348
 20
-603.482985
 30
0.0
 40
5.0
 41
0.0
 71
     1
 72
     1
  1
^J
  7
STYLE-GARAMOND
1001
ACAD
1000
MTEXTBEGIN
1070
    73
1070
     2
1070
    44
1040
0.79685
1000
MTEXTEND
  0
MTEXT
  5
1119
330
12A8
100
AcDbEntity
  8
FEATURE_NUMBERS
  6
DGN_STYLE_2
100
AcDbMText
 10
-934.69124
 20
-575.278294
 30
0.0
 40
5.0
 41
0.0
 71
     1
 72
     1
  1
^J
  7
STYLE-GARAMOND
1001
ACAD
1000
MTEXTBEGIN
1070
    73
1070
     2
1070
    44
1040
0.79685
1000
MTEXTEND
  0
MTEXT
  5
111C
330
12A8
100
AcDbEntity
  8
FEATURE_NUMBERS
  6
DGN_STYLE_2
100
AcDbMText
 10
-881.116646
 20
-544.799692
 30
0.0
 40
5.0
 41
0.0
 71
     1
 72
     1
  1
^J
  7
STYLE-GARAMOND
1001
ACAD
1000
MTEXTBEGIN
1070
    73
1070
     2
1070
    44
1040
0.79685
1000
MTEXTEND
  0
MTEXT
  5
111F
330
12A8
100
AcDbEntity
  8
FEATURE_NUMBERS
  6
DGN_STYLE_2
100
AcDbMText
 10
-835.415543
 20
-518.975462
 30
0.0
 40
5.0
 41
0.0
 71
     1
 72
     1
  1
^J
  7
STYLE-GARAMOND
1001
ACAD
1000
MTEXTBEGIN
1070
    73
1070
     2
1070
    44
1040
0.79685
1000
MTEXTEND
  0
MTEXT
  5
1122
330
12A8
100
AcDbEntity
  8
FEATURE_NUMBERS
  6
DGN_STYLE_2
100
AcDbMText
 10
-789.725699
 20
-493.373954
 30
0.0
 40
5.0
 41
0.0
 71
     1
 72
     1
  1
^J
  7
STYLE-GARAMOND
1001
ACAD
1000
MTEXTBEGIN
1070
    73
1070
     2
1070
    44
1040
0.79685
1000
MTEXTEND
  0
MTEXT
  5
1125
330
12A8
100
AcDbEntity
  8
FEATURE_NUMBERS
  6
DGN_STYLE_2
100
AcDbMText
 10
-739.050385
 20
-459.84743
 30
0.0
 40
5.0
 41
0.0
 71
     1
 72
     1
  1
^J
  7
STYLE-GARAMOND
1001
ACAD
1000
MTEXTBEGIN
1070
    73
1070
     2
1070
    44
1040
0.79685
1000
MTEXTEND
  0
MTEXT
  5
112B
330
12A8
100
AcDbEntity
  8
FEATURE_NUMBERS
  6
DGN_STYLE_2
100
AcDbMText
 10
-631.861566
 20
-394.5602
 30
0.0
 40
5.0
 41
0.0
 71
     1
 72
     1
  1
^J
  7
STYLE-GARAMOND
1001
ACAD
1000
MTEXTBEGIN
1070
    73
1070
     2
1070
    44
1040
0.79685
1000
MTEXTEND
  0
MTEXT
  5
112E
330
12A8
100
AcDbEntity
  8
FEATURE_NUMBERS
  6
DGN_STYLE_2
100
AcDbMText
 10
-574.790891
 20
-364.107261
 30
0.0
 40
5.0
 41
0.0
 71
     1
 72
     1
  1
^J
  7
STYLE-GARAMOND
1001
ACAD
1000
MTEXTBEGIN
1070
    73
1070
     2
1070
    44
1040
0.79685
1000
MTEXTEND
  0
MTEXT
  5
1131
330
12A8
100
AcDbEntity
  8
FEATURE_NUMBERS
  6
DGN_STYLE_2
100
AcDbMText
 10
-519.620063
 20
-333.803345
 30
0.0
 40
5.0
 41
0.0
 71
     1
 72
     1
  1
^J
  7
STYLE-GARAMOND
1001
ACAD
1000
MTEXTBEGIN
1070
    73
1070
     2
1070
    44
1040
0.79685
1000
MTEXTEND
  0
MTEXT
  5
1134
330
12A8
100
AcDbEntity
  8
FEATURE_NUMBERS
  6
DGN_STYLE_2
100
AcDbMText
 10
-454.090641
 20
-297.727366
 30
0.0
 40
5.0
 41
0.0
 71
     1
 72
     1
  1
^J
  7
STYLE-GARAMOND
1001
ACAD
1000
MTEXTBEGIN
1070
    73
1070
     2
1070
    44
1040
0.79685
1000
MTEXTEND
  0
MTEXT
  5
1137
330
12A8
100
AcDbEntity
  8
FEATURE_NUMBERS
  6
DGN_STYLE_2
100
AcDbMText
 10
-387.73779
 20
-262.290727
 30
0.0
 40
5.0
 41
0.0
 71
     1
 72
     1
  1
^J
  7
STYLE-GARAMOND
1001
ACAD
1000
MTEXTBEGIN
1070
    73
1070
     2
1070
    44
1040
0.79685
1000
MTEXTEND
  0
MTEXT
  5
113A
330
12A8
100
AcDbEntity
  8
FEATURE_NUMBERS
  6
DGN_STYLE_2
100
AcDbMText
 10
-323.011374
 20
-225.996292
 30
0.0
 40
5.0
 41
0.0
 71
     1
 72
     1
  1
^J
  7
STYLE-GARAMOND
1001
ACAD
1000
MTEXTBEGIN
1070
    73
1070
     2
1070
    44
1040
0.79685
1000
MTEXTEND
  0
MTEXT
  5
113D
330
12A8
100
AcDbEntity
  8
FEATURE_NUMBERS
  6
DGN_STYLE_2
100
AcDbMText
 10
-248.914412
 20
-196.623571
 30
0.0
 40
5.0
 41
0.0
 71
     1
 72
     1
  1
^J
  7
STYLE-GARAMOND
1001
ACAD
1000
MTEXTBEGIN
1070
    73
1070
     2
1070
    44
1040
0.79685
1000
MTEXTEND
  0
MTEXT
  5
1140
330
12A8
100
AcDbEntity
  8
FEATURE_NUMBERS
  6
DGN_STYLE_2
100
AcDbMText
 10
-180.229748
 20
-154.181442
 30
0.0
 40
5.0
 41
0.0
 71
     1
 72
     1
  1
^J
  7
STYLE-GARAMOND
1001
ACAD
1000
MTEXTBEGIN
1070
    73
1070
     2
1070
    44
1040
0.79685
1000
MTEXTEND
  0
MTEXT
  5
1143
330
12A8
100
AcDbEntity
  8
FEATURE_NUMBERS
  6
DGN_STYLE_2
100
AcDbMText
 10
-119.469515
 20
-118.607756
 30
0.0
 40
5.0
 41
0.0
 71
     1
 72
     1
  1
^J
  7
STYLE-GARAMOND
1001
ACAD
1000
MTEXTBEGIN
1070
    73
1070
     2
1070
    44
1040
0.79685
1000
MTEXTEND
  0
MTEXT
  5
1146
330
12A8
100
AcDbEntity
  8
FEATURE_NUMBERS
  6
DGN_STYLE_2
100
AcDbMText
 10
-49.077871
 20
-67.363783
 30
0.0
 40
5.0
 41
0.0
 71
     1
 72
     1
  1
^J
  7
STYLE-GARAMOND
1001
ACAD
1000
MTEXTBEGIN
1070
    73
1070
     2
1070
    44
1040
0.79685
1000
MTEXTEND
  0
MTEXT
  5
114C
330
12A8
100
AcDbEntity
  8
FEATURE_NUMBERS
  6
DGN_STYLE_2
100
AcDbMText
 10
38.742944
 20
-20.025761
 30
0.0
 40
5.0
 41
0.0
 71
     1
 72
     1
  1
^J
  7
STYLE-GARAMOND
1001
ACAD
1000
MTEXTBEGIN
1070
    73
1070
     2
1070
    44
1040
0.79685
1000
MTEXTEND
  0
MTEXT
  5
114F
330
12A8
100
AcDbEntity
  8
FEATURE_NUMBERS
  6
DGN_STYLE_2
100
AcDbMText
 10
95.203962
 20
5.340484
 30
0.0
 40
5.0
 41
0.0
 71
     1
 72
     1
  1
^J
  7
STYLE-GARAMOND
1001
ACAD
1000
MTEXTBEGIN
1070
    73
1070
     2
1070
    44
1040
0.79685
1000
MTEXTEND
  0
MTEXT
  5
1152
330
12A8
100
AcDbEntity
  8
FEATURE_NUMBERS
  6
DGN_STYLE_2
100
AcDbMText
 10
125.629189
 20
28.355593
 30
0.0
 40
5.0
 41
0.0
 71
     1
 72
     1
  1
^J
  7
STYLE-GARAMOND
1001
ACAD
1000
MTEXTBEGIN
1070
    73
1070
     2
1070
    44
1040
0.79685
1000
MTEXTEND
  0
MTEXT
  5
1155
330
12A8
100
AcDbEntity
  8
FEATURE_NUMBERS
  6
DGN_STYLE_2
100
AcDbMText
 10
178.400949
 20
59.689359
 30
0.0
 40
5.0
 41
0.0
 71
     1
 72
     1
  1
^J
  7
STYLE-GARAMOND
1001
ACAD
1000
MTEXTBEGIN
1070
    73
1070
     2
1070
    44
1040
0.79685
1000
MTEXTEND
  0
MTEXT
  5
1158
330
12A8
100
AcDbEntity
  8
FEATURE_NUMBERS
  6
DGN_STYLE_2
100
AcDbMText
 10
221.65242
 20
83.596041
 30
0.0
 40
5.0
 41
0.0
 71
     1
 72
     1
  1
^J
  7
STYLE-GARAMOND
1001
ACAD
1000
MTEXTBEGIN
1070
    73
1070
     2
1070
    44
1040
0.79685
1000
MTEXTEND
  0
MTEXT
  5
115E
330
12A8
100
AcDbEntity
  8
PHASEI_STPS
  6
DGN_STYLE_2
100
AcDbMText
 10
264.903892
 20
107.502724
 30
0.0
 40
5.0
 41
0.0
 71
     1
 72
     1
  1
^J
  7
STYLE-GARAMOND
1001
ACAD
1000
MTEXTBEGIN
1070
    73
1070
     2
1070
    44
1040
0.79685
1000
MTEXTEND
  0
MTEXT
  5
1161
330
12A8
100
AcDbEntity
  8
PHASEI_STPS
  6
DGN_STYLE_2
100
AcDbMText
 10
264.903892
 20
117.502724
 30
0.0
 40
5.0
 41
0.0
 71
     1
 72
     1
  1
^J
  7
STYLE-GARAMOND
1001
ACAD
1000
MTEXTBEGIN
1070
    73
1070
     2
1070
    44
1040
0.79685
1000
MTEXTEND
  0
MTEXT
  5
1162
330
12A8
100
AcDbEntity
  8
PHASEI_STPS
  6
DGN_STYLE_2
100
AcDbMText
 10
264.903892
 20
127.502724
 30
0.0
 40
5.0
 41
0.0
 71
     1
 72
     1
  1
^J
  7
STYLE-GARAMOND
1001
ACAD
1000
MTEXTBEGIN
1070
    73
1070
     2
1070
    44
1040
0.79685
1000
MTEXTEND
  0
MTEXT
  5
1163
330
12A8
100
AcDbEntity
  8
PHASEI_STPS
  6
DGN_STYLE_2
100
AcDbMText
 10
264.903892
 20
127.502724
 30
0.0
 40
5.0
 41
0.0
 71
     1
 72
     1
  1
^J
  7
STYLE-GARAMOND
1001
ACAD
1000
MTEXTBEGIN
1070
    73
1070
     2
1070
    44
1040
0.79685
1000
MTEXTEND
  0
POINT
  5
1164
330
12A8
100
AcDbEntity
  8
PHASEI_STPS
100
AcDbPoint
 10
221.65242
 20
93.596041
 30
0.0
 50
5.894098
  0
POINT
  5
1165
330
12A8
100
AcDbEntity
  8
PHASEI_STPS
100
AcDbPoint
 10
231.65242
 20
83.596041
 30
0.0
 50
5.894098
  0
POINT
  5
1166
330
12A8
100
AcDbEntity
  8
PHASEI_STPS
100
AcDbPoint
 10
221.65242
 20
83.596041
 30
0.0
 50
5.894098
  0
POINT
  5
1167
330
12A8
100
AcDbEntity
  8
PHASEI_STPS
100
AcDbPoint
 10
211.65242
 20
83.596041
 30
0.0
 50
5.894098
  0
POINT
  5
1168
330
12A8
100
AcDbEntity
  8
PHASEI_STPS
100
AcDbPoint
 10
221.65242
 20
83.596041
 30
0.0
 50
5.894098
  0
POINT
  5
1169
330
12A8
100
AcDbEntity
  8
PHASEI_STPS
100
AcDbPoint
 10
221.65242
 20
73.596041
 30
0.0
 50
5.894098
  0
POINT
  5
116A
330
12A8
100
AcDbEntity
  8
PHASEI_STPS
100
AcDbPoint
 10
105.203962
 20
5.340484
 30
0.0
 50
5.894098
  0
POINT
  5
116C
330
12A8
100
AcDbEntity
  8
PHASEI_STPS
100
AcDbPoint
 10
95.0
 20
15.340484
 30
0.0
 50
5.894098
  0
MTEXT
  5
116D
330
12A8
100
AcDbEntity
  8
FEATURE_NUMBERS
  6
DGN_STYLE_2
100
AcDbMText
 10
95.203962
 20
5.340484
 30
0.0
 40
5.0
 41
0.0
 71
     1
 72
     1
  1
^J
  7
STYLE-GARAMOND
1001
ACAD
1000
MTEXTBEGIN
1070
    73
1070
     2
1070
    44
1040
0.79685
1000
MTEXTEND
  0
MTEXT
  5
116E
330
12A8
100
AcDbEntity
  8
FEATURE_NUMBERS
  6
DGN_STYLE_2
100
AcDbMText
 10
95.0
 20
5.0
 30
0.0
 40
5.0
 41
0.0
 71
     1
 72
     1
  1
^J
  7
STYLE-GARAMOND
1001
ACAD
1000
MTEXTBEGIN
1070
    73
1070
     2
1070
    44
1040
0.79685
1000
MTEXTEND
  0
MTEXT
  5
116F
330
12A8
100
AcDbEntity
  8
FEATURE_NUMBERS
  6
DGN_STYLE_2
100
AcDbMText
 10
95.0
 20
5.0
 30
0.0
 40
5.0
 41
0.0
 71
     1
 72
     1
  1
^J
  7
STYLE-GARAMOND
1001
ACAD
1000
MTEXTBEGIN
1070
    73
1070
     2
1070
    44
1040
0.79685
1000
MTEXTEND
  0
POINT
  5
1170
330
12A8
100
AcDbEntity
  8
PHASEI_STPS
100
AcDbPoint
 10
95.203962
 20
-4.659516
 30
0.0
 50
5.894098
  0
POINT
  5
1171
330
12A8
100
AcDbEntity
  8
PHASEI_STPS
100
AcDbPoint
 10
95.203962
 20
-14.659516
 30
0.0
 50
5.894098
  0
POINT
  5
1175
330
12A8
100
AcDbEntity
  8
PHASEI_STPS
100
AcDbPoint
 10
85.203962
 20
5.340484
 30
0.0
 50
5.894098
  0
POINT
  5
1176
330
12A8
100
AcDbEntity
  8
PHASEI_STPS
100
AcDbPoint
 10
75.203962
 20
5.340484
 30
0.0
 50
5.894098
  0
POINT
  5
1177
330
12A8
100
AcDbEntity
  8
PHASEI_STPS
100
AcDbPoint
 10
65.203962
 20
5.340484
 30
0.0
 50
5.894098
  0
POINT
  5
1178
330
12A8
100
AcDbEntity
  8
PHASEI_STPS
100
AcDbPoint
 10
55.203962
 20
5.340484
 30
0.0
 50
5.894098
  0
POINT
  5
1179
330
12A8
100
AcDbEntity
  8
PHASEI_STPS
100
AcDbPoint
 10
45.203962
 20
5.340484
 30
0.0
 50
5.894098
  0
MTEXT
  5
117D
330
12A8
100
AcDbEntity
  8
PHASEI_STPS
  6
DGN_STYLE_2
100
AcDbMText
 10
264.903892
 20
107.502724
 30
0.0
 40
5.0
 41
0.0
 71
     1
 72
     1
  1
^J
  7
STYLE-GARAMOND
1001
ACAD
1000
MTEXTBEGIN
1070
    73
1070
     2
1070
    44
1040
0.79685
1000
MTEXTEND
  0
MTEXT
  5
1180
330
12A8
100
AcDbEntity
  8
PHASEI_STPS
  6
DGN_STYLE_2
100
AcDbMText
 10
-1286.358903
 20
-709.886719
 30
0.0
 40
5.0
 41
0.0
 71
     1
 72
     1
  1
^J
  7
STYLE-GARAMOND
1001
ACAD
1000
MTEXTBEGIN
1070
    73
1070
     2
1070
    44
1040
0.79685
1000
MTEXTEND
  0
MTEXT
  5
1183
330
12A8
100
AcDbEntity
  8
PHASEI_STPS
  6
DGN_STYLE_2
100
AcDbMText
 10
-1246.398809
 20
-675.10432
 30
0.0
 40
5.0
 41
0.0
 71
     1
 72
     1
  1
^J
  7
STYLE-GARAMOND
1001
ACAD
1000
MTEXTBEGIN
1070
    73
1070
     2
1070
    44
1040
0.79685
1000
MTEXTEND
  0
MTEXT
  5
1186
330
12A8
100
AcDbEntity
  8
PHASEI_STPS
  6
DGN_STYLE_2
100
AcDbMText
 10
-1195.676187
 20
-645.71278
 30
0.0
 40
5.0
 41
0.0
 71
     1
 72
     1
  1
^J
  7
STYLE-GARAMOND
1001
ACAD
1000
MTEXTBEGIN
1070
    73
1070
     2
1070
    44
1040
0.79685
1000
MTEXTEND
  0
MTEXT
  5
1189
330
12A8
100
AcDbEntity
  8
PHASEI_STPS
  6
DGN_STYLE_2
100
AcDbMText
 10
-1155.876779
 20
-623.334452
 30
0.0
 40
5.0
 41
0.0
 71
     1
 72
     1
  1
^J
  7
STYLE-GARAMOND
1001
ACAD
1000
MTEXTBEGIN
1070
    73
1070
     2
1070
    44
1040
0.79685
1000
MTEXTEND
  0
MTEXT
  5
118C
330
12A8
100
AcDbEntity
  8
PHASEI_STPS
  6
DGN_STYLE_2
100
AcDbMText
 10
-1107.707266
 20
-594.980646
 30
0.0
 40
5.0
 41
0.0
 71
     1
 72
     1
  1
^J
  7
STYLE-GARAMOND
1001
ACAD
1000
MTEXTBEGIN
1070
    73
1070
     2
1070
    44
1040
0.79685
1000
MTEXTEND
  0
MTEXT
  5
118F
330
12A8
100
AcDbEntity
  8
PHASEI_STPS
  6
DGN_STYLE_2
100
AcDbMText
 10
-1054.311686
 20
-564.434843
 30
0.0
 40
5.0
 41
0.0
 71
     1
 72
     1
  1
^J
  7
STYLE-GARAMOND
1001
ACAD
1000
MTEXTBEGIN
1070
    73
1070
     2
1070
    44
1040
0.79685
1000
MTEXTEND
  0
MTEXT
  5
1192
330
12A8
100
AcDbEntity
  8
PHASEI_STPS
  6
DGN_STYLE_2
100
AcDbMText
 10
-1003.192577
 20
-536.230152
 30
0.0
 40
5.0
 41
0.0
 71
     1
 72
     1
  1
^J
  7
STYLE-GARAMOND
1001
ACAD
1000
MTEXTBEGIN
1070
    73
1070
     2
1070
    44
1040
0.79685
1000
MTEXTEND
  0
MTEXT
  5
1195
330
12A8
100
AcDbEntity
  8
PHASEI_STPS
  6
DGN_STYLE_2
100
AcDbMText
 10
-954.704287
 20
-507.66917
 30
0.0
 40
5.0
 41
0.0
 71
     1
 72
     1
  1
^J
  7
STYLE-GARAMOND
1001
ACAD
1000
MTEXTBEGIN
1070
    73
1070
     2
1070
    44
1040
0.79685
1000
MTEXTEND
  0
MTEXT
  5
1198
330
12A8
100
AcDbEntity
  8
PHASEI_STPS
  6
DGN_STYLE_2
100
AcDbMText
 10
-903.585179
 20
-479.46448
 30
0.0
 40
5.0
 41
0.0
 71
     1
 72
     1
  1
^J
  7
STYLE-GARAMOND
1001
ACAD
1000
MTEXTBEGIN
1070
    73
1070
     2
1070
    44
1040
0.79685
1000
MTEXTEND
  0
MTEXT
  5
119B
330
12A8
100
AcDbEntity
  8
PHASEI_STPS
  6
DGN_STYLE_2
100
AcDbMText
 10
-858.202852
 20
-453.847425
 30
0.0
 40
5.0
 41
0.0
 71
     1
 72
     1
  1
^J
  7
STYLE-GARAMOND
1001
ACAD
1000
MTEXTBEGIN
1070
    73
1070
     2
1070
    44
1040
0.79685
1000
MTEXTEND
  0
MTEXT
  5
119E
330
12A8
100
AcDbEntity
  8
PHASEI_STPS
  6
DGN_STYLE_2
100
AcDbMText
 10
-812.501748
 20
-428.023195
 30
0.0
 40
5.0
 41
0.0
 71
     1
 72
     1
  1
^J
  7
STYLE-GARAMOND
1001
ACAD
1000
MTEXTBEGIN
1070
    73
1070
     2
1070
    44
1040
0.79685
1000
MTEXTEND
  0
MTEXT
  5
11A1
330
12A8
100
AcDbEntity
  8
PHASEI_STPS
  6
DGN_STYLE_2
100
AcDbMText
 10
-755.253256
 20
-399.21514
 30
0.0
 40
5.0
 41
0.0
 71
     1
 72
     1
  1
^J
  7
STYLE-GARAMOND
1001
ACAD
1000
MTEXTBEGIN
1070
    73
1070
     2
1070
    44
1040
0.79685
1000
MTEXTEND
  0
MTEXT
  5
11A4
330
12A8
100
AcDbEntity
  8
PHASEI_STPS
  6
DGN_STYLE_2
100
AcDbMText
 10
-697.296736
 20
-365.686463
 30
0.0
 40
5.0
 41
0.0
 71
     1
 72
     1
  1
^J
  7
STYLE-GARAMOND
1001
ACAD
1000
MTEXTBEGIN
1070
    73
1070
     2
1070
    44
1040
0.79685
1000
MTEXTEND
  0
MTEXT
  5
10D4
330
12A8
100
AcDbEntity
  8
PHASEI_LABELS
  6
DGN_STYLE_2
100
AcDbMText
 10
-574.012343
 20
-298.449042
 30
0.0
 40
5.0
 41
0.0
 71
     1
 72
     1
  1
^J
  7
STYLE-GARAMOND
1001
ACAD
1000
MTEXTBEGIN
1070
    73
1070
     2
1070
    44
1040
0.79685
1000
MTEXTEND
  0
POINT
  5
11A7
330
12A8
100
AcDbEntity
  8
PHASEI_STPS
100
AcDbPoint
 10
-134.453013
 20
2.627948
 30
0.0
 50
5.894098
  0
POINT
  5
11A8
330
12A8
100
AcDbEntity
  8
PHASEI_STPS
100
AcDbPoint
 10
-134.453013
 20
12.627948
 30
0.0
 50
5.894098
  0
POINT
  5
11A9
330
12A8
100
AcDbEntity
  8
PHASEI_STPS
100
AcDbPoint
 10
-134.453013
 20
22.627948
 30
0.0
 50
5.894098
  0
POINT
  5
11AA
330
12A8
100
AcDbEntity
  8
PHASEI_STPS
100
AcDbPoint
 10
-134.453013
 20
32.627948
 30
0.0
 50
5.894098
  0
POINT
  5
11AB
330
12A8
100
AcDbEntity
  8
PHASEI_STPS
100
AcDbPoint
 10
-26.53043
 20
57.660487
 30
0.0
 50
5.894098
  0
POINT
  5
11AD
330
12A8
100
AcDbEntity
  8
PHASEI_STPS
100
AcDbPoint
 10
35.680639
 20
101.687452
 30
0.0
 50
5.894098
  0
POINT
  5
11AE
330
12A8
100
AcDbEntity
  8
PHASEI_STPS
100
AcDbPoint
 10
35.680639
 20
71.687452
 30
0.0
 50
5.894098
  0
POINT
  5
11AF
330
12A8
100
AcDbEntity
  8
PHASEI_STPS
100
AcDbPoint
 10
35.680639
 20
61.687452
 30
0.0
 50
5.894098
  0
POINT
  5
11B0
330
12A8
100
AcDbEntity
  8
PHASEI_STPS
100
AcDbPoint
 10
-64.406599
 20
93.227133
 30
0.0
 50
5.894098
  0
POINT
  5
11B2
330
12A8
100
AcDbEntity
  8
PHASEI_STPS
100
AcDbPoint
 10
-74.406599
 20
103.227133
 30
0.0
 50
5.894098
  0
POINT
  5
11B3
330
12A8
100
AcDbEntity
  8
PHASEI_STPS
100
AcDbPoint
 10
-74.406599
 20
113.227133
 30
0.0
 50
5.894098
  0
POINT
  5
11B4
330
12A8
100
AcDbEntity
  8
PHASEI_STPS
100
AcDbPoint
 10
-74.406599
 20
123.227133
 30
0.0
 50
5.894098
  0
POINT
  5
11B5
330
12A8
100
AcDbEntity
  8
PHASEI_STPS
100
AcDbPoint
 10
-74.406599
 20
83.227133
 30
0.0
 50
5.894098
  0
POINT
  5
11B6
330
12A8
100
AcDbEntity
  8
PHASEI_STPS
100
AcDbPoint
 10
-74.406599
 20
73.227133
 30
0.0
 50
5.894098
  0
POINT
  5
11B7
330
12A8
100
AcDbEntity
  8
PHASEI_STPS
100
AcDbPoint
 10
-74.406599
 20
63.227133
 30
0.0
 50
5.894098
  0
POINT
  5
11B8
330
12A8
100
AcDbEntity
  8
PHASEI_STPS
100
AcDbPoint
 10
-84.406599
 20
93.227133
 30
0.0
 50
5.894098
  0
POINT
  5
11B9
330
12A8
100
AcDbEntity
  8
PHASEI_STPS
100
AcDbPoint
 10
-94.406599
 20
93.227133
 30
0.0
 50
5.894098
  0
POINT
  5
11BA
330
12A8
100
AcDbEntity
  8
PHASEI_STPS
100
AcDbPoint
 10
-104.406599
 20
93.227133
 30
0.0
 50
5.894098
  0
POINT
  5
11BD
330
12A8
100
AcDbEntity
  8
PHASEI_STPS
100
AcDbPoint
 10
7.496534
 20
-43.804534
 30
0.0
 50
5.894098
  0
POINT
  5
11BE
330
12A8
100
AcDbEntity
  8
PHASEI_STPS
100
AcDbPoint
 10
17.496534
 20
-43.804534
 30
0.0
 50
5.894098
  0
POINT
  5
11BF
330
12A8
100
AcDbEntity
  8
PHASEI_STPS
100
AcDbPoint
 10
27.496534
 20
-43.804534
 30
0.0
 50
5.894098
  0
POINT
  5
11C0
330
12A8
100
AcDbEntity
  8
PHASEI_STPS
100
AcDbPoint
 10
37.496534
 20
-43.804534
 30
0.0
 50
5.894098
  0
POINT
  5
11C1
330
12A8
100
AcDbEntity
  8
PHASEI_STPS
100
AcDbPoint
 10
47.496534
 20
-43.804534
 30
0.0
 50
5.894098
  0
POINT
  5
11C2
330
12A8
100
AcDbEntity
  8
PHASEI_STPS
100
AcDbPoint
 10
57.496534
 20
-43.804534
 30
0.0
 50
5.894098
  0
POINT
  5
11C3
330
12A8
100
AcDbEntity
  8
PHASEI_STPS
100
AcDbPoint
 10
-2.503466
 20
-33.804534
 30
0.0
 50
5.894098
  0
POINT
  5
11C4
330
12A8
100
AcDbEntity
  8
PHASEI_STPS
100
AcDbPoint
 10
-2.503466
 20
-23.804534
 30
0.0
 50
5.894098
  0
POINT
  5
11C5
330
12A8
100
AcDbEntity
  8
PHASEI_STPS
100
AcDbPoint
 10
-2.503466
 20
-53.804534
 30
0.0
 50
5.894098
  0
POINT
  5
11C6
330
12A8
100
AcDbEntity
  8
PHASEI_STPS
100
AcDbPoint
 10
-12.503466
 20
-43.804534
 30
0.0
 50
5.894098
  0
TEXT
  5
11CE
330
12A8
100
AcDbEntity
  8
PHASEIII_UNITS
  6
DGN_STYLE_2
100
AcDbText
 10
320.783507
 20
-114.388991
 30
0.0
 40
3.0
  1
Phase II STP
  7
STYLE-GARAMOND
 11
320.783507
 21
-111.388991
 31
0.0
100
AcDbText
 73
     3
  0
POINT
  5
11CF
330
12A8
100
AcDbEntity
  8
PHASE_II_STPS
100
AcDbPoint
 10
95.0
 20
25.340484
 30
0.0
 50
5.894098
  0
POINT
  5
11D0
330
12A8
100
AcDbEntity
  8
PHASE_II_STPS
100
AcDbPoint
 10
95.0
 20
35.340484
 30
0.0
 50
5.894098
  0
POINT
  5
11D1
330
12A8
100
AcDbEntity
  8
PHASE_II_STPS
100
AcDbPoint
 10
-16.53043
 20
57.660487
 30
0.0
 50
5.894098
  0
POINT
  5
11D4
330
12A8
100
AcDbEntity
  8
PHASE_II_STPS
100
AcDbPoint
 10
-36.53043
 20
67.660487
 30
0.0
 50
5.894098
  0
POINT
  5
11D6
330
12A8
100
AcDbEntity
  8
PHASE_II_STPS
100
AcDbPoint
 10
-36.53043
 20
48.205644
 30
0.0
 50
5.894098
  0
POINT
  5
11D7
330
12A8
100
AcDbEntity
  8
PHASE_II_STPS
100
AcDbPoint
 10
-36.53043
 20
38.750801
 30
0.0
 50
5.894098
  0
POINT
  5
11D8
330
12A8
100
AcDbEntity
  8
PHASE_II_STPS
100
AcDbPoint
 10
-45.985273
 20
57.660487
 30
0.0
 50
5.894098
  0
POINT
  5
11D9
330
12A8
100
AcDbEntity
  8
PHASE_II_STPS
100
AcDbPoint
 10
-55.440116
 20
57.660487
 30
0.0
 50
5.894098
  0
MTEXT
  5
11E0
330
12A8
100
AcDbEntity
  8
PHASE_II_STPS
  6
DGN_STYLE_2
100
AcDbMText
 10
24.230174
 20
149.075775
 30
0.0
 40
5.0
 41
0.0
 71
     1
 72
     1
  1
^J
  7
STYLE-GARAMOND
1001
ACAD
1000
MTEXTBEGIN
1070
    73
1070
     2
1070
    44
1040
0.79685
1000
MTEXTEND
  0
MTEXT
  5
11E3
330
12A8
100
AcDbEntity
  8
PHASE_II_STPS
  6
DGN_STYLE_2
100
AcDbMText
 10
71.064438
 20
176.499131
 30
0.0
 40
5.0
 41
0.0
 71
     1
 72
     1
  1
^J
  7
STYLE-GARAMOND
1001
ACAD
1000
MTEXTBEGIN
1070
    73
1070
     2
1070
    44
1040
0.79685
1000
MTEXTEND
  0
MTEXT
  5
11E6
330
12A8
100
AcDbEntity
  8
PHASE_II_STPS
  6
DGN_STYLE_2
100
AcDbMText
 10
119.000333
 20
204.197413
 30
0.0
 40
5.0
 41
0.0
 71
     1
 72
     1
  1
^J
  7
STYLE-GARAMOND
1001
ACAD
1000
MTEXTBEGIN
1070
    73
1070
     2
1070
    44
1040
0.79685
1000
MTEXTEND
  0
MTEXT
  5
11E9
330
12A8
100
AcDbEntity
  8
PHASE_II_STPS
  6
DGN_STYLE_2
100
AcDbMText
 10
166.499527
 20
227.665578
 30
0.0
 40
5.0
 41
0.0
 71
     1
 72
     1
  1
^J
  7
STYLE-GARAMOND
1001
ACAD
1000
MTEXTBEGIN
1070
    73
1070
     2
1070
    44
1040
0.79685
1000
MTEXTEND
  0
MTEXT
  5
11EC
330
12A8
100
AcDbEntity
  8
PHASE_II_STPS
  6
DGN_STYLE_2
100
AcDbMText
 10
217.581515
 20
254.650417
 30
0.0
 40
5.0
 41
0.0
 71
     1
 72
     1
  1
^J
  7
STYLE-GARAMOND
1001
ACAD
1000
MTEXTBEGIN
1070
    73
1070
     2
1070
    44
1040
0.79685
1000
MTEXTEND
  0
MTEXT
  5
11EF
330
12A8
100
AcDbEntity
  8
PHASE_II_STPS
  6
DGN_STYLE_2
100
AcDbMText
 10
260.872686
 20
278.941655
 30
0.0
 40
5.0
 41
0.0
 71
     1
 72
     1
  1
^J
  7
STYLE-GARAMOND
1001
ACAD
1000
MTEXTBEGIN
1070
    73
1070
     2
1070
    44
1040
0.79685
1000
MTEXTEND
  0
POINT
  5
11FB
330
12A8
100
AcDbEntity
  8
PHASE_II_STPS
100
AcDbPoint
 10
291.88362
 20
-111.930973
 30
0.0
 50
5.894098
  0
POINT
  5
11FC
330
12A8
100
AcDbEntity
  8
PHASEIII_STPS
100
AcDbPoint
 10
292.230789
 20
-124.130748
 30
0.0
 50
5.894098
  0
POINT
  5
11FD
330
12A8
100
AcDbEntity
  8
PHASEI_STPS
100
AcDbPoint
 10
291.88362
 20
-102.466379
 30
0.0
 50
5.894098
  0
SOLID
  5
123F
330
12A8
100
AcDbEntity
  8
SCALE
 62
   250
100
AcDbTrace
 10
-159.187484
 20
-122.701051
 30
0.0
 11
-169.187484
 21
-122.701051
 31
0.0
 12
-159.187484
 22
-124.367359
 32
0.0
 13
-169.187484
 23
-124.367359
 33
0.0
210
0.0
220
0.0
230
-1.0
  0
SOLID
  5
1241
330
12A8
100
AcDbEntity
  8
SCALE
 62
   250
100
AcDbTrace
 10
-179.187484
 20
-122.701051
 30
0.0
 11
-189.187484
 21
-122.701051
 31
0.0
 12
-179.187484
 22
-124.367359
 32
0.0
 13
-189.187484
 23
-124.367359
 33
0.0
210
0.0
220
0.0
230
-1.0
  0
LWPOLYLINE
  5
1240
330
12A8
100
AcDbEntity
  8
SCALE
 62
   250
100
AcDbPolyline
 90
        4
 70
   129
 43
0.0
 10
169.187484
 20
-122.701051
 10
179.187484
 20
-122.701051
 10
179.187484
 20
-124.367359
 10
169.187484
 20
-124.367359
  0
LWPOLYLINE
  5
1242
330
12A8
100
AcDbEntity
  8
SCALE
 62
   250
100
AcDbPolyline
 90
        4
 70
   129
 43
0.0
 10
189.187484
 20
-122.701051
 10
199.187484
 20
-122.701051
 10
199.187484
 20
-124.367359
 10
189.187484
 20
-124.367359
  0
SOLID
  5
1244
330
12A8
100
AcDbEntity
  8
SCALE
 62
   250
100
AcDbTrace
 10
-169.223998
 20
-124.474284
 30
0.0
 11
-179.223998
 21
-124.474284
 31
0.0
 12
-169.223998
 22
-126.140593
 32
0.0
 13
-179.223998
 23
-126.140593
 33
0.0
210
0.0
220
0.0
230
-1.0
  0
SOLID
  5
1246
330
12A8
100
AcDbEntity
  8
SCALE
 62
   250
100
AcDbTrace
 10
-189.223998
 20
-124.474284
 30
0.0
 11
-199.223998
 21
-124.474284
 31
0.0
 12
-189.223998
 22
-126.140593
 32
0.0
 13
-199.223998
 23
-126.140593
 33
0.0
210
0.0
220
0.0
230
-1.0
  0
LWPOLYLINE
  5
1243
330
12A8
100
AcDbEntity
  8
SCALE
 62
   250
100
AcDbPolyline
 90
        4
 70
   129
 43
0.0
 10
159.187484
 20
-124.474284
 10
169.187484
 20
-124.474284
 10
169.187484
 20
-126.140593
 10
159.187484
 20
-126.140593
  0
LWPOLYLINE
  5
1245
330
12A8
100
AcDbEntity
  8
SCALE
 62
   250
100
AcDbPolyline
 90
        4
 70
   129
 43
0.0
 10
179.223998
 20
-124.474284
 10
189.223998
 20
-124.474284
 10
189.223998
 20
-126.140593
 10
179.223998
 20
-126.140593
  0
SOLID
  5
1247
330
12A8
100
AcDbEntity
  8
SCALE
 62
   250
100
AcDbTrace
 10
-199.187484
 20
-122.701051
 30
0.0
 11
-239.187484
 21
-122.701051
 31
0.0
 12
-199.187484
 22
-124.417069
 32
0.0
 13
-239.187484
 23
-124.417069
 33
0.0
210
0.0
220
0.0
230
-1.0
  0
LWPOLYLINE
  5
1248
330
12A8
100
AcDbEntity
  8
SCALE
 62
   250
100
AcDbPolyline
 90
        4
 70
   129
 43
0.0
 10
199.187484
 20
-124.389198
 10
239.187484
 20
-124.389198
 10
239.187484
 20
-126.105217
 10
199.187484
 20
-126.105217
  0
TEXT
  5
1249
330
12A8
100
AcDbEntity
  8
SCALE
 62
   250
100
AcDbText
 10
158.572425
 20
-121.481954
 30
0.0
 40
3.0
  1
0
  7
STYLE-GARAMOND
 11
158.572425
 21
-118.481954
 31
0.0
100
AcDbText
 73
     3
  0
TEXT
  5
124A
330
12A8
100
AcDbEntity
  8
SCALE
 62
   250
100
AcDbText
 10
177.24808
 20
-121.579293
 30
0.0
 40
3.0
  1
20
  7
STYLE-GARAMOND
 11
177.24808
 21
-118.579293
 31
0.0
100
AcDbText
 73
     3
  0
TEXT
  5
124B
330
12A8
100
AcDbEntity
  8
SCALE
 62
   250
100
AcDbText
 10
196.863915
 20
-121.579293
 30
0.0
 40
3.0
  1
40
  7
STYLE-GARAMOND
 11
196.863915
 21
-118.579293
 31
0.0
100
AcDbText
 73
     3
  0
TEXT
  5
124C
330
12A8
100
AcDbEntity
  8
SCALE
 62
   250
100
AcDbText
 10
236.465887
 20
-121.579293
 30
0.0
 40
3.0
  1
80
  7
STYLE-GARAMOND
 11
236.465887
 21
-118.579293
 31
0.0
100
AcDbText
 73
     3
  0
TEXT
  5
124D
330
12A8
100
AcDbEntity
  8
SCALE
 62
   250
100
AcDbText
 10
158.81308
 20
-130.339844
 30
0.0
 40
3.0
  1
Feet
  7
STYLE-GARAMOND
 11
158.81308
 21
-127.339844
 31
0.0
100
AcDbText
 73
     3
  0
HATCH
  5
12E7
330
12A8
100
AcDbEntity
  8
FEATURES
 62
    46
100
AcDbHatch
 10
0.0
 20
0.0
 30
0.0
210
0.0
220
0.0
230
1.0
  2
SOLID
 70
     1
 71
     1
 91
        1
 92
        1
 93
        1
 72
     4
 94
        3
 73
     0
 74
     0
 95
       42
 96
       38
 40
0.0
 40
0.0
 40
0.0
 40
0.0
 40
0.0435890983265469
 40
0.1035356952363019
 40
0.1543546526448498
 40
0.1757708650819466
 40
0.189273329057854
 40
0.1998183761371498
 40
0.2123604857337529
 40
0.2207218921314907
 40
0.2558591868956889
 40
0.2819561252402523
 40
0.309974258965686
 40
0.3323268361429428
 40
0.3603449698683724
 40
0.3903772771150494
 40
0.4431510716680984
 40
0.4595279206139653
 40
0.4753716652974248
 40
0.4999178404980949
 40
0.5333832263815101
 40
0.5551560435278801
 40
0.5975784440036815
 40
0.630304528824982
 40
0.6598665646454595
 40
0.6749403043964772
 40
0.7187535126749447
 40
0.7493770344508459
 40
0.7865521532575577
 40
0.8120947054982423
 40
0.8335320141930612
 40
0.9021248123632913
 40
0.9210537511702878
 40
0.9342514817739265
 40
0.9509201460857506
 40
0.9712388323022414
 40
1.0
 40
1.0
 40
1.0
 40
1.0
 10
292.6817288087268
 20
-25.88801812554296
 10
292.4368245399105
 20
-25.89510781120917
 10
291.9461718621269
 20
-26.45913350901129
 10
291.0344528841852
 20
-26.69165529064602
 10
290.2639712797285
 20
-26.81738413176046
 10
289.7190978823884
 20
-26.92749093735519
 10
289.4830330022561
 20
-26.67301985205134
 10
289.2765059661411
 20
-26.85858886626665
 10
289.2726082510667
 20
-27.07553128330086
 10
288.9107945829809
 20
-27.18451741455857
 10
288.4996098986916
 20
-27.0861528968491
 10
287.9672020117857
 20
-27.24182556049263
 10
287.5520477155121
 20
-27.48742807659976
 10
287.3500334790247
 20
-27.94589466028231
 10
287.3960246082893
 20
-28.4458880214871
 10
287.6313725549262
 20
-29.07496088695341
 10
287.866068987487
 20
-29.63567071437006
 10
287.9475018053699
 20
-30.14460884103179
 10
288.1206327266588
 20
-30.46325758531506
 10
288.5979903784569
 20
-30.60044911694927
 10
289.0724661106167
 20
-30.44513458375354
 10
289.5690255588261
 20
-30.10422028657142
 10
290.1958319839474
 20
-30.13773683135799
 10
290.7641717001136
 20
-29.84013831081148
 10
291.1924890665922
 20
-29.63727403640215
 10
291.7279122449254
 20
-29.56706807438099
 10
292.2390180925981
 20
-29.38562917716626
 10
292.9095591254212
 20
-29.23033590567033
 10
293.4122283037781
 20
-29.07309144414287
 10
294.0037025082532
 20
-28.90095660396999
 10
293.8855886415246
 20
-28.10827563531854
 10
293.922828326497
 20
-27.45315899044476
 10
293.5471481827058
 20
-26.9458142669747
 10
293.4757321776631
 20
-26.65747193446322
 10
293.4047801306895
 20
-26.35590190241189
 10
293.1475586097706
 20
-26.04650731366516
 10
292.8433227167392
 20
-25.88334017517925
 10
292.6817288087268
 20
-25.88801812554296
 97
        1
330
128B
 75
     0
 76
     1
 98
        1
 10
0.0
 20
0.0
  0
SPLINE
  5
128B
102
{ACAD_REACTORS
330
12E7
102
}
330
12A8
100
AcDbEntity
  8
FEATURES
 62
   250
100
AcDbSpline
210
0.0
220
0.0
230
1.0
 70
    11
 71
     3
 72
    42
 73
    38
 74
     0
 42
0.0000000001
 43
0.00000001
 40
0.0
 40
0.0
 40
0.0
 40
0.0
 40
0.0435890983265469
 40
0.1035356952363019
 40
0.1543546526448498
 40
0.1757708650819466
 40
0.189273329057854
 40
0.1998183761371498
 40
0.2123604857337529
 40
0.2207218921314907
 40
0.2558591868956889
 40
0.2819561252402523
 40
0.309974258965686
 40
0.3323268361429428
 40
0.3603449698683724
 40
0.3903772771150494
 40
0.4431510716680984
 40
0.4595279206139653
 40
0.4753716652974248
 40
0.4999178404980949
 40
0.5333832263815101
 40
0.5551560435278801
 40
0.5975784440036815
 40
0.630304528824982
 40
0.6598665646454595
 40
0.6749403043964772
 40
0.7187535126749447
 40
0.7493770344508459
 40
0.7865521532575577
 40
0.8120947054982423
 40
0.8335320141930612
 40
0.9021248123632913
 40
0.9210537511702878
 40
0.9342514817739265
 40
0.9509201460857506
 40
0.9712388323022414
 40
1.0
 40
1.0
 40
1.0
 40
1.0
 10
292.6817288087268
 20
-25.88801812554296
 30
0.0
 10
292.4368245399105
 20
-25.89510781120917
 30
0.0
 10
291.9461718621269
 20
-26.45913350901129
 30
0.0
 10
291.0344528841852
 20
-26.69165529064602
 30
0.0
 10
290.2639712797285
 20
-26.81738413176046
 30
0.0
 10
289.7190978823884
 20
-26.92749093735519
 30
0.0
 10
289.4830330022561
 20
-26.67301985205134
 30
0.0
 10
289.2765059661411
 20
-26.85858886626665
 30
0.0
 10
289.2726082510667
 20
-27.07553128330086
 30
0.0
 10
288.9107945829809
 20
-27.18451741455857
 30
0.0
 10
288.4996098986916
 20
-27.0861528968491
 30
0.0
 10
287.9672020117857
 20
-27.24182556049263
 30
0.0
 10
287.5520477155121
 20
-27.48742807659976
 30
0.0
 10
287.3500334790247
 20
-27.94589466028231
 30
0.0
 10
287.3960246082893
 20
-28.4458880214871
 30
0.0
 10
287.6313725549262
 20
-29.07496088695341
 30
0.0
 10
287.866068987487
 20
-29.63567071437006
 30
0.0
 10
287.9475018053699
 20
-30.14460884103179
 30
0.0
 10
288.1206327266588
 20
-30.46325758531506
 30
0.0
 10
288.5979903784569
 20
-30.60044911694927
 30
0.0
 10
289.0724661106167
 20
-30.44513458375354
 30
0.0
 10
289.5690255588261
 20
-30.10422028657142
 30
0.0
 10
290.1958319839474
 20
-30.13773683135799
 30
0.0
 10
290.7641717001136
 20
-29.84013831081148
 30
0.0
 10
291.1924890665922
 20
-29.63727403640215
 30
0.0
 10
291.7279122449254
 20
-29.56706807438099
 30
0.0
 10
292.2390180925981
 20
-29.38562917716626
 30
0.0
 10
292.9095591254212
 20
-29.23033590567033
 30
0.0
 10
293.4122283037781
 20
-29.07309144414287
 30
0.0
 10
294.0037025082532
 20
-28.90095660396999
 30
0.0
 10
293.8855886415246
 20
-28.10827563531854
 30
0.0
 10
293.922828326497
 20
-27.45315899044476
 30
0.0
 10
293.5471481827058
 20
-26.9458142669747
 30
0.0
 10
293.4757321776631
 20
-26.65747193446322
 30
0.0
 10
293.4047801306895
 20
-26.35590190241189
 30
0.0
 10
293.1475586097706
 20
-26.04650731366516
 30
0.0
 10
292.8433227167392
 20
-25.88334017517925
 30
0.0
 10
292.6817288087268
 20
-25.88801812554296
 30
0.0
  0
TEXT
  5
128E
330
12A8
100
AcDbEntity
  8
FEATURE_NUMBERS
 62
   250
100
AcDbText
 10
289.403984
 20
-34.623803
 30
0.0
 40
2.0
  1
F16
  7
STYLE-GARAMOND
 11
289.403984
 21
-32.623803
 31
0.0
100
AcDbText
 73
     3
  0
TEXT
  5
128F
330
12A8
100
AcDbEntity
  8
PHASEIII_UNITS
  6
DGN_STYLE_2
100
AcDbText
 10
320.331407
 20
-31.729521
 30
0.0
 40
3.0
  1
Subfloor pit
  7
STYLE-GARAMOND
 11
320.331407
 21
-28.729521
 31
0.0
100
AcDbText
 73
     3
  0
HATCH
  5
12E8
330
12A8
100
AcDbEntity
  8
FEATURES
 62
   253
100
AcDbHatch
 10
0.0
 20
0.0
 30
0.0
210
0.0
220
0.0
230
1.0
  2
SOLID
 70
     1
 71
     1
 91
        1
 92
        1
 93
        1
 72
     4
 94
        3
 73
     0
 74
     0
 95
       40
 96
       36
 40
0.0
 40
0.0
 40
0.0
 40
0.0
 40
0.0614682201282338
 40
0.1113171561515045
 40
0.1421307853913842
 40
0.1979921376129459
 40
0.2422874886802066
 40
0.2717859554295008
 40
0.3157447456810599
 40
0.3792387743809527
 40
0.4340633083267504
 40
0.4584919386232852
 40
0.4951809121548708
 40
0.5318560833258722
 40
0.5513339389424834
 40
0.5734415730171468
 40
0.6135457343850694
 40
0.6334011694676119
 40
0.6506454842032863
 40
0.6856248549082289
 40
0.7036725457666663
 40
0.7294720548308501
 40
0.7625060300688742
 40
0.785723262258527
 40
0.8036583884583829
 40
0.8259257563547887
 40
0.8475393027001341
 40
0.8675471484760364
 40
0.8889251605873152
 40
0.8977743191910715
 40
0.9365302339551989
 40
0.959373738460879
 40
0.9803694005786119
 40
0.9885856380761463
 40
1.0
 40
1.0
 40
1.0
 40
1.0
 10
293.5140043363941
 20
-38.52296795466256
 10
293.1742834656644
 20
-38.45644671455698
 10
292.7462396384707
 20
-37.9559301098726
 10
292.1603900362616
 20
-37.35940171354487
 10
291.3455182754918
 20
-37.41231087703428
 10
290.7739384130533
 20
-37.91114287159655
 10
290.031789344922
 20
-37.99147187405911
 10
289.4826304727052
 20
-38.36514645046088
 10
288.953365563493
 20
-38.91925449515179
 10
288.4907680153431
 20
-39.67948722382977
 10
288.0067044605883
 20
-40.35566789558521
 10
288.0056398780456
 20
-41.0100172786375
 10
288.072851373873
 20
-41.55495568401328
 10
288.4185852763184
 20
-41.99412065954337
 10
288.8484304783944
 20
-42.12975315694034
 10
289.3006915310347
 20
-42.04896179196583
 10
289.7627497771753
 20
-42.11680197054713
 10
290.174904998479
 20
-41.97381492352356
 10
290.4883565642924
 20
-41.68217159184815
 10
290.9026755036346
 20
-41.85489714596356
 10
291.3594268595162
 20
-41.85322211565227
 10
291.6535735677537
 20
-41.50575608292072
 10
292.127515459232
 20
-41.35347542465852
 10
292.243082694204
 20
-40.92490544915918
 10
292.6038827317529
 20
-40.73315556545864
 10
292.9316925915813
 20
-40.99830022911627
 10
293.2632942933678
 20
-40.70888734269534
 10
293.3226317662317
 20
-40.35125103513592
 10
293.6173306819809
 20
-40.2218004600995
 10
293.7446021841268
 20
-39.85142286332389
 10
293.8152400253344
 20
-39.47068465830768
 10
293.9044048262367
 20
-39.02020187115151
 10
293.8513254819262
 20
-38.72000003044374
 10
293.691712398148
 20
-38.54411950199358
 10
293.5770889183701
 20
-38.53532063883992
 10
293.5140043363941
 20
-38.52296795466256
 97
        1
330
1290
 75
     0
 76
     1
 98
        1
 10
0.0
 20
0.0
  0
SPLINE
  5
1290
102
{ACAD_REACTORS
330
12E8
102
}
330
12A8
100
AcDbEntity
  8
FEATURES
 62
   250
100
AcDbSpline
210
0.0
220
0.0
230
1.0
 70
    11
 71
     3
 72
    40
 73
    36
 74
     0
 42
0.0000000001
 43
0.00000001
 40
0.0
 40
0.0
 40
0.0
 40
0.0
 40
0.0614682201282338
 40
0.1113171561515045
 40
0.1421307853913842
 40
0.1979921376129459
 40
0.2422874886802066
 40
0.2717859554295008
 40
0.3157447456810599
 40
0.3792387743809527
 40
0.4340633083267504
 40
0.4584919386232852
 40
0.4951809121548708
 40
0.5318560833258722
 40
0.5513339389424834
 40
0.5734415730171468
 40
0.6135457343850694
 40
0.6334011694676119
 40
0.6506454842032863
 40
0.6856248549082289
 40
0.7036725457666663
 40
0.7294720548308501
 40
0.7625060300688742
 40
0.785723262258527
 40
0.8036583884583829
 40
0.8259257563547887
 40
0.8475393027001341
 40
0.8675471484760364
 40
0.8889251605873152
 40
0.8977743191910715
 40
0.9365302339551989
 40
0.959373738460879
 40
0.9803694005786119
 40
0.9885856380761463
 40
1.0
 40
1.0
 40
1.0
 40
1.0
 10
293.5140043363941
 20
-38.52296795466256
 30
0.0
 10
293.1742834656644
 20
-38.45644671455698
 30
0.0
 10
292.7462396384707
 20
-37.9559301098726
 30
0.0
 10
292.1603900362616
 20
-37.35940171354487
 30
0.0
 10
291.3455182754918
 20
-37.41231087703428
 30
0.0
 10
290.7739384130533
 20
-37.91114287159655
 30
0.0
 10
290.031789344922
 20
-37.99147187405911
 30
0.0
 10
289.4826304727052
 20
-38.36514645046088
 30
0.0
 10
288.953365563493
 20
-38.91925449515179
 30
0.0
 10
288.4907680153431
 20
-39.67948722382977
 30
0.0
 10
288.0067044605883
 20
-40.35566789558521
 30
0.0
 10
288.0056398780456
 20
-41.0100172786375
 30
0.0
 10
288.072851373873
 20
-41.55495568401328
 30
0.0
 10
288.4185852763184
 20
-41.99412065954337
 30
0.0
 10
288.8484304783944
 20
-42.12975315694034
 30
0.0
 10
289.3006915310347
 20
-42.04896179196583
 30
0.0
 10
289.7627497771753
 20
-42.11680197054713
 30
0.0
 10
290.174904998479
 20
-41.97381492352356
 30
0.0
 10
290.4883565642924
 20
-41.68217159184815
 30
0.0
 10
290.9026755036346
 20
-41.85489714596356
 30
0.0
 10
291.3594268595162
 20
-41.85322211565227
 30
0.0
 10
291.6535735677537
 20
-41.50575608292072
 30
0.0
 10
292.127515459232
 20
-41.35347542465852
 30
0.0
 10
292.243082694204
 20
-40.92490544915918
 30
0.0
 10
292.6038827317529
 20
-40.73315556545864
 30
0.0
 10
292.9316925915813
 20
-40.99830022911627
 30
0.0
 10
293.2632942933678
 20
-40.70888734269534
 30
0.0
 10
293.3226317662317
 20
-40.35125103513592
 30
0.0
 10
293.6173306819809
 20
-40.2218004600995
 30
0.0
 10
293.7446021841268
 20
-39.85142286332389
 30
0.0
 10
293.8152400253344
 20
-39.47068465830768
 30
0.0
 10
293.9044048262367
 20
-39.02020187115151
 30
0.0
 10
293.8513254819262
 20
-38.72000003044374
 30
0.0
 10
293.691712398148
 20
-38.54411950199358
 30
0.0
 10
293.5770889183701
 20
-38.53532063883992
 30
0.0
 10
293.5140043363941
 20
-38.52296795466256
 30
0.0
  0
TEXT
  5
1293
330
12A8
100
AcDbEntity
  8
FEATURE_NUMBERS
 62
   250
100
AcDbText
 10
288.089903
 20
-46.71044
 30
0.0
 40
2.0
  1
F18
  7
STYLE-GARAMOND
 11
288.089903
 21
-44.71044
 31
0.0
100
AcDbText
 73
     3
  0
TEXT
  5
1294
330
12A8
100
AcDbEntity
  8
PHASEIII_UNITS
  6
DGN_STYLE_2
100
AcDbText
 10
320.104611
 20
-43.754203
 30
0.0
 40
3.0
  1
Other feature
  7
STYLE-GARAMOND
 11
320.104611
 21
-40.754203
 31
0.0
100
AcDbText
 73
     3
  0
ENDSEC
  0
SECTION
  2
OBJECTS
  0
DICTIONARY
  5
129C
330
0
100
AcDbDictionary
  3
ACAD_GROUP
350
12B8
  3
ACAD_LAYOUT
350
12EF
  3
ACAD_MLEADERSTYLE
350
14E7
  3
ACAD_MLINESTYLE
350
12A6
  3
ACAD_TABLESTYLE
350
12EE
  3
ACADDIM
350
12C8
  3
ACDBHEADERROUNDTRIPXREC
350
14C8
  3
DWGPROPS
350
14E8
  3
MICROSTATION
350
12CB
  0
DICTIONARY
  5
1298
330
1297
100
AcDbDictionary
280
     1
  3
ACAD_LAYERFILTERS
360
12C0
  3
ACAD_LAYERSTATES
360
1299
  0
DICTIONARY
  5
12E9
330
12A8
100
AcDbDictionary
280
     1
  3
ACAD_SORTENTS
360
12EA
  0
DICTIONARY
  5
12B8
102
{ACAD_REACTORS
330
129C
102
}
330
129C
100
AcDbDictionary
  0
DICTIONARY
  5
12EF
102
{ACAD_REACTORS
330
129C
102
}
330
129C
100
AcDbDictionary
  0
DICTIONARY
  5
14E7
102
{ACAD_REACTORS
330
129C
102
}
330
129C
100
AcDbDictionary
  0
DICTIONARY
  5
12A6
102
{ACAD_REACTORS
330
129C
102
}
330
129C
100
AcDbDictionary
  3
STANDARD
350
12A5
  0
DICTIONARY
  5
12EE
102
{ACAD_REACTORS
330
129C
102
}
330
129C
100
AcDbDictionary
  0
XRECORD
  5
12C8
102
{ACAD_REACTORS
330
129C
102
}
330
129C
100
AcDbXrecord
 90
   990106
  3
 
 60
     0
 61
     0
 62
     1
 63
     1
 64
     0
 65
     0
 66
     0
 67
     3
 68
     1
 69
     1
 70
     0
 71
     0
 72
     0
 40
0.0
170
     0
  0
DICTIONARY
  5
14C8
102
{ACAD_REACTORS
330
129C
102
}
330
129C
100
AcDbDictionary
  3
CEPSNTYPE
350
14D0
  3
DIMSTYLEDATA
350
14E6
  3
FINGERPRINTGUID
350
14D1
  3
HYPERLINKBASE
350
14CB
  3
INSUNITS
350
14CF
  3
LAYOUTDICT
350
14CD
  3
LWETCUNION
350
14CE
  3
PSVPSCALE
350
14D3
  3
PUCSBASE
350
14D6
  3
PUCSORGBACK
350
14DC
  3
PUCSORGBOTTOM
350
14D8
  3
PUCSORGFRONT
350
14DB
  3
PUCSORGLEFT
350
14D9
  3
PUCSORGRIGHT
350
14DA
  3
PUCSORGTOP
350
14D7
  3
PUCSORTHOREF
350
14D4
  3
PUCSORTHOVIEW
350
14D5
  3
STYLESHEET
350
14CC
  3
TSTACKALIGN
350
14C9
  3
TSTACKSIZE
350
14CA
  3
UCSBASE
350
14DF
  3
UCSORGBACK
350
14E5
  3
UCSORGBOTTOM
350
14E1
  3
UCSORGFRONT
350
14E4
  3
UCSORGLEFT
350
14E2
  3
UCSORGRIGHT
350
14E3
  3
UCSORGTOP
350
14E0
  3
UCSORTHOREF
350
14DD
  3
UCSORTHOVIEW
350
14DE
  3
VERSIONGUID
350
14D2
  0
XRECORD
  5
14E8
102
{ACAD_REACTORS
330
129C
102
}
330
129C
100
AcDbXrecord
  1
DWGPROPS COOKIE
  2

  3

  4
lcooper
  6

  7

  8
lcooper
  9

300
=
301
=
302
=
303
=
304
=
305
=
306
=
307
=
308
=
309
=
 40
0.0
 41
2455265.676257
 42
2455265.676357
  1

 90
        0
  0
DICTIONARY
  5
12CB
102
{ACAD_REACTORS
330
129C
102
}
330
129C
100
AcDbDictionary
  0
DICTIONARY
  5
12C0
102
{ACAD_REACTORS
330
1298
102
}
330
1298
100
AcDbDictionary
  0
DICTIONARY
  5
1299
102
{ACAD_REACTORS
330
1298
102
}
330
1298
100
AcDbDictionary
  0
SORTENTSTABLE
  5
12EA
102
{ACAD_REACTORS
330
12E9
102
}
330
12E9
100
AcDbSortentsTable
330
12A8
331
31C
  5
320
331
31D
  5
321
331
31E
  5
31C
331
320
  5
31D
331
321
  5
31E
331
407
  5
409
331
408
  5
407
331
409
  5
408
331
410
  5
413
331
411
  5
410
331
412
  5
411
331
413
  5
412
331
416
  5
418
331
418
  5
416
331
108A
  5
1096
331
108D
  5
1097
331
1090
  5
1098
331
1093
  5
108A
331
1095
  5
108D
331
1096
  5
1090
331
1097
  5
1093
331
1098
  5
1095
331
10D4
  5
11A4
331
10DD
  5
10D4
331
10E0
  5
10D7
331
10E3
  5
10DD
331
10E9
  5
10E3
331
10EC
  5
10E6
331
10EF
  5
10E9
331
10F2
  5
10EC
331
10F5
  5
10EF
331
10F8
  5
10F2
331
10FB
  5
10F5
331
10FE
  5
10F8
331
1104
  5
10FB
331
1107
  5
10FE
331
110A
  5
1104
331
110D
  5
1107
331
1110
  5
110A
331
1113
  5
110D
331
1116
  5
1110
331
1119
  5
1113
331
111C
  5
1116
331
111F
  5
1119
331
1122
  5
111C
331
1125
  5
111F
331
112B
  5
1125
331
112E
  5
1128
331
1131
  5
112B
331
1134
  5
112E
331
1137
  5
1131
331
113A
  5
1134
331
113D
  5
1137
331
1140
  5
113A
331
1143
  5
113D
331
1146
  5
1140
331
114C
  5
1146
331
114F
  5
1149
331
1152
  5
114C
331
1155
  5
114F
331
1158
  5
1152
331
115E
  5
1155
331
1161
  5
1158
331
1162
  5
115E
331
1163
  5
1161
331
1164
  5
1162
331
1165
  5
1163
331
1166
  5
1164
331
1167
  5
1165
331
1168
  5
1166
331
1169
  5
1167
331
116A
  5
1168
331
116C
  5
1169
331
116D
  5
116A
331
116E
  5
116C
331
116F
  5
116D
331
1170
  5
116E
331
1171
  5
116F
331
1175
  5
1170
331
1176
  5
1171
331
1177
  5
1175
331
1178
  5
1176
331
1179
  5
1177
331
117D
  5
1178
331
1180
  5
1179
331
1183
  5
117D
331
1186
  5
1180
331
1189
  5
1183
331
118C
  5
1186
331
118F
  5
1189
331
1192
  5
118C
331
1195
  5
118F
331
1198
  5
1192
331
119B
  5
1195
331
119E
  5
1198
331
11A1
  5
119B
331
11A4
  5
119E
331
1240
  5
1241
331
1241
  5
1240
331
1243
  5
1245
331
1244
  5
1243
331
1245
  5
1246
331
1246
  5
1244
  0
MLINESTYLE
  5
12A5
102
{ACAD_REACTORS
330
12A6
102
}
330
12A6
100
AcDbMlineStyle
  2
STANDARD
 70
     0
  3

 62
   256
 51
90.0
 52
90.0
 71
     2
 49
0.5
 62
   256
  6
BYLAYER
 49
-0.5
 62
   256
  6
BYLAYER
  0
XRECORD
  5
14D0
102
{ACAD_REACTORS
330
14C8
102
}
330
14C8
100
AcDbXrecord
 90
        0
  0
XRECORD
  5
14E6
102
{ACAD_REACTORS
330
14C8
102
}
330
14C8
100
AcDbXrecord
1000
DSTYLE
1002
{
1070
   171
 70
     4
1070
   143
 40
1.0
1070
   274
 70
     4
1070
   286
 70
    15
1070
   285
 70
    15
1070
    41
 40
3.0
1070
   289
 70
     1
1070
   342
340
12C2
1070
    43
 40
0.0
1070
    44
 40
1.5
1070
    42
 40
1.5
1070
   147
 40
1.5
1070
    77
 70
     1
1070
    73
 70
     0
1070
   279
 70
     2
1070
    74
 70
     0
1070
   283
 70
     0
1070
   340
340
12C1
1070
   140
 40
3.0
1070
   284
 70
    11
1070
    78
 70
    11
1002
}
  0
XRECORD
  5
14D1
102
{ACAD_REACTORS
330
14C8
102
}
330
14C8
100
AcDbXrecord
  1
{1D40A910-8C9C-44F1-B2BC-DDFA84D70DC8}
  0
XRECORD
  5
14CB
102
{ACAD_REACTORS
330
14C8
102
}
330
14C8
100
AcDbXrecord
  1

  0
XRECORD
  5
14CF
102
{ACAD_REACTORS
330
14C8
102
}
330
14C8
100
AcDbXrecord
 90
        0
  0
XRECORD
  5
14CD
102
{ACAD_REACTORS
330
14C8
102
}
330
14C8
100
AcDbXrecord
340
12EF
  0
XRECORD
  5
14CE
102
{ACAD_REACTORS
330
14C8
102
}
330
14C8
100
AcDbXrecord
 90
    10781
  0
XRECORD
  5
14D3
102
{ACAD_REACTORS
330
14C8
102
}
330
14C8
100
AcDbXrecord
 40
0.0
  0
XRECORD
  5
14D6
102
{ACAD_REACTORS
330
14C8
102
}
330
14C8
100
AcDbXrecord
340
0
  0
XRECORD
  5
14DC
102
{ACAD_REACTORS
330
14C8
102
}
330
14C8
100
AcDbXrecord
 10
0.0
 20
0.0
 30
0.0
  0
XRECORD
  5
14D8
102
{ACAD_REACTORS
330
14C8
102
}
330
14C8
100
AcDbXrecord
 10
0.0
 20
0.0
 30
0.0
  0
XRECORD
  5
14DB
102
{ACAD_REACTORS
330
14C8
102
}
330
14C8
100
AcDbXrecord
 10
0.0
 20
0.0
 30
0.0
  0
XRECORD
  5
14D9
102
{ACAD_REACTORS
330
14C8
102
}
330
14C8
100
AcDbXrecord
 10
0.0
 20
0.0
 30
0.0
  0
XRECORD
  5
14DA
102
{ACAD_REACTORS
330
14C8
102
}
330
14C8
100
AcDbXrecord
 10
0.0
 20
0.0
 30
0.0
  0
XRECORD
  5
14D7
102
{ACAD_REACTORS
330
14C8
102
}
330
14C8
100
AcDbXrecord
 10
0.0
 20
0.0
 30
0.0
  0
XRECORD
  5
14D4
102
{ACAD_REACTORS
330
14C8
102
}
330
14C8
100
AcDbXrecord
340
0
  0
XRECORD
  5
14D5
102
{ACAD_REACTORS
330
14C8
102
}
330
14C8
100
AcDbXrecord
 70
     0
  0
XRECORD
  5
14CC
102
{ACAD_REACTORS
330
14C8
102
}
330
14C8
100
AcDbXrecord
  1

  0
XRECORD
  5
14C9
102
{ACAD_REACTORS
330
14C8
102
}
330
14C8
100
AcDbXrecord
 90
        1
  0
XRECORD
  5
14CA
102
{ACAD_REACTORS
330
14C8
102
}
330
14C8
100
AcDbXrecord
 90
       70
  0
XRECORD
  5
14DF
102
{ACAD_REACTORS
330
14C8
102
}
330
14C8
100
AcDbXrecord
340
0
  0
XRECORD
  5
14E5
102
{ACAD_REACTORS
330
14C8
102
}
330
14C8
100
AcDbXrecord
 10
0.0
 20
0.0
 30
0.0
  0
XRECORD
  5
14E1
102
{ACAD_REACTORS
330
14C8
102
}
330
14C8
100
AcDbXrecord
 10
0.0
 20
0.0
 30
0.0
  0
XRECORD
  5
14E4
102
{ACAD_REACTORS
330
14C8
102
}
330
14C8
100
AcDbXrecord
 10
0.0
 20
0.0
 30
0.0
  0
XRECORD
  5
14E2
102
{ACAD_REACTORS
330
14C8
102
}
330
14C8
100
AcDbXrecord
 10
0.0
 20
0.0
 30
0.0
  0
XRECORD
  5
14E3
102
{ACAD_REACTORS
330
14C8
102
}
330
14C8
100
AcDbXrecord
 10
0.0
 20
0.0
 30
0.0
  0
XRECORD
  5
14E0
102
{ACAD_REACTORS
330
14C8
102
}
330
14C8
100
AcDbXrecord
 10
0.0
 20
0.0
 30
0.0
  0
XRECORD
  5
14DD
102
{ACAD_REACTORS
330
14C8
102
}
330
14C8
100
AcDbXrecord
340
0
  0
XRECORD
  5
14DE
102
{ACAD_REACTORS
330
14C8
102
}
330
14C8
100
AcDbXrecord
 70
     0
  0
XRECORD
  5
14D2
102
{ACAD_REACTORS
330
14C8
102
}
330
14C8
100
AcDbXrecord
  1
{FAEB1C32-E019-11D5-929B-00C0DF256EC4}
  0
ENDSEC
  0
EOF
