  0
SECTION
  2
HEADER
  9
$ACADVER
  1
AC1015
  9
$ACADMAINTVER
 70
     6
  9
$DWGCODEPAGE
  3
ANSI_1252
  9
$INSBASE
 10
0.0
 20
0.0
 30
0.0
  9
$EXTMIN
 10
-9349.531496
 20
-1604.822835
 30
0.0
  9
$EXTMAX
 10
6405.114173
 20
6010.633858
 30
0.0
  9
$LIMMIN
 10
-36469.582323
 20
-32794.46815
  9
$LIMMAX
 10
33525.165
 20
37200.279174
  9
$ORTHOMODE
 70
     0
  9
$REGENMODE
 70
     1
  9
$FILLMODE
 70
     1
  9
$QTEXTMODE
 70
     0
  9
$MIRRTEXT
 70
     1
  9
$LTSCALE
 40
1.0
  9
$ATTMODE
 70
     1
  9
$TEXTSIZE
 40
1.2192
  9
$TRACEWID
 40
0.05
  9
$TEXTSTYLE
  7
Standard
  9
$CLAYER
  8
Subfloor Pit
  9
$CELTYPE
  6
Continuous
  9
$CECOLOR
 62
     7
  9
$CELTSCALE
 40
1.0
  9
$DISPSILH
 70
     0
  9
$DIMSCALE
 40
1.0
  9
$DIMASZ
 40
1.2192
  9
$DIMEXO
 40
0.6096
  9
$DIMDLI
 40
0.0
  9
$DIMRND
 40
0.0
  9
$DIMDLE
 40
0.0
  9
$DIMEXE
 40
0.6096
  9
$DIMTP
 40
0.0
  9
$DIMTM
 40
0.0
  9
$DIMTXT
 40
1.2192
  9
$DIMCEN
 40
0.09
  9
$DIMTSZ
 40
0.0
  9
$DIMTOL
 70
     0
  9
$DIMLIM
 70
     0
  9
$DIMTIH
 70
     0
  9
$DIMTOH
 70
     0
  9
$DIMSE1
 70
     0
  9
$DIMSE2
 70
     0
  9
$DIMTAD
 70
     1
  9
$DIMZIN
 70
    11
  9
$DIMBLK
  1
TerminatorOpen_0.5
  9
$DIMASO
 70
     1
  9
$DIMSHO
 70
     1
  9
$DIMPOST
  1

  9
$DIMAPOST
  1

  9
$DIMALT
 70
     0
  9
$DIMALTD
 70
     4
  9
$DIMALTF
 40
1.0
  9
$DIMLFAC
 40
3.28084
  9
$DIMTOFL
 70
     0
  9
$DIMTVP
 40
0.0
  9
$DIMTIX
 70
     0
  9
$DIMSOXD
 70
     0
  9
$DIMSAH
 70
     0
  9
$DIMBLK1
  1

  9
$DIMBLK2
  1

  9
$DIMSTYLE
  2
Standard
  9
$DIMCLRD
 70
     0
  9
$DIMCLRE
 70
     0
  9
$DIMCLRT
 70
     0
  9
$DIMTFAC
 40
1.0
  9
$DIMGAP
 40
0.6096
  9
$DIMJUST
 70
     0
  9
$DIMSD1
 70
     0
  9
$DIMSD2
 70
     0
  9
$DIMTOLJ
 70
     0
  9
$DIMTZIN
 70
    11
  9
$DIMALTZ
 70
    15
  9
$DIMALTTZ
 70
    15
  9
$DIMUPT
 70
     0
  9
$DIMDEC
 70
     4
  9
$DIMTDEC
 70
     4
  9
$DIMALTU
 70
     2
  9
$DIMALTTD
 70
     4
  9
$DIMTXSTY
  7
Style-Garamond
  9
$DIMAUNIT
 70
     0
  9
$DIMADEC
 70
     4
  9
$DIMALTRND
 40
0.0
  9
$DIMAZIN
 70
     3
  9
$DIMDSEP
 70
    46
  9
$DIMATFIT
 70
     3
  9
$DIMFRAC
 70
     2
  9
$DIMLDRBLK
  1
TerminatorOpen_0.5
  9
$DIMLUNIT
 70
     2
  9
$DIMLWD
 70
    -2
  9
$DIMLWE
 70
    -2
  9
$DIMTMOVE
 70
     0
  9
$LUNITS
 70
     3
  9
$LUPREC
 70
     4
  9
$SKETCHINC
 40
0.1
  9
$FILLETRAD
 40
0.5
  9
$AUNITS
 70
     0
  9
$AUPREC
 70
     4
  9
$MENU
  1
.
  9
$ELEVATION
 40
0.0
  9
$PELEVATION
 40
0.0
  9
$THICKNESS
 40
0.0
  9
$LIMCHECK
 70
     0
  9
$CHAMFERA
 40
0.5
  9
$CHAMFERB
 40
0.5
  9
$CHAMFERC
 40
1.0
  9
$CHAMFERD
 40
0.0
  9
$SKPOLY
 70
     0
  9
$TDCREATE
 40
2451789.57913537
  9
$TDUCREATE
 40
2451789.745802037
  9
$TDUPDATE
 40
2455387.393474734
  9
$TDUUPDATE
 40
2455387.5601414
  9
$TDINDWG
 40
0.0004524769
  9
$TDUSRTIMER
 40
0.0000925926
  9
$USRTIMER
 70
     1
  9
$ANGBASE
 50
0.0
  9
$ANGDIR
 70
     0
  9
$PDMODE
 70
     0
  9
$PDSIZE
 40
0.0
  9
$PLINEWID
 40
0.0
  9
$SPLFRAME
 70
     0
  9
$SPLINETYPE
 70
     6
  9
$SPLINESEGS
 70
     8
  9
$HANDSEED
  5
13C7
  9
$SURFTAB1
 70
     6
  9
$SURFTAB2
 70
     6
  9
$SURFTYPE
 70
     6
  9
$SURFU
 70
     6
  9
$SURFV
 70
     6
  9
$UCSBASE
  2

  9
$UCSNAME
  2

  9
$UCSORG
 10
0.0
 20
0.0
 30
0.0
  9
$UCSXDIR
 10
1.0
 20
0.0
 30
0.0
  9
$UCSYDIR
 10
0.0
 20
1.0
 30
0.0
  9
$UCSORTHOREF
  2

  9
$UCSORTHOVIEW
 70
     0
  9
$UCSORGTOP
 10
0.0
 20
0.0
 30
0.0
  9
$UCSORGBOTTOM
 10
0.0
 20
0.0
 30
0.0
  9
$UCSORGLEFT
 10
0.0
 20
0.0
 30
0.0
  9
$UCSORGRIGHT
 10
0.0
 20
0.0
 30
0.0
  9
$UCSORGFRONT
 10
0.0
 20
0.0
 30
0.0
  9
$UCSORGBACK
 10
0.0
 20
0.0
 30
0.0
  9
$PUCSBASE
  2

  9
$PUCSNAME
  2

  9
$PUCSORG
 10
0.0
 20
0.0
 30
0.0
  9
$PUCSXDIR
 10
1.0
 20
0.0
 30
0.0
  9
$PUCSYDIR
 10
0.0
 20
1.0
 30
0.0
  9
$PUCSORTHOREF
  2

  9
$PUCSORTHOVIEW
 70
     0
  9
$PUCSORGTOP
 10
0.0
 20
0.0
 30
0.0
  9
$PUCSORGBOTTOM
 10
0.0
 20
0.0
 30
0.0
  9
$PUCSORGLEFT
 10
0.0
 20
0.0
 30
0.0
  9
$PUCSORGRIGHT
 10
0.0
 20
0.0
 30
0.0
  9
$PUCSORGFRONT
 10
0.0
 20
0.0
 30
0.0
  9
$PUCSORGBACK
 10
0.0
 20
0.0
 30
0.0
  9
$USERI1
 70
     0
  9
$USERI2
 70
     0
  9
$USERI3
 70
     0
  9
$USERI4
 70
     0
  9
$USERI5
 70
     0
  9
$USERR1
 40
0.0
  9
$USERR2
 40
0.0
  9
$USERR3
 40
0.0
  9
$USERR4
 40
0.0
  9
$USERR5
 40
0.0
  9
$WORLDVIEW
 70
     1
  9
$SHADEDGE
 70
     3
  9
$SHADEDIF
 70
    70
  9
$TILEMODE
 70
     1
  9
$MAXACTVP
 70
    64
  9
$PINSBASE
 10
0.0
 20
0.0
 30
0.0
  9
$PLIMCHECK
 70
     0
  9
$PEXTMIN
 10
1.000000E+20
 20
1.000000E+20
 30
1.000000E+20
  9
$PEXTMAX
 10
-1.000000E+20
 20
-1.000000E+20
 30
-1.000000E+20
  9
$PLIMMIN
 10
0.0
 20
0.0
  9
$PLIMMAX
 10
12.0
 20
9.0
  9
$UNITMODE
 70
     0
  9
$VISRETAIN
 70
     1
  9
$PLINEGEN
 70
     0
  9
$PSLTSCALE
 70
     0
  9
$TREEDEPTH
 70
  3020
  9
$CMLSTYLE
  2
Standard
  9
$CMLJUST
 70
     0
  9
$CMLSCALE
 40
1.0
  9
$PROXYGRAPHICS
 70
     1
  9
$MEASUREMENT
 70
     0
  9
$CELWEIGHT
370
     0
  9
$ENDCAPS
280
     0
  9
$JOINSTYLE
280
     0
  9
$LWDISPLAY
290
     1
  9
$INSUNITS
 70
     0
  9
$HYPERLINKBASE
  1

  9
$STYLESHEET
  1

  9
$XEDIT
290
     1
  9
$CEPSNTYPE
380
     0
  9
$PSTYLEMODE
290
     1
  9
$FINGERPRINTGUID
  2
{FDEAD576-A652-11D2-9A35-0060089B3A3F}
  9
$VERSIONGUID
  2
{A257D680-BC79-11D2-9A46-0060089B3A3F}
  9
$EXTNAMES
290
     1
  9
$PSVPSCALE
 40
0.0
  9
$OLESTARTUP
290
     0
  0
ENDSEC
  0
SECTION
  2
CLASSES
  0
CLASS
  1
ACDBDICTIONARYWDFLT
  2
AcDbDictionaryWithDefault
  3
ObjectDBX Classes
 90
        0
280
     0
281
     0
  0
CLASS
  1
IMAGE
  2
AcDbRasterImage
  3
ISM
 90
      127
280
     0
281
     1
  0
CLASS
  1
IMAGEDEF
  2
AcDbRasterImageDef
  3
ISM
 90
        0
280
     0
281
     0
  0
CLASS
  1
IMAGEDEF_REACTOR
  2
AcDbRasterImageDefReactor
  3
ISM
 90
        1
280
     0
281
     0
  0
CLASS
  1
ACDBPLACEHOLDER
  2
AcDbPlaceHolder
  3
ObjectDBX Classes
 90
        0
280
     0
281
     0
  0
CLASS
  1
LAYOUT
  2
AcDbLayout
  3
ObjectDBX Classes
 90
        0
280
     0
281
     0
  0
CLASS
  1
RASTERVARIABLES
  2
AcDbRasterVariables
  3
ISM
 90
        0
280
     0
281
     0
  0
ENDSEC
  0
SECTION
  2
TABLES
  0
TABLE
  2
VPORT
  5
486
330
0
100
AcDbSymbolTable
 70
     1
  0
VPORT
  5
4B
330
486
100
AcDbSymbolTableRecord
100
AcDbViewportTableRecord
  2
*ACTIVE
 70
     0
 10
0.0
 20
0.0
 11
1.0
 21
1.0
 12
2934.248374
 22
3168.122359
 13
0.0
 23
0.0
 14
3.937008
 24
3.937008
 15
3.937008
 25
3.937008
 16
0.0
 26
0.0
 36
1.0
 17
0.0
 27
0.0
 37
0.0
 40
6010.511869
 41
1.590299
 42
50.0
 43
0.0
 44
0.0
 50
0.0
 51
0.0
 71
     0
 72
   100
 73
     1
 74
     2
 75
     0
 76
     0
 77
     0
 78
     1
281
     0
 65
     1
110
0.0
120
0.0
130
0.0
111
1.0
121
0.0
131
0.0
112
0.0
122
1.0
132
0.0
 79
     0
146
0.0
  0
ENDTAB
  0
TABLE
  2
LTYPE
  5
482
330
0
100
AcDbSymbolTable
 70
     2
  0
LTYPE
  5
483
330
482
100
AcDbSymbolTableRecord
100
AcDbLinetypeTableRecord
  2
ByBlock
 70
     0
  3

 72
    65
 73
     0
 40
0.0
  0
LTYPE
  5
474
330
482
100
AcDbSymbolTableRecord
100
AcDbLinetypeTableRecord
  2
ByLayer
 70
     0
  3

 72
    65
 73
     0
 40
0.0
  0
LTYPE
  5
472
330
482
100
AcDbSymbolTableRecord
100
AcDbLinetypeTableRecord
  2
Continuous
 70
     0
  3
Solid line
 72
    65
 73
     0
 40
0.0
  0
LTYPE
  5
492
330
482
100
AcDbSymbolTableRecord
100
AcDbLinetypeTableRecord
  2
DGN Style 4
 70
     0
  3
Dgn Style 4
 72
    65
 73
     4
 40
21.906905
 49
10.946611
 74
     0
 49
-5.473305
 74
     0
 49
0.013683
 74
     0
 49
-5.473305
 74
     0
  0
ENDTAB
  0
TABLE
  2
LAYER
  5
480
330
0
100
AcDbSymbolTable
 70
    11
  0
LAYER
  5
470
330
480
100
AcDbSymbolTableRecord
100
AcDbLayerTableRecord
  2
0
 70
     0
 62
     7
  6
Continuous
370
    -3
390
471
  0
LAYER
  5
224
330
480
100
AcDbSymbolTableRecord
100
AcDbLayerTableRecord
  2
Gradall Areas
 70
     0
 62
     7
  6
Continuous
370
     0
390
471
  0
LAYER
  5
32A
330
480
100
AcDbSymbolTableRecord
100
AcDbLayerTableRecord
  2
STPs
 70
     0
 62
    -7
  6
Continuous
370
     0
390
471
  0
LAYER
  5
72
330
480
100
AcDbSymbolTableRecord
100
AcDbLayerTableRecord
  2
Posthole
 70
     0
 62
     7
  6
Continuous
370
     0
390
471
  0
LAYER
  5
73
330
480
100
AcDbSymbolTableRecord
100
AcDbLayerTableRecord
  2
Subfloor Pit
 70
     0
 62
    32
  6
Continuous
370
    30
390
471
  0
LAYER
  5
75
330
480
100
AcDbSymbolTableRecord
100
AcDbLayerTableRecord
  2
Quadrat Lines
 70
     0
 62
   178
  6
DGN Style 4
370
    13
390
471
  0
LAYER
  5
77
330
480
100
AcDbSymbolTableRecord
100
AcDbLayerTableRecord
  2
Key
 70
     0
 62
     7
  6
Continuous
370
     0
390
471
  0
LAYER
  5
78
330
480
100
AcDbSymbolTableRecord
100
AcDbLayerTableRecord
  2
Scale-North Arrow
 70
     0
 62
     7
  6
Continuous
370
     0
390
471
  0
LAYER
  5
7A
330
480
100
AcDbSymbolTableRecord
100
AcDbLayerTableRecord
  2
Quadrat Numbers
 70
     0
 62
     7
  6
Continuous
370
     0
390
471
  0
LAYER
  5
7C
330
480
100
AcDbSymbolTableRecord
100
AcDbLayerTableRecord
  2
Feature Numbers
 70
     0
 62
     7
  6
Continuous
370
     0
390
471
  0
LAYER
  5
1F4
330
480
100
AcDbSymbolTableRecord
100
AcDbLayerTableRecord
  2
Misc Features
 70
     0
 62
     7
  6
Continuous
370
     0
390
471
  0
ENDTAB
  0
TABLE
  2
STYLE
  5
481
330
0
100
AcDbSymbolTable
 70
     2
  0
STYLE
  5
164
330
481
100
AcDbSymbolTableRecord
100
AcDbTextStyleTableRecord
  2
Standard
 70
     0
 40
0.0
 41
1.0
 50
0.0
 71
     0
 42
1.2192
  3
txt.shx
  4

  0
STYLE
  5
497
330
481
100
AcDbSymbolTableRecord
100
AcDbTextStyleTableRecord
  2
Style-Garamond
 70
     0
 40
0.0
 41
1.0
 50
0.0
 71
     0
 42
0.2
  3
GARA.TTF
  4

1001
ACAD
1000
Garamond
1071
       23
  0
ENDTAB
  0
TABLE
  2
VIEW
  5
484
330
0
100
AcDbSymbolTable
 70
     0
  0
ENDTAB
  0
TABLE
  2
UCS
  5
485
330
0
100
AcDbSymbolTable
 70
     0
  0
ENDTAB
  0
TABLE
  2
APPID
  5
487
330
0
100
AcDbSymbolTable
 70
     6
  0
APPID
  5
48F
330
487
100
AcDbSymbolTableRecord
100
AcDbRegAppTableRecord
  2
ACAD
 70
     0
  0
APPID
  5
D20
330
487
100
AcDbSymbolTableRecord
100
AcDbRegAppTableRecord
  2
AVE_ENTITY_MATERIAL
 70
     0
  0
APPID
  5
D21
330
487
100
AcDbSymbolTableRecord
100
AcDbRegAppTableRecord
  2
AVE_MATERIAL
 70
     0
  0
APPID
  5
D22
330
487
100
AcDbSymbolTableRecord
100
AcDbRegAppTableRecord
  2
AVE_FINISH
 70
     0
  0
APPID
  5
D23
330
487
100
AcDbSymbolTableRecord
100
AcDbRegAppTableRecord
  2
AVE_GLOBAL
 70
     0
  0
APPID
  5
D24
330
487
100
AcDbSymbolTableRecord
100
AcDbRegAppTableRecord
  2
AVE_RENDER
 70
     0
  0
ENDTAB
  0
TABLE
  2
DIMSTYLE
  5
488
330
0
100
AcDbSymbolTable
 70
     1
100
AcDbDimStyleTable
  0
DIMSTYLE
105
475
330
488
100
AcDbSymbolTableRecord
100
AcDbDimStyleTableRecord
  2
Standard
 70
     0
 42
0.0625
147
0.09
340
164
  0
ENDTAB
  0
TABLE
  2
BLOCK_RECORD
  5
477
330
0
100
AcDbSymbolTable
 70
     2
  0
BLOCK_RECORD
  5
478
330
477
100
AcDbSymbolTableRecord
100
AcDbBlockTableRecord
  2
*Model_Space
340
47B
  0
BLOCK_RECORD
  5
47C
330
477
100
AcDbSymbolTableRecord
100
AcDbBlockTableRecord
  2
*Paper_Space
340
47F
  0
BLOCK_RECORD
  5
16D
330
477
100
AcDbSymbolTableRecord
100
AcDbBlockTableRecord
  2
STUCCO
340
0
  0
BLOCK_RECORD
  5
498
330
477
100
AcDbSymbolTableRecord
100
AcDbBlockTableRecord
  2
TerminatorOpen_0.5
340
0
  0
ENDTAB
  0
ENDSEC
  0
SECTION
  2
BLOCKS
  0
BLOCK
  5
479
330
478
100
AcDbEntity
  8
0
100
AcDbBlockBegin
  2
*Model_Space
 70
     0
 10
0.0
 20
0.0
 30
0.0
  3
*Model_Space
  1

  0
ENDBLK
  5
47A
330
478
100
AcDbEntity
  8
0
100
AcDbBlockEnd
  0
BLOCK
  5
47D
330
47C
100
AcDbEntity
 67
     1
  8
0
100
AcDbBlockBegin
  2
*Paper_Space
 70
     0
 10
0.0
 20
0.0
 30
0.0
  3
*Paper_Space
  1

  0
ENDBLK
  5
47E
330
47C
100
AcDbEntity
 67
     1
  8
0
100
AcDbBlockEnd
  0
BLOCK
  5
495
330
16D
100
AcDbEntity
  8
0
100
AcDbBlockBegin
  2
STUCCO
 70
     0
 10
0.0
 20
0.0
 30
0.0
  3
STUCCO
  1

  0
LINE
  5
16E
330
16D
100
AcDbEntity
  8
0
  6
Continuous
 62
     7
370
    13
100
AcDbLine
 10
0.0
 20
755.905512
 30
0.0
 11
0.755906
 21
755.0
 31
0.0
  0
LINE
  5
16F
330
16D
100
AcDbEntity
  8
0
  6
Continuous
 62
     7
370
    13
100
AcDbLine
 10
754.275591
 20
0.850394
 30
0.0
 11
755.905512
 21
0.0
 31
0.0
  0
LINE
  5
170
330
16D
100
AcDbEntity
  8
0
  6
Continuous
 62
     7
370
    13
100
AcDbLine
 10
51.161417
 20
472.248031
 30
0.0
 11
49.192913
 21
474.212598
 31
0.0
  0
LINE
  5
171
330
16D
100
AcDbEntity
  8
0
  6
Continuous
 62
     7
370
    13
100
AcDbLine
 10
80.688976
 20
334.775591
 30
0.0
 11
78.720472
 21
336.740157
 31
0.0
  0
LINE
  5
172
330
16D
100
AcDbEntity
  8
0
  6
Continuous
 62
     7
370
    13
100
AcDbLine
 10
43.287402
 20
97.145669
 30
0.0
 11
41.318898
 21
99.110236
 31
0.0
  0
LINE
  5
173
330
16D
100
AcDbEntity
  8
0
  6
Continuous
 62
     7
370
    13
100
AcDbLine
 10
31.476378
 20
36.26378
 30
0.0
 11
29.507874
 21
38.228346
 31
0.0
  0
LINE
  5
174
330
16D
100
AcDbEntity
  8
0
  6
Continuous
 62
     7
370
    13
100
AcDbLine
 10
120.055118
 20
20.555118
 30
0.0
 11
118.086614
 21
22.519685
 31
0.0
  0
LINE
  5
175
330
16D
100
AcDbEntity
  8
0
  6
Continuous
 62
     7
370
    13
100
AcDbLine
 10
265.712598
 20
42.153543
 30
0.0
 11
263.744094
 21
44.122047
 31
0.0
  0
LINE
  5
176
330
16D
100
AcDbEntity
  8
0
  6
Continuous
 62
     7
370
    13
100
AcDbLine
 10
407.437008
 20
73.57874
 30
0.0
 11
405.468504
 21
75.543307
 31
0.0
  0
LINE
  5
177
330
16D
100
AcDbEntity
  8
0
  6
Continuous
 62
     7
370
    13
100
AcDbLine
 10
68.877953
 20
405.476378
 30
0.0
 11
64.940945
 21
403.515748
 31
0.0
  0
LINE
  5
178
330
16D
100
AcDbEntity
  8
0
  6
Continuous
 62
     7
370
    13
100
AcDbLine
 10
43.287402
 20
311.208661
 30
0.0
 11
39.350394
 21
309.248031
 31
0.0
  0
LINE
  5
179
330
16D
100
AcDbEntity
  8
0
  6
Continuous
 62
     7
370
    13
100
AcDbLine
 10
368.070866
 20
24.484252
 30
0.0
 11
364.133858
 21
22.519685
 31
0.0
  0
LINE
  5
17A
330
16D
100
AcDbEntity
  8
0
  6
Continuous
 62
     7
370
    13
100
AcDbLine
 10
66.909449
 20
256.220472
 30
0.0
 11
64.940945
 21
258.185039
 31
0.0
  0
LINE
  5
17B
330
16D
100
AcDbEntity
  8
0
  6
Continuous
 62
     7
370
    13
100
AcDbLine
 10
88.562992
 20
55.905512
 30
0.0
 11
86.594488
 21
57.870079
 31
0.0
  0
LINE
  5
17C
330
16D
100
AcDbEntity
  8
0
  6
Continuous
 62
     7
370
    13
100
AcDbLine
 10
198.791339
 20
28.409449
 30
0.0
 11
196.822835
 21
30.374016
 31
0.0
  0
LINE
  5
17D
330
16D
100
AcDbEntity
  8
0
  6
Continuous
 62
     7
370
    13
100
AcDbLine
 10
454.681102
 20
28.409449
 30
0.0
 11
452.712598
 21
30.374016
 31
0.0
  0
LINE
  5
17E
330
16D
100
AcDbEntity
  8
0
  6
Continuous
 62
     7
370
    13
100
AcDbLine
 10
89.259843
 20
188.271654
 30
0.0
 11
90.574803
 21
192.200787
 31
0.0
  0
LINE
  5
17F
330
16D
100
AcDbEntity
  8
0
  6
Continuous
 62
     7
370
    13
100
AcDbLine
 10
177.188976
 20
115.165354
 30
0.0
 11
178.503937
 21
119.094488
 31
0.0
  0
LINE
  5
180
330
16D
100
AcDbEntity
  8
0
  6
Continuous
 62
     7
370
    13
100
AcDbLine
 10
52.625984
 20
542.838583
 30
0.0
 11
53.940945
 21
546.767717
 31
0.0
  0
LINE
  5
181
330
16D
100
AcDbEntity
  8
0
  6
Continuous
 62
     7
370
    13
100
AcDbLine
 10
127.728346
 20
648.84252
 30
0.0
 11
129.043307
 21
652.771654
 31
0.0
  0
LINE
  5
182
330
16D
100
AcDbEntity
  8
0
  6
Continuous
 62
     7
370
    13
100
AcDbLine
 10
50.791339
 20
689.051181
 30
0.0
 11
52.106299
 21
692.980315
 31
0.0
  0
LINE
  5
183
330
16D
100
AcDbEntity
  8
0
  6
Continuous
 62
     7
370
    13
100
AcDbLine
 10
274.275591
 20
681.740157
 30
0.0
 11
275.590551
 21
685.669291
 31
0.0
  0
LINE
  5
184
330
16D
100
AcDbEntity
  8
0
  6
Continuous
 62
     7
370
    13
100
AcDbLine
 10
408.0
 20
710.984252
 30
0.0
 11
409.314961
 21
714.913386
 31
0.0
  0
LINE
  5
185
330
16D
100
AcDbEntity
  8
0
  6
Continuous
 62
     7
370
    13
100
AcDbLine
 10
594.846457
 20
637.874016
 30
0.0
 11
596.161417
 21
641.80315
 31
0.0
  0
LINE
  5
186
330
16D
100
AcDbEntity
  8
0
  6
Continuous
 62
     7
370
    13
100
AcDbLine
 10
679.114173
 20
657.980315
 30
0.0
 11
680.429134
 21
661.909449
 31
0.0
  0
LINE
  5
187
330
16D
100
AcDbEntity
  8
0
  6
Continuous
 62
     7
370
    13
100
AcDbLine
 10
647.972441
 20
522.732283
 30
0.0
 11
649.287402
 21
526.661417
 31
0.0
  0
LINE
  5
188
330
16D
100
AcDbEntity
  8
0
  6
Continuous
 62
     7
370
    13
100
AcDbLine
 10
671.783465
 20
407.590551
 30
0.0
 11
673.098425
 21
411.519685
 31
0.0
  0
LINE
  5
189
330
16D
100
AcDbEntity
  8
0
  6
Continuous
 62
     7
370
    13
100
AcDbLine
 10
605.838583
 20
294.275591
 30
0.0
 11
607.153543
 21
298.204724
 31
0.0
  0
LINE
  5
18A
330
16D
100
AcDbEntity
  8
0
  6
Continuous
 62
     7
370
    13
100
AcDbLine
 10
680.944882
 20
193.751969
 30
0.0
 11
682.259843
 21
197.681102
 31
0.0
  0
LINE
  5
18B
330
16D
100
AcDbEntity
  8
0
  6
Continuous
 62
     7
370
    13
100
AcDbLine
 10
624.15748
 20
111.507874
 30
0.0
 11
625.472441
 21
115.437008
 31
0.0
  0
LINE
  5
18C
330
16D
100
AcDbEntity
  8
0
  6
Continuous
 62
     7
370
    13
100
AcDbLine
 10
651.633858
 20
54.850394
 30
0.0
 11
652.948819
 21
58.779528
 31
0.0
  0
LINE
  5
18D
330
16D
100
AcDbEntity
  8
0
  6
Continuous
 62
     7
370
    13
100
AcDbLine
 10
587.519685
 20
27.437008
 30
0.0
 11
588.834646
 21
31.366142
 31
0.0
  0
LINE
  5
18E
330
16D
100
AcDbEntity
  8
0
  6
Continuous
 62
     7
370
    13
100
AcDbLine
 10
307.248031
 20
199.23622
 30
0.0
 11
308.562992
 21
203.165354
 31
0.0
  0
LINE
  5
18F
330
16D
100
AcDbEntity
  8
0
  6
Continuous
 62
     7
370
    13
100
AcDbLine
 10
210.161417
 20
341.795276
 30
0.0
 11
211.476378
 21
345.724409
 31
0.0
  0
LINE
  5
190
330
16D
100
AcDbEntity
  8
0
  6
Continuous
 62
     7
370
    13
100
AcDbLine
 10
375.027559
 20
517.251969
 30
0.0
 11
376.34252
 21
521.181102
 31
0.0
  0
LINE
  5
191
330
16D
100
AcDbEntity
  8
0
  6
Continuous
 62
     7
370
    13
100
AcDbLine
 10
541.724409
 20
484.350394
 30
0.0
 11
543.03937
 21
488.279528
 31
0.0
  0
LINE
  5
192
330
16D
100
AcDbEntity
  8
0
  6
Continuous
 62
     7
370
    13
100
AcDbLine
 10
532.566929
 20
371.035433
 30
0.0
 11
533.88189
 21
374.964567
 31
0.0
  0
LINE
  5
193
330
16D
100
AcDbEntity
  8
0
  6
Continuous
 62
     7
370
    13
100
AcDbLine
 10
362.204724
 20
327.173228
 30
0.0
 11
363.519685
 21
331.102362
 31
0.0
  0
LINE
  5
194
330
16D
100
AcDbEntity
  8
0
  6
Continuous
 62
     7
370
    13
100
AcDbLine
 10
433.645669
 20
241.271654
 30
0.0
 11
434.96063
 21
245.200787
 31
0.0
  0
LINE
  5
195
330
16D
100
AcDbEntity
  8
0
  6
Continuous
 62
     7
370
    13
100
AcDbLine
 10
484.937008
 20
199.23622
 30
0.0
 11
486.251969
 21
203.165354
 31
0.0
  0
LINE
  5
196
330
16D
100
AcDbEntity
  8
0
  6
Continuous
 62
     7
370
    13
100
AcDbLine
 10
246.799213
 20
482.523622
 30
0.0
 11
248.114173
 21
486.452756
 31
0.0
  0
LINE
  5
197
330
16D
100
AcDbEntity
  8
0
  6
Continuous
 62
     7
370
    13
100
AcDbLine
 10
199.173228
 20
572.07874
 30
0.0
 11
200.488189
 21
576.007874
 31
0.0
  0
LINE
  5
198
330
16D
100
AcDbEntity
  8
0
  6
Continuous
 62
     7
370
    13
100
AcDbLine
 10
530.035433
 20
81.492126
 30
0.0
 11
528.066929
 21
83.456693
 31
0.0
  0
LINE
  5
199
330
16D
100
AcDbEntity
  8
0
  6
Continuous
 62
     7
370
    13
100
AcDbLine
 10
696.732283
 20
139.980315
 30
0.0
 11
694.76378
 21
141.944882
 31
0.0
  0
LINE
  5
19A
330
16D
100
AcDbEntity
  8
0
  6
Continuous
 62
     7
370
    13
100
AcDbLine
 10
506.224409
 20
289.846457
 30
0.0
 11
504.255906
 21
291.811024
 31
0.0
  0
LINE
  5
19B
330
16D
100
AcDbEntity
  8
0
  6
Continuous
 62
     7
370
    13
100
AcDbLine
 10
691.240157
 20
344.677165
 30
0.0
 11
689.271654
 21
346.641732
 31
0.0
  0
LINE
  5
19C
330
16D
100
AcDbEntity
  8
0
  6
Continuous
 62
     7
370
    13
100
AcDbLine
 10
436.614173
 20
434.232283
 30
0.0
 11
434.645669
 21
436.19685
 31
0.0
  0
LINE
  5
19D
330
16D
100
AcDbEntity
  8
0
  6
Continuous
 62
     7
370
    13
100
AcDbLine
 10
665.594488
 20
472.614173
 30
0.0
 11
663.625984
 21
474.57874
 31
0.0
  0
LINE
  5
19E
330
16D
100
AcDbEntity
  8
0
  6
Continuous
 62
     7
370
    13
100
AcDbLine
 10
489.73622
 20
596.893701
 30
0.0
 11
487.767717
 21
598.858268
 31
0.0
  0
LINE
  5
19F
330
16D
100
AcDbEntity
  8
0
  6
Continuous
 62
     7
370
    13
100
AcDbLine
 10
586.822835
 20
697.417323
 30
0.0
 11
584.854331
 21
699.38189
 31
0.0
  0
LINE
  5
1A0
330
16D
100
AcDbEntity
  8
0
  6
Continuous
 62
     7
370
    13
100
AcDbLine
 10
313.88189
 20
666.346457
 30
0.0
 11
311.913386
 21
668.311024
 31
0.0
  0
LINE
  5
1A1
330
16D
100
AcDbEntity
  8
0
  6
Continuous
 62
     7
370
    13
100
AcDbLine
 10
363.338583
 20
606.031496
 30
0.0
 11
361.370079
 21
607.996063
 31
0.0
  0
LINE
  5
1A2
330
16D
100
AcDbEntity
  8
0
  6
Continuous
 62
     7
370
    13
100
AcDbLine
 10
158.173228
 20
702.897638
 30
0.0
 11
156.204724
 21
704.862205
 31
0.0
  0
LINE
  5
1A3
330
16D
100
AcDbEntity
  8
0
  6
Continuous
 62
     7
370
    13
100
AcDbLine
 10
143.519685
 20
591.413386
 30
0.0
 11
141.551181
 21
593.377953
 31
0.0
  0
LINE
  5
1A4
330
16D
100
AcDbEntity
  8
0
  6
Continuous
 62
     7
370
    13
100
AcDbLine
 10
72.07874
 20
602.377953
 30
0.0
 11
70.110236
 21
604.34252
 31
0.0
  0
LINE
  5
1A5
330
16D
100
AcDbEntity
  8
0
  6
Continuous
 62
     7
370
    13
100
AcDbLine
 10
141.688976
 20
496.374016
 30
0.0
 11
139.720472
 21
498.338583
 31
0.0
  0
LINE
  5
1A6
330
16D
100
AcDbEntity
  8
0
  6
Continuous
 62
     7
370
    13
100
AcDbLine
 10
295.562992
 20
415.956693
 30
0.0
 11
293.594488
 21
417.92126
 31
0.0
  0
LINE
  5
1A7
330
16D
100
AcDbEntity
  8
0
  6
Continuous
 62
     7
370
    13
100
AcDbLine
 10
158.173228
 20
421.440945
 30
0.0
 11
156.204724
 21
423.405512
 31
0.0
  0
LINE
  5
1A8
330
16D
100
AcDbEntity
  8
0
  6
Continuous
 62
     7
370
    13
100
AcDbLine
 10
277.244094
 20
551.204724
 30
0.0
 11
275.275591
 21
553.169291
 31
0.0
  0
LINE
  5
1A9
330
16D
100
AcDbEntity
  8
0
  6
Continuous
 62
     7
370
    13
100
AcDbLine
 10
200.307087
 20
253.295276
 30
0.0
 11
198.338583
 21
255.259843
 31
0.0
  0
LINE
  5
1AA
330
16D
100
AcDbEntity
  8
0
  6
Continuous
 62
     7
370
    13
100
AcDbLine
 10
291.125984
 20
151.440945
 30
0.0
 11
287.074803
 21
150.562992
 31
0.0
  0
LINE
  5
1AB
330
16D
100
AcDbEntity
  8
0
  6
Continuous
 62
     7
370
    13
100
AcDbLine
 10
705.11811
 20
253.787402
 30
0.0
 11
701.066929
 21
252.909449
 31
0.0
  0
LINE
  5
1AC
330
16D
100
AcDbEntity
  8
0
  6
Continuous
 62
     7
370
    13
100
AcDbLine
 10
714.279528
 20
540.732283
 30
0.0
 11
710.228346
 21
539.854331
 31
0.0
  0
LINE
  5
1AD
330
16D
100
AcDbEntity
  8
0
  6
Continuous
 62
     7
370
    13
100
AcDbLine
 10
598.874016
 20
412.795276
 30
0.0
 11
594.822835
 21
411.917323
 31
0.0
  0
LINE
  5
1AE
330
16D
100
AcDbEntity
  8
0
  6
Continuous
 62
     7
370
    13
100
AcDbLine
 10
278.30315
 20
293.996063
 30
0.0
 11
274.251969
 21
293.11811
 31
0.0
  0
LINE
  5
1AF
330
16D
100
AcDbEntity
  8
0
  6
Continuous
 62
     7
370
    13
100
AcDbLine
 10
91.452756
 20
118.543307
 30
0.0
 11
87.401575
 21
117.665354
 31
0.0
  0
LINE
  5
1B0
330
16D
100
AcDbEntity
  8
0
  6
Continuous
 62
     7
370
    13
100
AcDbLine
 10
232.503937
 20
442.03937
 30
0.0
 11
228.452756
 21
441.161417
 31
0.0
  0
LINE
  5
1B1
330
16D
100
AcDbEntity
  8
0
  6
Continuous
 62
     7
370
    13
100
AcDbLine
 10
569.562992
 20
568.145669
 30
0.0
 11
565.511811
 21
567.267717
 31
0.0
  0
LINE
  5
1B2
330
16D
100
AcDbEntity
  8
0
  6
Continuous
 62
     7
370
    13
100
AcDbLine
 10
710.614173
 20
626.633858
 30
0.0
 11
706.562992
 21
625.755906
 31
0.0
  0
LINE
  5
1B3
330
16D
100
AcDbEntity
  8
0
  6
Continuous
 62
     7
370
    13
100
AcDbLine
 10
505.448819
 20
714.362205
 30
0.0
 11
501.397638
 21
713.484252
 31
0.0
  0
LINE
  5
1B4
330
16D
100
AcDbEntity
  8
0
  6
Continuous
 62
     7
370
    13
100
AcDbLine
 10
435.838583
 20
635.771654
 30
0.0
 11
431.787402
 21
634.893701
 31
0.0
  0
LINE
  5
1B5
330
16D
100
AcDbEntity
  8
0
  6
Continuous
 62
     7
370
    13
100
AcDbLine
 10
463.314961
 20
520.629921
 30
0.0
 11
459.26378
 21
519.751969
 31
0.0
  0
LINE
  5
1B6
330
16D
100
AcDbEntity
  8
0
  6
Continuous
 62
     7
370
    13
100
AcDbLine
 10
305.779528
 20
98.437008
 30
0.0
 11
301.728346
 21
97.559055
 31
0.0
  0
LINE
  5
1B7
330
16D
100
AcDbEntity
  8
0
  6
Continuous
 62
     7
370
    13
100
AcDbLine
 10
439.503937
 20
147.783465
 30
0.0
 11
435.452756
 21
146.905512
 31
0.0
  0
LINE
  5
1B8
330
16D
100
AcDbEntity
  8
0
  6
Continuous
 62
     7
370
    13
100
AcDbLine
 10
611.69685
 20
184.338583
 30
0.0
 11
607.645669
 21
183.46063
 31
0.0
  0
LINE
  5
1B9
330
16D
100
AcDbEntity
  8
0
  6
Continuous
 62
     7
370
    13
100
AcDbLine
 10
712.153543
 20
452.055118
 30
0.0
 11
713.468504
 21
455.984252
 31
0.0
  0
LINE
  5
1BA
330
16D
100
AcDbEntity
  8
0
  6
Continuous
 62
     7
370
    13
100
AcDbLine
 10
726.807087
 20
210.80315
 30
0.0
 11
728.122047
 21
214.732283
 31
0.0
  0
LINE
  5
1BB
330
16D
100
AcDbEntity
  8
0
  6
Continuous
 62
     7
370
    13
100
AcDbLine
 10
715.818898
 20
75.559055
 30
0.0
 11
717.133858
 21
79.488189
 31
0.0
  0
LINE
  5
1BC
330
16D
100
AcDbEntity
  8
0
  6
Continuous
 62
     7
370
    13
100
AcDbLine
 10
96.65748
 20
729.862205
 30
0.0
 11
97.972441
 21
733.791339
 31
0.0
  0
LINE
  5
1BD
330
16D
100
AcDbEntity
  8
0
  6
Continuous
 62
     7
370
    13
100
AcDbLine
 10
206.566929
 20
733.515748
 30
0.0
 11
207.88189
 21
737.444882
 31
0.0
  0
LINE
  5
1BE
330
16D
100
AcDbEntity
  8
0
  6
Continuous
 62
     7
370
    13
100
AcDbLine
 10
349.448819
 20
715.240157
 30
0.0
 11
350.76378
 21
719.169291
 31
0.0
  0
LINE
  5
1BF
330
16D
100
AcDbEntity
  8
0
  6
Continuous
 62
     7
370
    13
100
AcDbLine
 10
642.543307
 20
740.826772
 30
0.0
 11
643.858268
 21
744.755906
 31
0.0
  0
LINE
  5
1C0
330
16D
100
AcDbEntity
  8
0
  6
Continuous
 62
     7
370
    13
100
AcDbLine
 10
730.472441
 20
722.551181
 30
0.0
 11
731.787402
 21
726.480315
 31
0.0
  0
LINE
  5
1C1
330
16D
100
AcDbEntity
  8
0
  6
Continuous
 62
     7
370
    13
100
AcDbLine
 10
737.799213
 20
689.653543
 30
0.0
 11
739.114173
 21
693.582677
 31
0.0
  0
ENDBLK
  5
496
330
16D
100
AcDbEntity
  8
0
100
AcDbBlockEnd
  0
BLOCK
  5
49C
330
498
100
AcDbEntity
  8
0
100
AcDbBlockBegin
  2
TerminatorOpen_0.5
 70
     0
 10
0.0
 20
0.0
 30
0.0
  3
TerminatorOpen_0.5
  1

  0
LINE
  5
499
330
498
100
AcDbEntity
  8
0
  6
ByBlock
 62
     0
370
    -2
100
AcDbLine
 10
0.0
 20
0.0
 30
0.0
 11
-1.0
 21
0.0
 31
0.0
  0
LINE
  5
49A
330
498
100
AcDbEntity
  8
0
  6
ByBlock
 62
     0
370
    -2
100
AcDbLine
 10
0.0
 20
0.0
 30
0.0
 11
-1.0
 21
0.25
 31
0.0
  0
LINE
  5
49B
330
498
100
AcDbEntity
  8
0
  6
ByBlock
 62
     0
370
    -2
100
AcDbLine
 10
0.0
 20
0.0
 30
0.0
 11
-1.0
 21
-0.25
 31
0.0
  0
ENDBLK
  5
49D
330
498
100
AcDbEntity
  8
0
100
AcDbBlockEnd
  0
ENDSEC
  0
SECTION
  2
ENTITIES
  0
IMAGE
  5
F0
330
478
100
AcDbEntity
  8
0
 62
     7
 92
        8
310
0800000000000000
100
AcDbRasterImage
 90
        0
 10
2674.56
 20
2821.2
 30
0.0
 11
0.8389211007152568
 21
-0.005117419884174989
 31
0.0
 12
0.005117419884174987
 22
0.8389211007152566
 32
0.0
 13
1306.0
 23
868.0
340
4A0
 70
     6
280
     0
281
    50
282
    50
283
     0
360
4A1
 71
     1
 91
        2
 14
-0.5
 24
-0.5
 14
1305.5
 24
867.5
  0
IMAGE
  5
446
330
478
100
AcDbEntity
  8
0
 62
     7
 92
        8
310
0800000000000000
100
AcDbRasterImage
 90
        0
 10
1168.960168
 20
-748.879478
 30
0.0
 11
3.165632462369246
 21
-0.0109139689778411
 31
0.0
 12
0.0109139689778411
 22
3.165632462369239
 32
0.0
 13
1275.0
 23
1753.0
340
4A2
 70
     6
280
     0
281
    50
282
    50
283
     0
360
4A3
 71
     1
 91
        2
 14
-0.5
 24
-0.5
 14
1274.5
 24
1752.5
  0
LWPOLYLINE
  5
92
330
478
100
AcDbEntity
  8
Quadrat Lines
  6
DGN Style 4
 62
   178
370
     0
100
AcDbPolyline
 90
        4
 70
   129
 43
0.0
 10
2848.131504
 20
3587.254496
 10
2908.131504
 20
3587.254496
 10
2908.131504
 20
3527.254496
 10
2848.131504
 20
3527.254496
  0
LWPOLYLINE
  5
93
330
478
100
AcDbEntity
  8
Quadrat Lines
  6
DGN Style 4
 62
   178
370
     0
100
AcDbPolyline
 90
        4
 70
   129
 43
0.0
 10
2908.131504
 20
3587.254496
 10
2968.131504
 20
3587.254496
 10
2968.131504
 20
3527.254496
 10
2908.131504
 20
3527.254496
  0
LWPOLYLINE
  5
95
330
478
100
AcDbEntity
  8
Quadrat Lines
  6
DGN Style 4
 62
   178
370
     0
100
AcDbPolyline
 90
        4
 70
   129
 43
0.0
 10
2908.131504
 20
3527.254496
 10
2968.131504
 20
3527.254496
 10
2968.131504
 20
3467.254496
 10
2908.131504
 20
3467.254496
  0
LWPOLYLINE
  5
96
330
478
100
AcDbEntity
  8
Quadrat Lines
  6
DGN Style 4
 62
   178
370
     0
100
AcDbPolyline
 90
        4
 70
   129
 43
0.0
 10
2848.131504
 20
3527.254496
 10
2908.131504
 20
3527.254496
 10
2908.131504
 20
3467.254496
 10
2848.131504
 20
3467.254496
  0
LWPOLYLINE
  5
97
330
478
100
AcDbEntity
  8
Quadrat Lines
  6
DGN Style 4
 62
   178
370
     0
100
AcDbPolyline
 90
        4
 70
   129
 43
0.0
 10
2788.131504
 20
3527.254496
 10
2848.131504
 20
3527.254496
 10
2848.131504
 20
3467.254496
 10
2788.131504
 20
3467.254496
  0
LWPOLYLINE
  5
98
330
478
100
AcDbEntity
  8
Quadrat Lines
  6
DGN Style 4
 62
   178
370
     0
100
AcDbPolyline
 90
        4
 70
   129
 43
0.0
 10
2968.131504
 20
3467.254496
 10
3028.131504
 20
3467.254496
 10
3028.131504
 20
3407.254496
 10
2968.131504
 20
3407.254496
  0
LWPOLYLINE
  5
99
330
478
100
AcDbEntity
  8
Quadrat Lines
  6
DGN Style 4
 62
   178
370
     0
100
AcDbPolyline
 90
        4
 70
   129
 43
0.0
 10
2543.845583
 20
3532.355016
 10
2603.845583
 20
3532.355016
 10
2603.845583
 20
3472.355016
 10
2543.845583
 20
3472.355016
  0
LWPOLYLINE
  5
9A
330
478
100
AcDbEntity
  8
Quadrat Lines
  6
DGN Style 4
 62
   178
370
     0
100
AcDbPolyline
 90
        4
 70
   129
 43
0.0
 10
2543.845583
 20
3826.164489
 10
2603.845583
 20
3826.164489
 10
2603.845583
 20
3766.164489
 10
2543.845583
 20
3766.164489
  0
LWPOLYLINE
  5
9B
330
478
100
AcDbEntity
  8
Quadrat Lines
  6
DGN Style 4
 62
   178
370
     0
100
AcDbPolyline
 90
        4
 70
   129
 43
0.0
 10
3458.059608
 20
3829.947443
 10
3518.059608
 20
3829.947443
 10
3518.059608
 20
3769.947443
 10
3458.059608
 20
3769.947443
  0
LWPOLYLINE
  5
9C
330
478
100
AcDbEntity
  8
Quadrat Lines
  6
DGN Style 4
 62
   178
370
     0
100
AcDbPolyline
 90
        4
 70
   129
 43
0.0
 10
3761.95696
 20
3829.947443
 10
3821.95696
 20
3829.947443
 10
3821.95696
 20
3769.947443
 10
3761.95696
 20
3769.947443
  0
LWPOLYLINE
  5
9D
330
478
100
AcDbEntity
  8
Quadrat Lines
  6
DGN Style 4
 62
   178
370
     0
100
AcDbPolyline
 90
        4
 70
   129
 43
0.0
 10
3463.103548
 20
3534.876986
 10
3523.103548
 20
3534.876986
 10
3523.103548
 20
3474.876986
 10
3463.103548
 20
3474.876986
  0
LWPOLYLINE
  5
9E
330
478
100
AcDbEntity
  8
Quadrat Lines
  6
DGN Style 4
 62
   178
370
     0
100
AcDbPolyline
 90
        4
 70
   129
 43
0.0
 10
3156.684226
 20
3537.398955
 10
3216.684226
 20
3537.398955
 10
3216.684226
 20
3477.398955
 10
3156.684226
 20
3477.398955
  0
LWPOLYLINE
  5
9F
330
478
100
AcDbEntity
  8
Quadrat Lines
  6
DGN Style 4
 62
   178
370
     0
100
AcDbPolyline
 90
        4
 70
   129
 43
0.0
 10
3152.901272
 20
3233.501603
 10
3212.901272
 20
3233.501603
 10
3212.901272
 20
3173.501603
 10
3152.901272
 20
3173.501603
  0
LWPOLYLINE
  5
A0
330
478
100
AcDbEntity
  8
Quadrat Lines
  6
DGN Style 4
 62
   178
370
     0
100
AcDbPolyline
 90
        4
 70
   129
 43
0.0
 10
2851.525889
 20
3233.501603
 10
2911.525889
 20
3233.501603
 10
2911.525889
 20
3173.501603
 10
2851.525889
 20
3173.501603
  0
LWPOLYLINE
  5
A1
330
478
100
AcDbEntity
  8
Quadrat Lines
  6
DGN Style 4
 62
   178
370
     0
100
AcDbPolyline
 90
        4
 70
   129
 43
0.0
 10
2546.367553
 20
3234.762588
 10
2606.367553
 20
3234.762588
 10
2606.367553
 20
3174.762588
 10
2546.367553
 20
3174.762588
  0
LWPOLYLINE
  5
A2
330
478
100
AcDbEntity
  8
Quadrat Lines
  6
DGN Style 4
 62
   178
370
     0
100
AcDbPolyline
 90
        4
 70
   129
 43
0.0
 10
2239.948231
 20
3233.501603
 10
2299.948231
 20
3233.501603
 10
2299.948231
 20
3173.501603
 10
2239.948231
 20
3173.501603
  0
LWPOLYLINE
  5
A3
330
478
100
AcDbEntity
  8
Quadrat Lines
  6
DGN Style 4
 62
   178
370
     0
100
AcDbPolyline
 90
        4
 70
   129
 43
0.0
 10
2239.948231
 20
2933.387206
 10
2299.948231
 20
2933.387206
 10
2299.948231
 20
2873.387206
 10
2239.948231
 20
2873.387206
  0
LWPOLYLINE
  5
A4
330
478
100
AcDbEntity
  8
Quadrat Lines
  6
DGN Style 4
 62
   178
370
     0
100
AcDbPolyline
 90
        4
 70
   129
 43
0.0
 10
1940.464326
 20
3233.501603
 10
2000.464326
 20
3233.501603
 10
2000.464326
 20
3173.501603
 10
1940.464326
 20
3173.501603
  0
LWPOLYLINE
  5
A5
330
478
100
AcDbEntity
  8
Quadrat Lines
  6
DGN Style 4
 62
   178
370
     0
100
AcDbPolyline
 90
        4
 70
   129
 43
0.0
 10
1956.758327
 20
2898.79469
 10
2016.758327
 20
2898.79469
 10
2016.758327
 20
2838.79469
 10
1956.758327
 20
2838.79469
  0
LWPOLYLINE
  5
A6
330
478
100
AcDbEntity
  8
Quadrat Lines
  6
DGN Style 4
 62
   178
370
     0
100
AcDbPolyline
 90
        4
 70
   129
 43
0.0
 10
3464.364533
 20
2352.176403
 10
3524.364533
 20
2352.176403
 10
3524.364533
 20
2292.176403
 10
3464.364533
 20
2292.176403
  0
LWPOLYLINE
  5
A7
330
478
100
AcDbEntity
  8
Quadrat Lines
  6
DGN Style 4
 62
   178
370
     0
100
AcDbPolyline
 90
        4
 70
   129
 43
0.0
 10
3157.629965
 20
2050.643398
 10
3217.629965
 20
2050.643398
 10
3217.629965
 20
1990.643398
 10
3157.629965
 20
1990.643398
  0
LWPOLYLINE
  5
A8
330
478
100
AcDbEntity
  8
Quadrat Lines
  6
DGN Style 4
 62
   178
370
     0
100
AcDbPolyline
 90
        4
 70
   129
 43
0.0
 10
2849.319166
 20
1103.643766
 10
2909.319166
 20
1103.643766
 10
2909.319166
 20
1043.643766
 10
2849.319166
 20
1043.643766
  0
SPLINE
  5
C4
330
478
100
AcDbEntity
  8
Gradall Areas
  6
Continuous
 62
     7
370
     0
100
AcDbSpline
210
0.0
220
0.0
230
1.0
 70
    11
 71
     3
 72
    67
 73
    63
 74
     0
 42
0.0000000001
 43
0.00000001
 40
0.0
 40
0.0
 40
0.0
 40
0.0
 40
0.0166666666666667
 40
0.0333333333333333
 40
0.05
 40
0.0666666666666667
 40
0.0833333333333333
 40
0.1
 40
0.1166666666666667
 40
0.1333333333333333
 40
0.15
 40
0.1666666666666667
 40
0.1833333333333333
 40
0.2
 40
0.2166666666666667
 40
0.2333333333333333
 40
0.25
 40
0.2666666666666667
 40
0.2833333333333333
 40
0.3
 40
0.3166666666666667
 40
0.3333333333333333
 40
0.35
 40
0.3666666666666666
 40
0.3833333333333333
 40
0.4
 40
0.4166666666666666
 40
0.4333333333333333
 40
0.45
 40
0.4666666666666666
 40
0.4833333333333333
 40
0.4999999999999999
 40
0.5166666666666666
 40
0.5333333333333333
 40
0.55
 40
0.5666666666666668
 40
0.5833333333333335
 40
0.6000000000000002
 40
0.6166666666666669
 40
0.6333333333333336
 40
0.6500000000000004
 40
0.6666666666666671
 40
0.6833333333333338
 40
0.7000000000000005
 40
0.7166666666666672
 40
0.733333333333334
 40
0.7500000000000007
 40
0.7666666666666674
 40
0.7833333333333341
 40
0.8000000000000008
 40
0.8166666666666675
 40
0.8333333333333343
 40
0.850000000000001
 40
0.8666666666666677
 40
0.8833333333333344
 40
0.9000000000000011
 40
0.9166666666666679
 40
0.9333333333333346
 40
0.9500000000000013
 40
0.966666666666668
 40
0.9833333333333347
 40
1.0
 40
1.0
 40
1.0
 40
1.0
 10
2206.433678858535
 20
955.2912056944539
 30
0.0
 10
2203.966477865591
 20
966.2814646630245
 30
0.0
 10
2201.274985873287
 20
985.1219086091454
 30
0.0
 10
2201.274985873287
 20
1021.457050505235
 30
0.0
 10
2209.349461850196
 20
1080.669874335899
 30
0.0
 10
2216.078191830954
 20
1115.659270235837
 30
0.0
 10
2222.806921811711
 20
1150.648666135775
 30
0.0
 10
2238.955873765528
 20
1212.552981958743
 30
0.0
 10
2252.413333727043
 20
1285.223265750921
 30
0.0
 10
2255.104825719346
 20
1330.978629620071
 30
0.0
 10
2255.104825719346
 20
1379.425485481524
 30
0.0
 10
2259.1420637078
 20
1441.329801304491
 30
0.0
 10
2259.1420637078
 20
1470.936213219824
 30
0.0
 10
2269.908031677012
 20
1530.149037050488
 30
0.0
 10
2286.056983630829
 20
1566.484178946577
 30
0.0
 10
2319.700633534616
 20
1604.165066838818
 30
0.0
 10
2372.184727384523
 20
1633.77147875415
 30
0.0
 10
2405.82837728831
 20
1644.537446723362
 30
0.0
 10
2435.434789203642
 20
1651.266176704119
 30
0.0
 10
2493.301867038154
 20
1662.032144673331
 30
0.0
 10
2541.748722899607
 20
1663.377890669482
 30
0.0
 10
2625.184974660998
 20
1659.340652681028
 30
0.0
 10
2666.903100541693
 20
1660.68639867718
 30
0.0
 10
2740.919130330024
 20
1657.994906684877
 30
0.0
 10
2789.365986191477
 20
1657.994906684877
 30
0.0
 10
2866.07350797211
 20
1656.649160688725
 30
0.0
 10
2917.211855825865
 20
1648.574684711816
 30
0.0
 10
2958.929981706561
 20
1636.462970746453
 30
0.0
 10
2984.499155633439
 20
1623.005510784939
 30
0.0
 10
3023.525789521831
 20
1573.212908927334
 30
0.0
 10
3051.786455441012
 20
1522.074561073579
 30
0.0
 10
3070.626899387132
 20
1449.4042772814
 30
0.0
 10
3080.047121360192
 20
1383.462723469978
 30
0.0
 10
3085.430105344798
 20
1314.829677666254
 30
0.0
 10
3085.430105344798
 20
1267.728567800953
 30
0.0
 10
3086.77585134095
 20
1162.760380101139
 30
0.0
 10
3090.813089329404
 20
1114.313524239686
 30
0.0
 10
3094.850327317859
 20
1082.015620332051
 30
0.0
 10
3105.61629528707
 20
1030.877272478295
 30
0.0
 10
3110.999279271676
 20
978.3931786283881
 30
0.0
 10
3113.690771263979
 20
944.7495287246015
 30
0.0
 10
3101.579057298616
 20
890.9196888785431
 30
0.0
 10
3077.355629367889
 20
868.0420069439682
 30
0.0
 10
3018.142805537225
 20
868.0420069439682
 30
0.0
 10
2971.041695671924
 20
865.3505149516652
 30
0.0
 10
2917.211855825865
 20
862.6590229593623
 30
0.0
 10
2848.578810022141
 20
862.6590229593623
 30
0.0
 10
2765.14255826075
 20
865.3505149516652
 30
0.0
 10
2691.12652847242
 20
862.6590229593623
 30
0.0
 10
2665.557354545542
 20
862.6590229593623
 30
0.0
 10
2630.567958645604
 20
865.3505149516652
 30
0.0
 10
2599.615800734121
 20
866.6962609478169
 30
0.0
 10
2535.01999291885
 20
870.7334989362712
 30
0.0
 10
2489.264629049701
 20
866.6962609478169
 30
0.0
 10
2436.780535199793
 20
855.930292978605
 30
0.0
 10
2388.333679338341
 20
849.2015629978478
 30
0.0
 10
2343.924061465342
 20
847.8558170016963
 30
0.0
 10
2306.243173573102
 20
850.5473089939992
 30
0.0
 10
2259.1420637078
 20
870.7334989362712
 30
0.0
 10
2232.227143784771
 20
897.6484188593005
 30
0.0
 10
2216.078191830954
 20
919.1803547977238
 30
0.0
 10
2208.900879851479
 20
944.3009467258842
 30
0.0
 10
2206.433678858535
 20
955.2912056944539
 30
0.0
  0
TEXT
  5
C6
330
478
100
AcDbEntity
  8
Gradall Areas
  6
Continuous
 62
     7
370
     0
100
AcDbText
 10
2563.412334
 20
1224.683757
 30
0.0
 40
36.0
  1
AREA C
 50
359.499994
  7
Style-Garamond
 11
2563.726493
 21
1260.682386
 31
0.0
100
AcDbText
 73
     3
  0
TEXT
  5
C7
330
478
100
AcDbEntity
  8
Gradall Areas
  6
Continuous
 62
     7
370
     0
100
AcDbText
 10
3168.0492
 20
2199.702988
 30
0.0
 40
36.0
  1
AREA B
 50
359.499994
  7
Style-Garamond
 11
3168.363359
 21
2235.701617
 31
0.0
100
AcDbText
 73
     3
  0
SPLINE
  5
CA
330
478
100
AcDbEntity
  8
Gradall Areas
  6
Continuous
 62
     7
370
     0
100
AcDbSpline
210
0.0
220
0.0
230
1.0
 70
    11
 71
     3
 72
    70
 73
    66
 74
     0
 42
0.0000000001
 43
0.00000001
 40
0.0
 40
0.0
 40
0.0
 40
0.0
 40
0.0158730158730159
 40
0.0317460317460317
 40
0.0476190476190476
 40
0.0634920634920635
 40
0.0793650793650794
 40
0.0952380952380952
 40
0.1111111111111111
 40
0.126984126984127
 40
0.1428571428571429
 40
0.1587301587301587
 40
0.1746031746031746
 40
0.1904761904761905
 40
0.2063492063492063
 40
0.2222222222222222
 40
0.2380952380952381
 40
0.253968253968254
 40
0.2698412698412698
 40
0.2857142857142857
 40
0.3015873015873016
 40
0.3174603174603174
 40
0.3333333333333333
 40
0.3492063492063492
 40
0.3650793650793651
 40
0.3809523809523809
 40
0.3968253968253968
 40
0.4126984126984127
 40
0.4285714285714286
 40
0.4444444444444444
 40
0.4603174603174603
 40
0.4761904761904762
 40
0.492063492063492
 40
0.5079365079365079
 40
0.5238095238095237
 40
0.5396825396825395
 40
0.5555555555555554
 40
0.5714285714285712
 40
0.587301587301587
 40
0.6031746031746028
 40
0.6190476190476186
 40
0.6349206349206344
 40
0.6507936507936503
 40
0.6666666666666661
 40
0.6825396825396819
 40
0.6984126984126977
 40
0.7142857142857135
 40
0.7301587301587293
 40
0.7460317460317452
 40
0.761904761904761
 40
0.7777777777777768
 40
0.7936507936507926
 40
0.8095238095238084
 40
0.8253968253968242
 40
0.8412698412698401
 40
0.8571428571428559
 40
0.8730158730158717
 40
0.8888888888888875
 40
0.9047619047619033
 40
0.9206349206349191
 40
0.936507936507935
 40
0.9523809523809508
 40
0.9682539682539666
 40
0.9841269841269824
 40
1.0
 40
1.0
 40
1.0
 40
1.0
 10
2798.561917165179
 20
2093.568027439235
 30
0.0
 10
2798.786208164537
 20
2106.128323403315
 30
0.0
 10
2798.786208164537
 20
2127.660259341738
 30
0.0
 10
2805.514938145295
 20
2185.527337176251
 30
0.0
 10
2812.243668126052
 20
2233.974193037703
 30
0.0
 10
2814.935160118355
 20
2267.61784294149
 30
0.0
 10
2816.280906114506
 20
2287.804032883762
 30
0.0
 10
2824.355382091415
 20
2341.63387272982
 30
0.0
 10
2835.121350060627
 20
2390.080728591273
 30
0.0
 10
2849.924556018293
 20
2438.527584452726
 30
0.0
 10
2871.456491956717
 20
2495.048916291087
 30
0.0
 10
2882.222459925928
 20
2526.001074202571
 30
0.0
 10
2910.483125845109
 20
2569.064946079418
 30
0.0
 10
2940.089537760441
 20
2604.054341979355
 30
0.0
 10
2975.078933660379
 20
2630.969261902385
 30
0.0
 10
3014.105567548771
 20
2653.84694383696
 30
0.0
 10
3055.823693429467
 20
2672.68738778308
 30
0.0
 10
3108.307787279374
 20
2688.836339736898
 30
0.0
 10
3150.025913160069
 20
2699.60230770611
 30
0.0
 10
3186.361055056159
 20
2707.676783683019
 30
0.0
 10
3232.116418925308
 20
2718.44275165223
 30
0.0
 10
3271.143052813701
 20
2722.479989640684
 30
0.0
 10
3316.89841668285
 20
2725.171481632987
 30
0.0
 10
3357.270796567394
 20
2722.479989640684
 30
0.0
 10
3400.334668444241
 20
2714.405513663775
 30
0.0
 10
3446.090032313391
 20
2703.639545694564
 30
0.0
 10
3498.574126163298
 20
2690.18208573305
 30
0.0
 10
3553.749712005508
 20
2668.650149794626
 30
0.0
 10
3599.505075874658
 20
2640.389483875445
 30
0.0
 10
3641.223201755354
 20
2606.745833971659
 30
0.0
 10
3662.755137693777
 20
2579.830914048629
 30
0.0
 10
3676.212597655292
 20
2550.224502133297
 30
0.0
 10
3684.2870736322
 20
2527.346820198722
 30
0.0
 10
3697.744533593715
 20
2468.133996368058
 30
0.0
 10
3697.744533593715
 20
2411.612664529696
 30
0.0
 10
3697.744533593715
 20
2359.128570679789
 30
0.0
 10
3693.707295605261
 20
2294.532762864519
 30
0.0
 10
3689.670057616806
 20
2236.665685030006
 30
0.0
 10
3684.2870736322
 20
2215.133749091583
 30
0.0
 10
3685.632819628352
 20
2154.575179264767
 30
0.0
 10
3685.632819628352
 20
2080.559149476436
 30
0.0
 10
3688.324311620655
 20
2054.989975549559
 30
0.0
 10
3684.2870736322
 20
2011.926103672712
 30
0.0
 10
3680.249835643746
 20
1952.713279842047
 30
0.0
 10
3664.100883689928
 20
1888.117472026777
 30
0.0
 10
3642.568947751505
 20
1849.090838138385
 30
0.0
 10
3606.233805855415
 20
1812.755696242295
 30
0.0
 10
3537.600760051691
 20
1767.000332373145
 30
0.0
 10
3483.770920205632
 20
1744.12265043857
 30
0.0
 10
3404.371906432696
 20
1722.590714500147
 30
0.0
 10
3373.419748521212
 20
1722.590714500147
 30
0.0
 10
3316.89841668285
 20
1715.86198451939
 30
0.0
 10
3254.994100859884
 20
1715.86198451939
 30
0.0
 10
3183.669563063856
 20
1719.899222507844
 30
0.0
 10
3155.408897144675
 20
1729.319444480904
 30
0.0
 10
3070.626899387133
 20
1750.851380419328
 30
0.0
 10
3019.488551533377
 20
1777.766300342357
 30
0.0
 10
2969.695949675773
 20
1807.372712257689
 30
0.0
 10
2936.052299771987
 20
1828.904648196113
 30
0.0
 10
2905.100141860503
 20
1853.128076126839
 30
0.0
 10
2859.344777991353
 20
1896.191948003686
 30
0.0
 10
2821.663890099112
 20
1950.021787849744
 30
0.0
 10
2804.169192149143
 20
1997.122897715046
 30
0.0
 10
2797.440462168386
 20
2052.298483557256
 30
0.0
 10
2798.33762616582
 20
2081.007731475154
 30
0.0
 10
2798.561917165179
 20
2093.568027439235
 30
0.0
  0
SPLINE
  5
CC
330
478
100
AcDbEntity
  8
Gradall Areas
  6
Continuous
 62
     7
370
     0
100
AcDbSpline
210
0.0
220
0.0
230
1.0
 70
    11
 71
     3
 72
   102
 73
    98
 74
     0
 42
0.0000000001
 43
0.00000001
 40
0.0
 40
0.0
 40
0.0
 40
0.0
 40
0.0105263157894737
 40
0.0210526315789474
 40
0.0315789473684211
 40
0.0421052631578947
 40
0.0526315789473684
 40
0.0631578947368421
 40
0.0736842105263158
 40
0.0842105263157895
 40
0.0947368421052632
 40
0.1052631578947369
 40
0.1157894736842106
 40
0.1263157894736842
 40
0.1368421052631579
 40
0.1473684210526316
 40
0.1578947368421053
 40
0.168421052631579
 40
0.1789473684210527
 40
0.1894736842105264
 40
0.2000000000000001
 40
0.2105263157894738
 40
0.2210526315789474
 40
0.2315789473684211
 40
0.2421052631578948
 40
0.2526315789473685
 40
0.2631578947368422
 40
0.2736842105263158
 40
0.2842105263157895
 40
0.2947368421052631
 40
0.3052631578947368
 40
0.3157894736842105
 40
0.3263157894736841
 40
0.3368421052631578
 40
0.3473684210526314
 40
0.3578947368421051
 40
0.3684210526315788
 40
0.3789473684210524
 40
0.3894736842105261
 40
0.3999999999999997
 40
0.4105263157894734
 40
0.4210526315789471
 40
0.4315789473684207
 40
0.4421052631578944
 40
0.4526315789473681
 40
0.4631578947368417
 40
0.4736842105263154
 40
0.484210526315789
 40
0.4947368421052627
 40
0.5052631578947364
 40
0.5157894736842101
 40
0.5263157894736838
 40
0.5368421052631576
 40
0.5473684210526313
 40
0.557894736842105
 40
0.5684210526315787
 40
0.5789473684210524
 40
0.5894736842105261
 40
0.5999999999999999
 40
0.6105263157894736
 40
0.6210526315789473
 40
0.631578947368421
 40
0.6421052631578947
 40
0.6526315789473685
 40
0.6631578947368422
 40
0.6736842105263159
 40
0.6842105263157896
 40
0.6947368421052633
 40
0.705263157894737
 40
0.7157894736842108
 40
0.7263157894736845
 40
0.7368421052631582
 40
0.7473684210526319
 40
0.7578947368421056
 40
0.7684210526315793
 40
0.778947368421053
 40
0.7894736842105268
 40
0.8000000000000005
 40
0.8105263157894742
 40
0.8210526315789479
 40
0.8315789473684216
 40
0.8421052631578954
 40
0.8526315789473691
 40
0.8631578947368428
 40
0.8736842105263165
 40
0.8842105263157902
 40
0.8947368421052639
 40
0.9052631578947377
 40
0.9157894736842114
 40
0.9263157894736851
 40
0.9368421052631588
 40
0.9473684210526325
 40
0.9578947368421062
 40
0.96842105263158
 40
0.9789473684210537
 40
0.9894736842105274
 40
1.0
 40
1.0
 40
1.0
 40
1.0
 10
1747.232490620151
 20
3027.538230513876
 30
0.0
 10
1742.887423700697
 20
3038.711259735328
 30
0.0
 10
1735.438737553062
 20
3061.057318178234
 30
0.0
 10
1735.438737553062
 20
3102.025091990227
 30
0.0
 10
1744.749595237606
 20
3141.130694265311
 30
0.0
 10
1765.233482143602
 20
3176.511953466578
 30
0.0
 10
1804.339084418686
 20
3210.031041130936
 30
0.0
 10
1849.031201304496
 20
3249.13664340602
 30
0.0
 10
1906.758518948668
 20
3284.517902607286
 30
0.0
 10
1953.312807371387
 20
3316.174818734735
 30
0.0
 10
2003.591438867924
 20
3342.245220251458
 30
0.0
 10
2061.318756512096
 20
3379.488650989633
 30
0.0
 10
2094.837844176454
 20
3399.97253789563
 30
0.0
 10
2145.11647567299
 20
3437.215968633805
 30
0.0
 10
2173.049048726622
 20
3463.286370150528
 30
0.0
 10
2199.119450243345
 20
3489.356771667251
 30
0.0
 10
2221.465508686249
 20
3515.427173183973
 30
0.0
 10
2253.122424813699
 20
3563.843633143601
 30
0.0
 10
2286.641512478057
 20
3640.19266615686
 30
0.0
 10
2307.125399384053
 20
3690.471297653397
 30
0.0
 10
2329.471457826958
 20
3746.33644376066
 30
0.0
 10
2366.714888565133
 20
3792.890732183379
 30
0.0
 10
2407.682662377126
 20
3830.134162921554
 30
0.0
 10
2433.753063893848
 20
3850.618049827551
 30
0.0
 10
2511.964268444017
 20
3889.723652102635
 30
0.0
 10
2584.588958383459
 20
3919.518396693175
 30
0.0
 10
2646.040619101448
 20
3938.140112062263
 30
0.0
 10
2700.043593671802
 20
3947.450969746807
 30
0.0
 10
2770.806112074336
 20
3964.210513578985
 30
0.0
 10
2830.395601255416
 20
3971.65919972662
 30
0.0
 10
2897.433776584131
 20
3980.970057411164
 30
0.0
 10
2957.023265765212
 20
3986.556572021891
 30
0.0
 10
3033.372298778471
 20
3990.280915095708
 30
0.0
 10
3102.272645644096
 20
3992.143086632617
 30
0.0
 10
3215.86510939553
 20
3997.729601243343
 30
0.0
 10
3307.11151470406
 20
4003.31611585407
 30
0.0
 10
3394.633576938772
 20
4005.178287390978
 30
0.0
 10
3459.809580730579
 20
4010.764802001705
 30
0.0
 10
3526.847756059294
 20
4010.764802001705
 30
0.0
 10
3580.850730629648
 20
4008.902630464796
 30
0.0
 10
3642.302391347638
 20
4005.178287390978
 30
0.0
 10
3686.994508233448
 20
3995.867429706435
 30
0.0
 10
3742.859654340711
 20
3982.832228948073
 30
0.0
 10
3802.449143521791
 20
3956.76182743135
 30
0.0
 10
3839.692574259967
 20
3915.794053619358
 30
0.0
 10
3867.625147313598
 20
3869.239765196639
 30
0.0
 10
3886.246862682686
 20
3817.098962163193
 30
0.0
 10
3886.246862682686
 20
3761.23381605593
 30
0.0
 10
3888.109034219594
 20
3701.64432687485
 30
0.0
 10
3884.384691145777
 20
3653.227866915222
 30
0.0
 10
3862.038632702871
 20
3606.673578492502
 30
0.0
 10
3819.20868735397
 20
3541.497574700696
 30
0.0
 10
3781.965256615795
 20
3517.289344720882
 30
0.0
 10
3754.032683562163
 20
3498.667629351794
 30
0.0
 10
3716.789252823988
 20
3481.908085519615
 30
0.0
 10
3673.959307475087
 20
3459.56202707671
 30
0.0
 10
3629.267190589276
 20
3435.353797096896
 30
0.0
 10
3582.712902166557
 20
3409.283395580174
 30
0.0
 10
3524.985584522385
 20
3349.693906399093
 30
0.0
 10
3478.431296099666
 20
3297.553103365648
 30
0.0
 10
3430.014836140038
 20
3245.412300332202
 30
0.0
 10
3396.495748475681
 20
3202.582354983301
 30
0.0
 10
3331.319744683874
 20
3154.165895023673
 30
0.0
 10
3282.903284724246
 20
3128.09549350695
 30
0.0
 10
3182.346021731172
 20
3083.40337662114
 30
0.0
 10
3146.964762529906
 20
3079.679033547322
 30
0.0
 10
3107.859160254822
 20
3062.919489715143
 30
0.0
 10
3024.061441093927
 20
3042.435602809147
 30
0.0
 10
2960.747608839029
 20
3023.813887440059
 30
0.0
 10
2916.055491953219
 20
3008.916515144789
 30
0.0
 10
2873.225546604318
 20
2990.294799775701
 30
0.0
 10
2789.427827443423
 20
2951.189197500617
 30
0.0
 10
2729.838338262342
 20
2923.256624446986
 30
0.0
 10
2668.386677544353
 20
2899.048394467172
 30
0.0
 10
2606.935016826364
 20
2867.391478339723
 30
0.0
 10
2539.896841497648
 20
2835.734562212274
 30
0.0
 10
2431.89089235694
 20
2785.455930715737
 30
0.0
 10
2389.060947008039
 20
2772.420729957375
 30
0.0
 10
2361.128373954407
 20
2757.523357662105
 30
0.0
 10
2331.333629363867
 20
2746.350328440653
 30
0.0
 10
2258.708939424425
 20
2709.106897702478
 30
0.0
 10
2212.154651001706
 20
2692.347353870299
 30
0.0
 10
2182.359906411165
 20
2686.760839259573
 30
0.0
 10
2066.905271122822
 20
2664.414780816667
 30
0.0
 10
2016.626639626285
 20
2662.552609279759
 30
0.0
 10
1975.658865814293
 20
2662.552609279759
 30
0.0
 10
1945.864121223752
 20
2675.58781003812
 30
0.0
 10
1906.758518948668
 20
2690.48518233339
 30
0.0
 10
1854.617715915223
 20
2735.1772992192
 30
0.0
 10
1832.271657472317
 20
2768.696386883558
 30
0.0
 10
1811.787770566321
 20
2815.250675306277
 30
0.0
 10
1800.614741344869
 20
2861.804963728996
 30
0.0
 10
1793.166055197233
 20
2895.324051393355
 30
0.0
 10
1787.579540586507
 20
2934.429653668438
 30
0.0
 10
1776.406511365055
 20
2958.637883648253
 30
0.0
 10
1761.509139069785
 20
2994.019142849519
 30
0.0
 10
1751.577557539605
 20
3016.365201292424
 30
0.0
 10
1747.232490620151
 20
3027.538230513876
 30
0.0
  0
TEXT
  5
CE
330
478
100
AcDbEntity
  8
Gradall Areas
  6
Continuous
 62
     7
370
     0
100
AcDbText
 10
2940.597047
 20
3903.884213
 30
0.0
 40
36.0
  1
AREA A
 50
359.499994
  7
Style-Garamond
 11
2940.911206
 21
3939.882842
 31
0.0
100
AcDbText
 73
     3
  0
LWPOLYLINE
  5
CF
330
478
100
AcDbEntity
  8
Quadrat Lines
  6
DGN Style 4
 62
   178
370
     0
100
AcDbPolyline
 90
        4
 70
   129
 43
0.0
 10
2557.716416
 20
1542.836149
 10
2617.716416
 20
1542.836149
 10
2617.716416
 20
1482.836149
 10
2557.716416
 20
1482.836149
  0
LWPOLYLINE
  5
D1
330
478
100
AcDbEntity
  8
Quadrat Lines
  6
DGN Style 4
 62
   178
370
     0
100
AcDbPolyline
 90
        4
 70
   129
 43
0.0
 10
3495.258662
 20
3363.067798
 10
3555.258662
 20
3363.067798
 10
3555.258662
 20
3333.067798
 10
3495.258662
 20
3333.067798
  0
LWPOLYLINE
  5
D4
330
478
100
AcDbEntity
  8
Quadrat Lines
  6
DGN Style 4
 62
   178
370
     0
100
AcDbPolyline
 90
        4
 70
   129
 43
0.0
 10
3708.365104
 20
2617.589309
 10
3738.365104
 20
2617.589309
 10
3738.365104
 20
2557.589309
 10
3708.365104
 20
2557.589309
  0
LWPOLYLINE
  5
D5
330
478
100
AcDbEntity
  8
Quadrat Lines
  6
DGN Style 4
 62
   178
370
     0
100
AcDbPolyline
 90
        4
 70
   129
 43
0.0
 10
3028.694263
 20
2361.791413
 10
3058.694263
 20
2361.791413
 10
3058.694263
 20
2301.791413
 10
3028.694263
 20
2301.791413
  0
LWPOLYLINE
  5
D6
330
478
100
AcDbEntity
  8
Quadrat Lines
  6
DGN Style 4
 62
   178
370
     0
100
AcDbPolyline
 90
        4
 70
   129
 43
0.0
 10
4072.789729
 20
2052.850122
 10
4102.789729
 20
2052.850122
 10
4102.789729
 20
1992.850122
 10
4072.789729
 20
1992.850122
  0
LWPOLYLINE
  5
D7
330
478
100
AcDbEntity
  8
Quadrat Lines
  6
DGN Style 4
 62
   178
370
     0
100
AcDbPolyline
 90
        4
 70
   129
 43
0.0
 10
3713.409043
 20
1827.133831
 10
3743.409043
 20
1827.133831
 10
3743.409043
 20
1767.133831
 10
3713.409043
 20
1767.133831
  0
LWPOLYLINE
  5
DC
330
478
100
AcDbEntity
  8
Quadrat Lines
  6
DGN Style 4
 62
   178
370
     0
100
AcDbPolyline
 90
        4
 70
   129
 43
0.0
 10
3720.974952
 20
687.045892
 10
3750.974952
 20
687.045892
 10
3750.974952
 20
627.045892
 10
3720.974952
 20
627.045892
  0
SOLID
  5
119
330
478
100
AcDbEntity
  8
Scale-North Arrow
  6
Continuous
 62
     7
370
     0
100
AcDbTrace
 10
-1537.742791
 20
2283.733185
 30
0.0
 11
-1548.695351
 21
2283.733185
 31
0.0
 12
-1537.742791
 22
2534.646395
 32
0.0
 13
-1548.695351
 23
2534.646395
 33
0.0
210
0.0
220
0.0
230
-1.0
  0
SOLID
  5
11A
330
478
100
AcDbEntity
  8
Scale-North Arrow
  6
Continuous
 62
     7
370
     0
100
AcDbTrace
 10
1545.376394
 20
2573.478202
 30
0.0
 11
1523.139376
 21
2534.646395
 31
0.0
 12
1565.290141
 22
2534.646395
 32
0.0
 13
1565.290141
 23
2534.646395
 33
0.0
  0
SOLID
  5
11B
330
478
100
AcDbEntity
  8
Scale-North Arrow
  6
Continuous
 62
     7
370
     0
100
AcDbTrace
 10
-1325.802964
 20
2276.547214
 30
0.0
 11
-1336.095004
 21
2280.293211
 31
0.0
 12
-1239.985592
 22
2512.328507
 32
0.0
 13
-1250.277632
 23
2516.074503
 33
0.0
210
0.0
220
0.0
230
-1.0
  0
HATCH
  5
11F
330
478
100
AcDbEntity
  8
Scale-North Arrow
  6
Continuous
 62
     7
370
     0
100
AcDbHatch
 10
0.0
 20
0.0
 30
0.0
210
0.0
220
0.0
230
1.0
  2
SOLID
 70
     1
 71
     0
 91
        1
 92
        3
 72
     0
 73
     1
 93
        5
 10
1225.881267294523
 20
2506.978145694157
 10
1229.034277213475
 20
2552.03299795709
 10
1263.136568705309
 20
2521.996429781802
 10
1250.277632142938
 20
2516.074503054918
 10
1239.985591607626
 20
2512.328506650207
 97
        0
 75
     0
 76
     1
 98
        0
  0
TEXT
  5
120
330
478
100
AcDbEntity
  8
Scale-North Arrow
  6
Continuous
 62
     7
370
     0
100
AcDbText
 10
1410.45159
 20
2057.003531
 30
0.0
 40
60.0
  1
N
  7
Style-Garamond
 11
1410.45159
 21
2117.003531
 31
0.0
100
AcDbText
 73
     3
  0
TEXT
  5
121
330
478
100
AcDbEntity
  8
Scale-North Arrow
  6
Continuous
 62
     7
370
     0
100
AcDbText
 10
1454.304274
 20
2197.028585
 30
0.0
 40
60.0
  1
(site)
  7
Style-Garamond
 11
1454.304274
 21
2257.028585
 31
0.0
100
AcDbText
 73
     3
  0
TEXT
  5
122
330
478
100
AcDbEntity
  8
Scale-North Arrow
  6
Continuous
 62
     7
370
     0
100
AcDbText
 10
1231.750436
 20
2193.248711
 30
0.0
 40
60.0
  1
(true)
  7
Style-Garamond
 11
1231.750436
 21
2253.248711
 31
0.0
100
AcDbText
 73
     3
  0
LWPOLYLINE
  5
134
330
478
100
AcDbEntity
  8
Feature Numbers
  6
Continuous
 62
     7
370
     0
100
AcDbPolyline
 90
        4
 70
   128
 43
0.0
 10
2664.875669
 20
3611.356678
 10
2834.694029
 20
3538.955643
 10
2819.429647
 20
3569.411615
 10
2806.726053
 20
3552.47349
  0
SPLINE
  5
105
102
{ACAD_REACTORS
330
4A4
330
4A4
102
}
330
478
100
AcDbEntity
  8
Posthole
  6
Continuous
 62
     7
370
    13
100
AcDbSpline
210
0.0
220
0.0
230
1.0
 70
    11
 71
     3
 72
    19
 73
    15
 74
     0
 42
0.0000000001
 43
0.00000001
 40
0.0
 40
0.0
 40
0.0
 40
0.0
 40
0.0833333333333333
 40
0.1666666666666667
 40
0.25
 40
0.3333333333333333
 40
0.4166666666666666
 40
0.4999999999999999
 40
0.5833333333333333
 40
0.6666666666666666
 40
0.75
 40
0.8333333333333334
 40
0.9166666666666667
 40
1.0
 40
1.0
 40
1.0
 40
1.0
 10
3324.375720979144
 20
3437.670808526561
 30
0.0
 10
3325.437409740383
 20
3437.923591564952
 30
0.0
 10
3327.358560832147
 20
3438.22693121102
 30
0.0
 10
3328.268579770351
 20
3438.681940680122
 30
0.0
 10
3329.026928885521
 20
3436.103553688544
 30
0.0
 10
3329.330268531589
 20
3433.373496873931
 30
0.0
 10
3329.481938354623
 20
3431.705128820557
 30
0.0
 10
3327.055221186079
 20
3431.098449528421
 30
0.0
 10
3323.111805787195
 20
3430.188430590217
 30
0.0
 10
3321.595107556855
 20
3430.188430590217
 30
0.0
 10
3321.595107556855
 20
3431.856798643591
 30
0.0
 10
3320.68508861865
 20
3435.193534750339
 30
0.0
 10
3320.988428264719
 20
3436.710232980679
 30
0.0
 10
3323.314032217907
 20
3437.418025488171
 30
0.0
 10
3324.375720979144
 20
3437.670808526561
 30
0.0
  0
HATCH
  5
4A4
330
478
100
AcDbEntity
  8
Posthole
  6
Continuous
 62
     7
370
    13
100
AcDbHatch
 10
0.0
 20
0.0
 30
0.0
210
0.0
220
0.0
230
1.0
  2
SOLID
 70
     1
 71
     1
 91
        1
 92
        1
 93
        1
 72
     4
 94
        3
 73
     0
 74
     0
 95
       19
 96
       15
 40
0.0
 40
0.0
 40
0.0
 40
0.0
 40
0.0833333333333333
 40
0.1666666666666667
 40
0.25
 40
0.3333333333333333
 40
0.4166666666666666
 40
0.4999999999999999
 40
0.5833333333333333
 40
0.6666666666666666
 40
0.75
 40
0.8333333333333334
 40
0.9166666666666667
 40
1.0
 40
1.0
 40
1.0
 40
1.0
 10
3324.375720979144
 20
3437.670808526561
 10
3325.437409740383
 20
3437.923591564952
 10
3327.358560832147
 20
3438.22693121102
 10
3328.268579770351
 20
3438.681940680122
 10
3329.026928885521
 20
3436.103553688544
 10
3329.330268531589
 20
3433.373496873931
 10
3329.481938354623
 20
3431.705128820557
 10
3327.055221186079
 20
3431.098449528421
 10
3323.111805787195
 20
3430.188430590217
 10
3321.595107556855
 20
3430.188430590217
 10
3321.595107556855
 20
3431.856798643591
 10
3320.68508861865
 20
3435.193534750339
 10
3320.988428264719
 20
3436.710232980679
 10
3323.314032217907
 20
3437.418025488171
 10
3324.375720979144
 20
3437.670808526561
 97
        1
330
105
 75
     0
 76
     1
 98
        1
 10
0.0
 20
0.0
  0
SPLINE
  5
109
102
{ACAD_REACTORS
330
4A5
330
4A5
102
}
330
478
100
AcDbEntity
  8
Posthole
  6
Continuous
 62
     7
370
    13
100
AcDbSpline
210
0.0
220
0.0
230
1.0
 70
    11
 71
     3
 72
    18
 73
    14
 74
     0
 42
0.0000000001
 43
0.00000001
 40
0.0
 40
0.0
 40
0.0
 40
0.0
 40
0.0909090909090909
 40
0.1818181818181818
 40
0.2727272727272727
 40
0.3636363636363637
 40
0.4545454545454546
 40
0.5454545454545455
 40
0.6363636363636365
 40
0.7272727272727274
 40
0.8181818181818183
 40
0.9090909090909093
 40
1.0
 40
1.0
 40
1.0
 40
1.0
 10
3212.56978309924
 20
3452.761955918445
 30
0.0
 10
3212.038938718622
 20
3452.585007791573
 30
0.0
 10
3211.027806565061
 20
3452.180554930148
 30
0.0
 10
3208.146079927415
 20
3451.270535991944
 30
0.0
 10
3207.842740281347
 20
3449.298828292503
 30
0.0
 10
3208.752759219551
 20
3447.32712059306
 30
0.0
 10
3210.117787626857
 20
3444.748733601482
 30
0.0
 10
3213.454523733605
 20
3445.81042236272
 30
0.0
 10
3215.577901256082
 20
3446.872111123958
 30
0.0
 10
3217.549608955524
 20
3447.630460239128
 30
0.0
 10
3215.881240902149
 20
3450.815526522842
 30
0.0
 10
3214.212872848776
 20
3453.242243691387
 30
0.0
 10
3213.100627479859
 20
3452.938904045318
 30
0.0
 10
3212.56978309924
 20
3452.761955918445
 30
0.0
  0
HATCH
  5
4A5
330
478
100
AcDbEntity
  8
Posthole
  6
Continuous
 62
     7
370
    13
100
AcDbHatch
 10
0.0
 20
0.0
 30
0.0
210
0.0
220
0.0
230
1.0
  2
SOLID
 70
     1
 71
     1
 91
        1
 92
        1
 93
        1
 72
     4
 94
        3
 73
     0
 74
     0
 95
       18
 96
       14
 40
0.0
 40
0.0
 40
0.0
 40
0.0
 40
0.0909090909090909
 40
0.1818181818181818
 40
0.2727272727272727
 40
0.3636363636363637
 40
0.4545454545454546
 40
0.5454545454545455
 40
0.6363636363636365
 40
0.7272727272727274
 40
0.8181818181818183
 40
0.9090909090909093
 40
1.0
 40
1.0
 40
1.0
 40
1.0
 10
3212.56978309924
 20
3452.761955918445
 10
3212.038938718622
 20
3452.585007791573
 10
3211.027806565061
 20
3452.180554930148
 10
3208.146079927415
 20
3451.270535991944
 10
3207.842740281347
 20
3449.298828292503
 10
3208.752759219551
 20
3447.32712059306
 10
3210.117787626857
 20
3444.748733601482
 10
3213.454523733605
 20
3445.81042236272
 10
3215.577901256082
 20
3446.872111123958
 10
3217.549608955524
 20
3447.630460239128
 10
3215.881240902149
 20
3450.815526522842
 10
3214.212872848776
 20
3453.242243691387
 10
3213.100627479859
 20
3452.938904045318
 10
3212.56978309924
 20
3452.761955918445
 97
        1
330
109
 75
     0
 76
     1
 98
        1
 10
0.0
 20
0.0
  0
SOLID
  5
10B
330
478
100
AcDbEntity
  8
Posthole
  6
Continuous
 62
     7
370
    13
100
AcDbTrace
 10
-3202.837636
 20
3369.065492
 30
0.0
 11
-3210.572797
 21
3369.065492
 31
0.0
 12
-3202.837636
 22
3362.54369
 32
0.0
 13
-3210.572797
 23
3362.54369
 33
0.0
210
0.0
220
0.0
230
-1.0
  0
SOLID
  5
101
330
478
100
AcDbEntity
  8
Posthole
  6
Continuous
 62
     7
370
    13
100
AcDbTrace
 10
-2949.549032
 20
3320.114057
 30
0.0
 11
-2957.511697
 21
3320.114057
 31
0.0
 12
-2949.549032
 22
3313.364749
 32
0.0
 13
-2957.511697
 23
3313.364749
 33
0.0
210
0.0
220
0.0
230
-1.0
  0
SOLID
  5
102
330
478
100
AcDbEntity
  8
Posthole
  6
Continuous
 62
     7
370
    13
100
AcDbTrace
 10
-2944.619762
 20
3291.069285
 30
0.0
 11
-2952.582428
 21
3291.069285
 31
0.0
 12
-2944.619762
 22
3284.092474
 32
0.0
 13
-2952.582428
 23
3284.092474
 33
0.0
210
0.0
220
0.0
230
-1.0
  0
SOLID
  5
103
330
478
100
AcDbEntity
  8
Posthole
  6
Continuous
 62
     7
370
    13
100
AcDbTrace
 10
-2958.421716
 20
3304.340395
 30
0.0
 11
-2966.308547
 21
3304.340395
 31
0.0
 12
-2958.421716
 22
3298.121932
 32
0.0
 13
-2966.308547
 23
3298.121932
 33
0.0
210
0.0
220
0.0
230
-1.0
  0
SOLID
  5
104
330
478
100
AcDbEntity
  8
Posthole
  6
Continuous
 62
     7
370
    13
100
AcDbTrace
 10
-2969.190274
 20
3290.310936
 30
0.0
 11
-2976.39459
 21
3290.310936
 31
0.0
 12
-2969.190274
 22
3284.395813
 32
0.0
 13
-2976.39459
 23
3284.395813
 33
0.0
210
0.0
220
0.0
230
-1.0
  0
SPLINE
  5
10E
102
{ACAD_REACTORS
330
4A6
330
4A6
102
}
330
478
100
AcDbEntity
  8
Posthole
  6
Continuous
 62
     7
370
    13
100
AcDbSpline
210
0.0
220
0.0
230
1.0
 70
    11
 71
     3
 72
    18
 73
    14
 74
     0
 42
0.0000000001
 43
0.00000001
 40
0.0
 40
0.0
 40
0.0
 40
0.0
 40
0.0909090909090909
 40
0.1818181818181818
 40
0.2727272727272727
 40
0.3636363636363637
 40
0.4545454545454546
 40
0.5454545454545455
 40
0.6363636363636365
 40
0.7272727272727274
 40
0.8181818181818183
 40
0.9090909090909093
 40
1.0
 40
1.0
 40
1.0
 40
1.0
 10
3111.299116318399
 20
3278.664392071577
 30
0.0
 10
3112.444651268986
 20
3279.15533562183
 30
0.0
 10
3114.626622603438
 20
3279.919025588888
 30
0.0
 10
3115.608509703941
 20
3278.282547088049
 30
0.0
 10
3116.42674895436
 20
3276.155125036959
 30
0.0
 10
3117.24498820478
 20
3273.209463735449
 30
0.0
 10
3115.444861853857
 20
3272.718520185197
 30
0.0
 10
3113.48108765285
 20
3271.57298523461
 30
0.0
 10
3110.699074201425
 20
3270.591098134107
 30
0.0
 10
3109.880834951005
 20
3270.591098134107
 30
0.0
 10
3108.571652150334
 20
3274.682294386204
 30
0.0
 10
3107.753412899915
 20
3276.973364287378
 30
0.0
 10
3110.153581367812
 20
3278.173448521326
 30
0.0
 10
3111.299116318399
 20
3278.664392071577
 30
0.0
  0
HATCH
  5
4A6
330
478
100
AcDbEntity
  8
Posthole
  6
Continuous
 62
     7
370
    13
100
AcDbHatch
 10
0.0
 20
0.0
 30
0.0
210
0.0
220
0.0
230
1.0
  2
SOLID
 70
     1
 71
     1
 91
        1
 92
        1
 93
        1
 72
     4
 94
        3
 73
     0
 74
     0
 95
       18
 96
       14
 40
0.0
 40
0.0
 40
0.0
 40
0.0
 40
0.0909090909090909
 40
0.1818181818181818
 40
0.2727272727272727
 40
0.3636363636363637
 40
0.4545454545454546
 40
0.5454545454545455
 40
0.6363636363636365
 40
0.7272727272727274
 40
0.8181818181818183
 40
0.9090909090909093
 40
1.0
 40
1.0
 40
1.0
 40
1.0
 10
3111.299116318399
 20
3278.664392071577
 10
3112.444651268986
 20
3279.15533562183
 10
3114.626622603438
 20
3279.919025588888
 10
3115.608509703941
 20
3278.282547088049
 10
3116.42674895436
 20
3276.155125036959
 10
3117.24498820478
 20
3273.209463735449
 10
3115.444861853857
 20
3272.718520185197
 10
3113.48108765285
 20
3271.57298523461
 10
3110.699074201425
 20
3270.591098134107
 10
3109.880834951005
 20
3270.591098134107
 10
3108.571652150334
 20
3274.682294386204
 10
3107.753412899915
 20
3276.973364287378
 10
3110.153581367812
 20
3278.173448521326
 10
3111.299116318399
 20
3278.664392071577
 97
        1
330
10E
 75
     0
 76
     1
 98
        1
 10
0.0
 20
0.0
  0
SPLINE
  5
110
102
{ACAD_REACTORS
330
4A7
330
4A7
102
}
330
478
100
AcDbEntity
  8
Posthole
  6
Continuous
 62
     7
370
    13
100
AcDbSpline
210
0.0
220
0.0
230
1.0
 70
    11
 71
     3
 72
    18
 73
    14
 74
     0
 42
0.0000000001
 43
0.00000001
 40
0.0
 40
0.0
 40
0.0
 40
0.0
 40
0.0909090909090909
 40
0.1818181818181818
 40
0.2727272727272727
 40
0.3636363636363637
 40
0.4545454545454546
 40
0.5454545454545455
 40
0.6363636363636365
 40
0.7272727272727274
 40
0.8181818181818183
 40
0.9090909090909093
 40
1.0
 40
1.0
 40
1.0
 40
1.0
 10
3040.794167573929
 20
3161.3834328448
 30
0.0
 10
3042.021526449558
 20
3161.492531411523
 30
0.0
 10
3044.421694917455
 20
3161.601629978246
 30
0.0
 10
3044.748990617623
 20
3158.81961652682
 30
0.0
 10
3044.748990617623
 20
3156.855842325814
 30
0.0
 10
3045.239934167875
 20
3154.728420274723
 30
0.0
 10
3042.130625016281
 20
3154.728420274723
 30
0.0
 10
3039.348611564855
 20
3153.910181024303
 30
0.0
 10
3037.548485213933
 20
3154.564772424639
 30
0.0
 10
3036.730245963513
 20
3157.674081576233
 30
0.0
 10
3036.730245963513
 20
3160.456095027659
 30
0.0
 10
3037.057541663681
 20
3160.947038577911
 30
0.0
 10
3039.5668086983
 20
3161.274334278078
 30
0.0
 10
3040.794167573929
 20
3161.3834328448
 30
0.0
  0
HATCH
  5
4A7
330
478
100
AcDbEntity
  8
Posthole
  6
Continuous
 62
     7
370
    13
100
AcDbHatch
 10
0.0
 20
0.0
 30
0.0
210
0.0
220
0.0
230
1.0
  2
SOLID
 70
     1
 71
     1
 91
        1
 92
        1
 93
        1
 72
     4
 94
        3
 73
     0
 74
     0
 95
       18
 96
       14
 40
0.0
 40
0.0
 40
0.0
 40
0.0
 40
0.0909090909090909
 40
0.1818181818181818
 40
0.2727272727272727
 40
0.3636363636363637
 40
0.4545454545454546
 40
0.5454545454545455
 40
0.6363636363636365
 40
0.7272727272727274
 40
0.8181818181818183
 40
0.9090909090909093
 40
1.0
 40
1.0
 40
1.0
 40
1.0
 10
3040.794167573929
 20
3161.3834328448
 10
3042.021526449558
 20
3161.492531411523
 10
3044.421694917455
 20
3161.601629978246
 10
3044.748990617623
 20
3158.81961652682
 10
3044.748990617623
 20
3156.855842325814
 10
3045.239934167875
 20
3154.728420274723
 10
3042.130625016281
 20
3154.728420274723
 10
3039.348611564855
 20
3153.910181024303
 10
3037.548485213933
 20
3154.564772424639
 10
3036.730245963513
 20
3157.674081576233
 10
3036.730245963513
 20
3160.456095027659
 10
3037.057541663681
 20
3160.947038577911
 10
3039.5668086983
 20
3161.274334278078
 10
3040.794167573929
 20
3161.3834328448
 97
        1
330
110
 75
     0
 76
     1
 98
        1
 10
0.0
 20
0.0
  0
SPLINE
  5
112
102
{ACAD_REACTORS
330
4A8
330
4A8
102
}
330
478
100
AcDbEntity
  8
Posthole
  6
Continuous
 62
     7
370
    13
100
AcDbSpline
210
0.0
220
0.0
230
1.0
 70
    11
 71
     3
 72
    17
 73
    13
 74
     0
 42
0.0000000001
 43
0.00000001
 40
0.0
 40
0.0
 40
0.0
 40
0.0
 40
0.1
 40
0.2
 40
0.3
 40
0.4
 40
0.5
 40
0.6
 40
0.7
 40
0.7999999999999999
 40
0.8999999999999999
 40
1.0
 40
1.0
 40
1.0
 40
1.0
 10
2966.252571860724
 20
3074.650072300347
 30
0.0
 10
2966.961712544421
 20
3074.322776600179
 30
0.0
 10
2967.834501078201
 20
3073.886382333289
 30
0.0
 10
2970.125570979376
 20
3072.740847382702
 30
0.0
 10
2969.307331728956
 20
3070.286129631444
 30
0.0
 10
2968.325444628453
 20
3067.340468329934
 30
0.0
 10
2966.688966127615
 20
3067.013172629766
 30
0.0
 10
2962.761417725601
 20
3068.158707580353
 30
0.0
 10
2959.815756424092
 20
3069.631538231108
 30
0.0
 10
2962.597769875517
 20
3074.37732588354
 30
0.0
 10
2963.579656976021
 20
3075.850156534295
 30
0.0
 10
2965.543431177027
 20
3074.977368000515
 30
0.0
 10
2966.252571860724
 20
3074.650072300347
 30
0.0
  0
HATCH
  5
4A8
330
478
100
AcDbEntity
  8
Posthole
  6
Continuous
 62
     7
370
    13
100
AcDbHatch
 10
0.0
 20
0.0
 30
0.0
210
0.0
220
0.0
230
1.0
  2
SOLID
 70
     1
 71
     1
 91
        1
 92
        1
 93
        1
 72
     4
 94
        3
 73
     0
 74
     0
 95
       17
 96
       13
 40
0.0
 40
0.0
 40
0.0
 40
0.0
 40
0.1
 40
0.2
 40
0.3
 40
0.4
 40
0.5
 40
0.6
 40
0.7
 40
0.7999999999999999
 40
0.8999999999999999
 40
1.0
 40
1.0
 40
1.0
 40
1.0
 10
2966.252571860724
 20
3074.650072300347
 10
2966.961712544421
 20
3074.322776600179
 10
2967.834501078201
 20
3073.886382333289
 10
2970.125570979376
 20
3072.740847382702
 10
2969.307331728956
 20
3070.286129631444
 10
2968.325444628453
 20
3067.340468329934
 10
2966.688966127615
 20
3067.013172629766
 10
2962.761417725601
 20
3068.158707580353
 10
2959.815756424092
 20
3069.631538231108
 10
2962.597769875517
 20
3074.37732588354
 10
2963.579656976021
 20
3075.850156534295
 10
2965.543431177027
 20
3074.977368000515
 10
2966.252571860724
 20
3074.650072300347
 97
        1
330
112
 75
     0
 76
     1
 98
        1
 10
0.0
 20
0.0
  0
SPLINE
  5
114
102
{ACAD_REACTORS
330
4A9
330
4A9
102
}
330
478
100
AcDbEntity
  8
Posthole
  6
Continuous
 62
     7
370
    13
100
AcDbSpline
210
0.0
220
0.0
230
1.0
 70
    11
 71
     3
 72
    18
 73
    14
 74
     0
 42
0.0000000001
 43
0.00000001
 40
0.0
 40
0.0
 40
0.0
 40
0.0
 40
0.0909090909090909
 40
0.1818181818181818
 40
0.2727272727272727
 40
0.3636363636363637
 40
0.4545454545454546
 40
0.5454545454545455
 40
0.6363636363636365
 40
0.7272727272727274
 40
0.8181818181818183
 40
0.9090909090909093
 40
1.0
 40
1.0
 40
1.0
 40
1.0
 10
2928.122622791181
 20
2984.316459054048
 30
0.0
 10
2929.377256308491
 20
2984.207360487325
 30
0.0
 10
2931.995621909833
 20
2983.880064787158
 30
0.0
 10
2931.995621909833
 20
2981.588994885983
 30
0.0
 10
2931.668326209665
 20
2979.952516385144
 30
0.0
 10
2930.522791259078
 20
2977.334150783802
 30
0.0
 10
2927.904425657736
 20
2977.334150783802
 30
0.0
 10
2925.449707906478
 20
2977.988742184138
 30
0.0
 10
2923.158638005304
 20
2978.47968573439
 30
0.0
 10
2923.485933705471
 20
2982.243586286319
 30
0.0
 10
2924.140525105807
 20
2984.043712637241
 30
0.0
 10
2924.467820805975
 20
2984.534656187493
 30
0.0
 10
2926.867989273871
 20
2984.42555762077
 30
0.0
 10
2928.122622791181
 20
2984.316459054048
 30
0.0
  0
HATCH
  5
4A9
330
478
100
AcDbEntity
  8
Posthole
  6
Continuous
 62
     7
370
    13
100
AcDbHatch
 10
0.0
 20
0.0
 30
0.0
210
0.0
220
0.0
230
1.0
  2
SOLID
 70
     1
 71
     1
 91
        1
 92
        1
 93
        1
 72
     4
 94
        3
 73
     0
 74
     0
 95
       18
 96
       14
 40
0.0
 40
0.0
 40
0.0
 40
0.0
 40
0.0909090909090909
 40
0.1818181818181818
 40
0.2727272727272727
 40
0.3636363636363637
 40
0.4545454545454546
 40
0.5454545454545455
 40
0.6363636363636365
 40
0.7272727272727274
 40
0.8181818181818183
 40
0.9090909090909093
 40
1.0
 40
1.0
 40
1.0
 40
1.0
 10
2928.122622791181
 20
2984.316459054048
 10
2929.377256308491
 20
2984.207360487325
 10
2931.995621909833
 20
2983.880064787158
 10
2931.995621909833
 20
2981.588994885983
 10
2931.668326209665
 20
2979.952516385144
 10
2930.522791259078
 20
2977.334150783802
 10
2927.904425657736
 20
2977.334150783802
 10
2925.449707906478
 20
2977.988742184138
 10
2923.158638005304
 20
2978.47968573439
 10
2923.485933705471
 20
2982.243586286319
 10
2924.140525105807
 20
2984.043712637241
 10
2924.467820805975
 20
2984.534656187493
 10
2926.867989273871
 20
2984.42555762077
 10
2928.122622791181
 20
2984.316459054048
 97
        1
330
114
 75
     0
 76
     1
 98
        1
 10
0.0
 20
0.0
  0
HATCH
  5
4AA
330
478
100
AcDbEntity
  8
Misc Features
  6
Continuous
 62
    54
370
    13
100
AcDbHatch
 10
0.0
 20
0.0
 30
0.0
210
0.0
220
0.0
230
1.0
  2
SOLID
 70
     1
 71
     1
 91
        1
 92
        1
 93
        1
 72
     4
 94
        3
 73
     0
 74
     0
 95
       71
 96
       67
 40
0.0
 40
0.0
 40
0.0
 40
0.0
 40
0.015625
 40
0.03125
 40
0.046875
 40
0.0625
 40
0.078125
 40
0.09375
 40
0.109375
 40
0.125
 40
0.140625
 40
0.15625
 40
0.171875
 40
0.1875
 40
0.203125
 40
0.21875
 40
0.234375
 40
0.25
 40
0.265625
 40
0.28125
 40
0.296875
 40
0.3125
 40
0.328125
 40
0.34375
 40
0.359375
 40
0.375
 40
0.390625
 40
0.40625
 40
0.421875
 40
0.4375
 40
0.453125
 40
0.46875
 40
0.484375
 40
0.5
 40
0.515625
 40
0.53125
 40
0.546875
 40
0.5625
 40
0.578125
 40
0.59375
 40
0.609375
 40
0.625
 40
0.640625
 40
0.65625
 40
0.671875
 40
0.6875
 40
0.703125
 40
0.71875
 40
0.734375
 40
0.75
 40
0.765625
 40
0.78125
 40
0.796875
 40
0.8125
 40
0.828125
 40
0.84375
 40
0.859375
 40
0.875
 40
0.890625
 40
0.90625
 40
0.921875
 40
0.9375
 40
0.953125
 40
0.96875
 40
0.984375
 40
1.0
 40
1.0
 40
1.0
 40
1.0
 10
3090.21581829926
 20
3000.89944119588
 10
3092.479613558754
 20
2999.481159828487
 10
3096.625359094212
 20
2996.971892793867
 10
3105.298695148658
 20
2991.571513741099
 10
3113.317439802767
 20
2987.480317489003
 10
3120.19064950629
 20
2983.552769086989
 10
3127.718450610149
 20
2978.970629284641
 10
3137.046378064929
 20
2973.242954531705
 10
3143.592292068285
 20
2968.988110429525
 10
3154.556698023904
 20
2962.278548576086
 10
3160.775316327092
 20
2959.005591574408
 10
3167.157582480363
 20
2955.732634572731
 10
3173.867144333801
 20
2951.150494770383
 10
3180.085762636988
 20
2947.386594218453
 10
3183.849663188918
 20
2945.422820017447
 10
3187.122620190596
 20
2943.786341516608
 10
3190.722872892441
 20
2941.495271615434
 10
3190.395577192273
 20
2940.022440964679
 10
3188.431802991266
 20
2938.058666763672
 10
3187.122620190596
 20
2936.422188262833
 10
3184.504254589253
 20
2937.895018913589
 10
3178.776579836318
 20
2940.677032365014
 10
3172.885257233298
 20
2943.45904581644
 10
3167.975821730782
 20
2947.222946368369
 10
3164.375569028937
 20
2949.514016269543
 10
3158.15695072575
 20
2952.950621121305
 10
3152.592923822897
 20
2955.732634572731
 10
3148.501727570801
 20
2958.514648024157
 10
3138.355560865601
 20
2963.751379226841
 10
3126.245619959394
 20
2971.115532480615
 10
3117.081340354697
 20
2976.84320723355
 10
3111.026369901594
 20
2980.934403485647
 10
3102.189385997064
 20
2986.007486838248
 10
3095.479824143625
 20
2990.098683090345
 10
3089.588501540606
 20
2993.69893579219
 10
3080.587869785992
 20
2999.099314844958
 10
3074.205603632721
 20
3002.208623996551
 10
3067.986985329534
 20
3006.7907637989
 10
3063.568493377269
 20
3009.081833700074
 10
3056.531635823663
 20
3013.173029952171
 10
3052.276791721482
 20
3015.464099853346
 10
3045.894525568211
 20
3019.391648255358
 10
3039.839555115108
 20
3023.155548807288
 10
3036.239302413262
 20
3025.282970858378
 10
3029.366092709739
 20
3029.210519260391
 10
3025.274896457643
 20
3031.501589161565
 10
3019.710869554791
 20
3035.429137563578
 10
3014.146842651939
 20
3038.211151015004
 10
3009.564702849591
 20
3041.484108016681
 10
3004.000675946739
 20
3044.429769318191
 10
2999.582183994474
 20
3047.211782769617
 10
2996.963818393132
 20
3049.175556970624
 10
2994.34545279179
 20
3050.975683321546
 10
2991.890735040532
 20
3051.630274721882
 10
2992.381678590784
 20
3053.430401072804
 10
2994.34545279179
 20
3055.721470973979
 10
2995.327339892293
 20
3057.685245174985
 10
2999.091240444222
 20
3055.557823123895
 10
3003.346084546403
 20
3052.284866122217
 10
3018.238038904036
 20
3043.93882576794
 10
3028.875149159488
 20
3037.883855314836
 10
3039.675907265024
 20
3031.174293461397
 10
3049.65842612014
 20
3024.792027308126
 10
3065.859563278444
 20
3015.300452003261
 10
3083.042587537251
 20
3005.481580998229
 10
3087.952023039767
 20
3002.317722563274
 10
3090.21581829926
 20
3000.89944119588
 97
        1
330
116
 75
     0
 76
     1
 98
        1
 10
0.0
 20
0.0
  0
SPLINE
  5
116
102
{ACAD_REACTORS
330
4AA
102
}
330
478
100
AcDbEntity
  8
Misc Features
  6
Continuous
 62
     7
370
    13
100
AcDbSpline
210
0.0
220
0.0
230
1.0
 70
    11
 71
     3
 72
    71
 73
    67
 74
     0
 42
0.0000000001
 43
0.00000001
 40
0.0
 40
0.0
 40
0.0
 40
0.0
 40
0.015625
 40
0.03125
 40
0.046875
 40
0.0625
 40
0.078125
 40
0.09375
 40
0.109375
 40
0.125
 40
0.140625
 40
0.15625
 40
0.171875
 40
0.1875
 40
0.203125
 40
0.21875
 40
0.234375
 40
0.25
 40
0.265625
 40
0.28125
 40
0.296875
 40
0.3125
 40
0.328125
 40
0.34375
 40
0.359375
 40
0.375
 40
0.390625
 40
0.40625
 40
0.421875
 40
0.4375
 40
0.453125
 40
0.46875
 40
0.484375
 40
0.5
 40
0.515625
 40
0.53125
 40
0.546875
 40
0.5625
 40
0.578125
 40
0.59375
 40
0.609375
 40
0.625
 40
0.640625
 40
0.65625
 40
0.671875
 40
0.6875
 40
0.703125
 40
0.71875
 40
0.734375
 40
0.75
 40
0.765625
 40
0.78125
 40
0.796875
 40
0.8125
 40
0.828125
 40
0.84375
 40
0.859375
 40
0.875
 40
0.890625
 40
0.90625
 40
0.921875
 40
0.9375
 40
0.953125
 40
0.96875
 40
0.984375
 40
1.0
 40
1.0
 40
1.0
 40
1.0
 10
3090.21581829926
 20
3000.89944119588
 30
0.0
 10
3092.479613558754
 20
2999.481159828487
 30
0.0
 10
3096.625359094212
 20
2996.971892793867
 30
0.0
 10
3105.298695148658
 20
2991.571513741099
 30
0.0
 10
3113.317439802767
 20
2987.480317489003
 30
0.0
 10
3120.19064950629
 20
2983.552769086989
 30
0.0
 10
3127.718450610149
 20
2978.970629284641
 30
0.0
 10
3137.046378064929
 20
2973.242954531705
 30
0.0
 10
3143.592292068285
 20
2968.988110429525
 30
0.0
 10
3154.556698023904
 20
2962.278548576086
 30
0.0
 10
3160.775316327092
 20
2959.005591574408
 30
0.0
 10
3167.157582480363
 20
2955.732634572731
 30
0.0
 10
3173.867144333801
 20
2951.150494770383
 30
0.0
 10
3180.085762636988
 20
2947.386594218453
 30
0.0
 10
3183.849663188918
 20
2945.422820017447
 30
0.0
 10
3187.122620190596
 20
2943.786341516608
 30
0.0
 10
3190.722872892441
 20
2941.495271615434
 30
0.0
 10
3190.395577192273
 20
2940.022440964679
 30
0.0
 10
3188.431802991266
 20
2938.058666763672
 30
0.0
 10
3187.122620190596
 20
2936.422188262833
 30
0.0
 10
3184.504254589253
 20
2937.895018913589
 30
0.0
 10
3178.776579836318
 20
2940.677032365014
 30
0.0
 10
3172.885257233298
 20
2943.45904581644
 30
0.0
 10
3167.975821730782
 20
2947.222946368369
 30
0.0
 10
3164.375569028937
 20
2949.514016269543
 30
0.0
 10
3158.15695072575
 20
2952.950621121305
 30
0.0
 10
3152.592923822897
 20
2955.732634572731
 30
0.0
 10
3148.501727570801
 20
2958.514648024157
 30
0.0
 10
3138.355560865601
 20
2963.751379226841
 30
0.0
 10
3126.245619959394
 20
2971.115532480615
 30
0.0
 10
3117.081340354697
 20
2976.84320723355
 30
0.0
 10
3111.026369901594
 20
2980.934403485647
 30
0.0
 10
3102.189385997064
 20
2986.007486838248
 30
0.0
 10
3095.479824143625
 20
2990.098683090345
 30
0.0
 10
3089.588501540606
 20
2993.69893579219
 30
0.0
 10
3080.587869785992
 20
2999.099314844958
 30
0.0
 10
3074.205603632721
 20
3002.208623996551
 30
0.0
 10
3067.986985329534
 20
3006.7907637989
 30
0.0
 10
3063.568493377269
 20
3009.081833700074
 30
0.0
 10
3056.531635823663
 20
3013.173029952171
 30
0.0
 10
3052.276791721482
 20
3015.464099853346
 30
0.0
 10
3045.894525568211
 20
3019.391648255358
 30
0.0
 10
3039.839555115108
 20
3023.155548807288
 30
0.0
 10
3036.239302413262
 20
3025.282970858378
 30
0.0
 10
3029.366092709739
 20
3029.210519260391
 30
0.0
 10
3025.274896457643
 20
3031.501589161565
 30
0.0
 10
3019.710869554791
 20
3035.429137563578
 30
0.0
 10
3014.146842651939
 20
3038.211151015004
 30
0.0
 10
3009.564702849591
 20
3041.484108016681
 30
0.0
 10
3004.000675946739
 20
3044.429769318191
 30
0.0
 10
2999.582183994474
 20
3047.211782769617
 30
0.0
 10
2996.963818393132
 20
3049.175556970624
 30
0.0
 10
2994.34545279179
 20
3050.975683321546
 30
0.0
 10
2991.890735040532
 20
3051.630274721882
 30
0.0
 10
2992.381678590784
 20
3053.430401072804
 30
0.0
 10
2994.34545279179
 20
3055.721470973979
 30
0.0
 10
2995.327339892293
 20
3057.685245174985
 30
0.0
 10
2999.091240444222
 20
3055.557823123895
 30
0.0
 10
3003.346084546403
 20
3052.284866122217
 30
0.0
 10
3018.238038904036
 20
3043.93882576794
 30
0.0
 10
3028.875149159488
 20
3037.883855314836
 30
0.0
 10
3039.675907265024
 20
3031.174293461397
 30
0.0
 10
3049.65842612014
 20
3024.792027308126
 30
0.0
 10
3065.859563278444
 20
3015.300452003261
 30
0.0
 10
3083.042587537251
 20
3005.481580998229
 30
0.0
 10
3087.952023039767
 20
3002.317722563274
 30
0.0
 10
3090.21581829926
 20
3000.89944119588
 30
0.0
  0
HATCH
  5
4AB
330
478
100
AcDbEntity
  8
Subfloor Pit
  6
Continuous
 62
    46
370
    13
100
AcDbHatch
 10
0.0
 20
0.0
 30
0.0
210
0.0
220
0.0
230
1.0
  2
SOLID
 70
     1
 71
     1
 91
        1
 92
        1
 93
        1
 72
     4
 94
        3
 73
     0
 74
     0
 95
       23
 96
       19
 40
0.0
 40
0.0
 40
0.0
 40
0.0
 40
0.0625
 40
0.125
 40
0.1875
 40
0.25
 40
0.3125
 40
0.375
 40
0.4375
 40
0.5
 40
0.5625
 40
0.625
 40
0.6875
 40
0.75
 40
0.8125
 40
0.875
 40
0.9375
 40
1.0
 40
1.0
 40
1.0
 40
1.0
 10
2904.098641351904
 20
3326.345158419598
 10
2904.300867782616
 20
3327.937691561456
 10
2905.109773505464
 20
3331.072201237492
 10
2906.019792443668
 20
3334.863946813342
 10
2909.811538019518
 20
3336.987324335818
 10
2914.968312002674
 20
3336.987324335818
 10
2919.518406693695
 20
3335.92563557458
 10
2923.310152269545
 20
3333.498918406036
 10
2925.585199615055
 20
3328.948823715016
 10
2925.736869438089
 20
3323.185370439723
 10
2924.220171207749
 20
3315.601879288023
 10
2920.276755808864
 20
3312.871822473411
 10
2917.546698994252
 20
3312.871822473411
 10
2913.2999439493
 20
3313.630171588581
 10
2907.688160497042
 20
3315.753549111057
 10
2904.351424390294
 20
3319.545294686907
 10
2903.896414921192
 20
3321.517002386349
 10
2903.896414921192
 20
3324.752625277741
 10
2904.098641351904
 20
3326.345158419598
 97
        1
330
FD
 75
     0
 76
     1
 98
        1
 10
0.0
 20
0.0
  0
SPLINE
  5
FD
102
{ACAD_REACTORS
330
4AB
102
}
330
478
100
AcDbEntity
  8
Subfloor Pit
  6
Continuous
 62
     7
370
    13
100
AcDbSpline
210
0.0
220
0.0
230
1.0
 70
    11
 71
     3
 72
    23
 73
    19
 74
     0
 42
0.0000000001
 43
0.00000001
 40
0.0
 40
0.0
 40
0.0
 40
0.0
 40
0.0625
 40
0.125
 40
0.1875
 40
0.25
 40
0.3125
 40
0.375
 40
0.4375
 40
0.5
 40
0.5625
 40
0.625
 40
0.6875
 40
0.75
 40
0.8125
 40
0.875
 40
0.9375
 40
1.0
 40
1.0
 40
1.0
 40
1.0
 10
2904.098641351904
 20
3326.345158419598
 30
0.0
 10
2904.300867782616
 20
3327.937691561456
 30
0.0
 10
2905.109773505464
 20
3331.072201237492
 30
0.0
 10
2906.019792443668
 20
3334.863946813342
 30
0.0
 10
2909.811538019518
 20
3336.987324335818
 30
0.0
 10
2914.968312002674
 20
3336.987324335818
 30
0.0
 10
2919.518406693695
 20
3335.92563557458
 30
0.0
 10
2923.310152269545
 20
3333.498918406036
 30
0.0
 10
2925.585199615055
 20
3328.948823715016
 30
0.0
 10
2925.736869438089
 20
3323.185370439723
 30
0.0
 10
2924.220171207749
 20
3315.601879288023
 30
0.0
 10
2920.276755808864
 20
3312.871822473411
 30
0.0
 10
2917.546698994252
 20
3312.871822473411
 30
0.0
 10
2913.2999439493
 20
3313.630171588581
 30
0.0
 10
2907.688160497042
 20
3315.753549111057
 30
0.0
 10
2904.351424390294
 20
3319.545294686907
 30
0.0
 10
2903.896414921192
 20
3321.517002386349
 30
0.0
 10
2903.896414921192
 20
3324.752625277741
 30
0.0
 10
2904.098641351904
 20
3326.345158419598
 30
0.0
  0
HATCH
  5
4AC
330
478
100
AcDbEntity
  8
Subfloor Pit
  6
Continuous
 62
    46
370
    13
100
AcDbHatch
 10
0.0
 20
0.0
 30
0.0
210
0.0
220
0.0
230
1.0
  2
SOLID
 70
     1
 71
     1
 91
        1
 92
        1
 93
        1
 72
     4
 94
        3
 73
     0
 74
     0
 95
       40
 96
       36
 40
0.0
 40
0.0
 40
0.0
 40
0.0
 40
0.0303030303030303
 40
0.0606060606060606
 40
0.0909090909090909
 40
0.1212121212121212
 40
0.1515151515151515
 40
0.1818181818181818
 40
0.2121212121212121
 40
0.2424242424242424
 40
0.2727272727272727
 40
0.303030303030303
 40
0.3333333333333333
 40
0.3636363636363635
 40
0.3939393939393938
 40
0.4242424242424241
 40
0.4545454545454544
 40
0.4848484848484846
 40
0.5151515151515149
 40
0.5454545454545452
 40
0.5757575757575755
 40
0.6060606060606057
 40
0.636363636363636
 40
0.6666666666666663
 40
0.6969696969696966
 40
0.7272727272727268
 40
0.7575757575757571
 40
0.7878787878787874
 40
0.8181818181818177
 40
0.848484848484848
 40
0.8787878787878782
 40
0.9090909090909085
 40
0.9393939393939388
 40
0.9696969696969691
 40
1.0
 40
1.0
 40
1.0
 40
1.0
 10
2854.426774308266
 20
3277.785536744877
 10
2855.665411196377
 20
3278.644999075402
 10
2858.09212836492
 20
3280.262810521099
 10
2859.608826595261
 20
3281.779508751438
 10
2861.580534294703
 20
3282.537857866609
 10
2864.462260932349
 20
3280.414480344132
 10
2867.950666862132
 20
3275.712715830078
 10
2873.107440845288
 20
3269.797592731752
 10
2876.292507129002
 20
3265.247498040731
 10
2879.932582881818
 20
3260.394063703644
 10
2885.847705980144
 20
3253.11391219801
 10
2888.577762794756
 20
3248.867157153058
 10
2889.639451555995
 20
3246.592109807548
 10
2887.819413679587
 20
3243.862052992936
 10
2882.055960404294
 20
3239.160288478882
 10
2876.899186421138
 20
3235.368542903032
 10
2873.56245031439
 20
3232.335146442351
 10
2871.439072791914
 20
3231.273457681114
 10
2869.77070473854
 20
3231.728467150215
 10
2866.130628985723
 20
3235.065203256964
 10
2863.248902348077
 20
3239.008618655848
 10
2858.850477480091
 20
3244.923741754174
 10
2856.423760311547
 20
3248.108808037888
 10
2854.148712966036
 20
3250.838864852501
 10
2852.177005266594
 20
3253.265582021045
 10
2849.143608805914
 20
3257.815676712065
 10
2847.020231283438
 20
3260.242393880609
 10
2845.351863230064
 20
3262.517441226119
 10
2843.076815884554
 20
3265.247498040731
 10
2842.92514606152
 20
3266.764196271072
 10
2842.773476238486
 20
3268.887573793548
 10
2844.138504645792
 20
3270.85928149299
 10
2848.385259690744
 20
3273.437668484568
 10
2850.660307036254
 20
3275.106036537942
 10
2853.188137420155
 20
3276.92607441435
 10
2854.426774308266
 20
3277.785536744877
 97
        1
330
FF
 75
     0
 76
     1
 98
        1
 10
0.0
 20
0.0
  0
SPLINE
  5
FF
102
{ACAD_REACTORS
330
4AC
102
}
330
478
100
AcDbEntity
  8
Subfloor Pit
  6
Continuous
 62
     7
370
    13
100
AcDbSpline
210
0.0
220
0.0
230
1.0
 70
    11
 71
     3
 72
    40
 73
    36
 74
     0
 42
0.0000000001
 43
0.00000001
 40
0.0
 40
0.0
 40
0.0
 40
0.0
 40
0.0303030303030303
 40
0.0606060606060606
 40
0.0909090909090909
 40
0.1212121212121212
 40
0.1515151515151515
 40
0.1818181818181818
 40
0.2121212121212121
 40
0.2424242424242424
 40
0.2727272727272727
 40
0.303030303030303
 40
0.3333333333333333
 40
0.3636363636363635
 40
0.3939393939393938
 40
0.4242424242424241
 40
0.4545454545454544
 40
0.4848484848484846
 40
0.5151515151515149
 40
0.5454545454545452
 40
0.5757575757575755
 40
0.6060606060606057
 40
0.636363636363636
 40
0.6666666666666663
 40
0.6969696969696966
 40
0.7272727272727268
 40
0.7575757575757571
 40
0.7878787878787874
 40
0.8181818181818177
 40
0.848484848484848
 40
0.8787878787878782
 40
0.9090909090909085
 40
0.9393939393939388
 40
0.9696969696969691
 40
1.0
 40
1.0
 40
1.0
 40
1.0
 10
2854.426774308266
 20
3277.785536744877
 30
0.0
 10
2855.665411196377
 20
3278.644999075402
 30
0.0
 10
2858.09212836492
 20
3280.262810521099
 30
0.0
 10
2859.608826595261
 20
3281.779508751438
 30
0.0
 10
2861.580534294703
 20
3282.537857866609
 30
0.0
 10
2864.462260932349
 20
3280.414480344132
 30
0.0
 10
2867.950666862132
 20
3275.712715830078
 30
0.0
 10
2873.107440845288
 20
3269.797592731752
 30
0.0
 10
2876.292507129002
 20
3265.247498040731
 30
0.0
 10
2879.932582881818
 20
3260.394063703644
 30
0.0
 10
2885.847705980144
 20
3253.11391219801
 30
0.0
 10
2888.577762794756
 20
3248.867157153058
 30
0.0
 10
2889.639451555995
 20
3246.592109807548
 30
0.0
 10
2887.819413679587
 20
3243.862052992936
 30
0.0
 10
2882.055960404294
 20
3239.160288478882
 30
0.0
 10
2876.899186421138
 20
3235.368542903032
 30
0.0
 10
2873.56245031439
 20
3232.335146442351
 30
0.0
 10
2871.439072791914
 20
3231.273457681114
 30
0.0
 10
2869.77070473854
 20
3231.728467150215
 30
0.0
 10
2866.130628985723
 20
3235.065203256964
 30
0.0
 10
2863.248902348077
 20
3239.008618655848
 30
0.0
 10
2858.850477480091
 20
3244.923741754174
 30
0.0
 10
2856.423760311547
 20
3248.108808037888
 30
0.0
 10
2854.148712966036
 20
3250.838864852501
 30
0.0
 10
2852.177005266594
 20
3253.265582021045
 30
0.0
 10
2849.143608805914
 20
3257.815676712065
 30
0.0
 10
2847.020231283438
 20
3260.242393880609
 30
0.0
 10
2845.351863230064
 20
3262.517441226119
 30
0.0
 10
2843.076815884554
 20
3265.247498040731
 30
0.0
 10
2842.92514606152
 20
3266.764196271072
 30
0.0
 10
2842.773476238486
 20
3268.887573793548
 30
0.0
 10
2844.138504645792
 20
3270.85928149299
 30
0.0
 10
2848.385259690744
 20
3273.437668484568
 30
0.0
 10
2850.660307036254
 20
3275.106036537942
 30
0.0
 10
2853.188137420155
 20
3276.92607441435
 30
0.0
 10
2854.426774308266
 20
3277.785536744877
 30
0.0
  0
HATCH
  5
4AD
330
478
100
AcDbEntity
  8
Subfloor Pit
  6
Continuous
 62
    46
370
    13
100
AcDbHatch
 10
0.0
 20
0.0
 30
0.0
210
0.0
220
0.0
230
1.0
  2
SOLID
 70
     1
 71
     1
 91
        1
 92
        1
 93
        1
 72
     4
 94
        3
 73
     0
 74
     0
 95
       42
 96
       38
 40
0.0
 40
0.0
 40
0.0
 40
0.0
 40
0.0285714285714286
 40
0.0571428571428571
 40
0.0857142857142857
 40
0.1142857142857143
 40
0.1428571428571429
 40
0.1714285714285714
 40
0.2
 40
0.2285714285714286
 40
0.2571428571428572
 40
0.2857142857142858
 40
0.3142857142857143
 40
0.3428571428571429
 40
0.3714285714285715
 40
0.4000000000000001
 40
0.4285714285714287
 40
0.4571428571428572
 40
0.4857142857142858
 40
0.5142857142857143
 40
0.5428571428571429
 40
0.5714285714285715
 40
0.6000000000000001
 40
0.6285714285714287
 40
0.6571428571428573
 40
0.6857142857142858
 40
0.7142857142857144
 40
0.742857142857143
 40
0.7714285714285716
 40
0.8000000000000002
 40
0.8285714285714287
 40
0.8571428571428573
 40
0.8857142857142859
 40
0.9142857142857145
 40
0.9428571428571431
 40
0.9714285714285716
 40
1.0
 40
1.0
 40
1.0
 40
1.0
 10
3255.669291144739
 20
3385.091936541438
 10
3256.781536513654
 20
3384.28303081859
 10
3258.500461174706
 20
3382.867445803606
 10
3261.230517989319
 20
3381.047407927198
 10
3263.353895511795
 20
3378.620690758653
 10
3263.353895511795
 20
3375.738964121008
 10
3260.168829228081
 20
3370.582190137851
 10
3256.832093121332
 20
3365.425416154695
 10
3253.798696660652
 20
3360.723651640641
 10
3250.765300199972
 20
3356.628566418722
 10
3247.580233916257
 20
3352.230141550736
 10
3245.911865862884
 20
3348.59006579792
 10
3243.030139225237
 20
3344.494980576002
 10
3241.058431525795
 20
3341.916593584423
 10
3239.390063472421
 20
3339.186536769811
 10
3236.508336834775
 20
3339.034866946777
 10
3233.019930904993
 20
3339.793216061947
 10
3228.01482674487
 20
3343.129952168695
 10
3223.313062230816
 20
3346.31501845241
 10
3219.369646831932
 20
3348.741735620954
 10
3216.032910725183
 20
3351.016782966464
 10
3214.667882317877
 20
3353.595169958042
 10
3215.274561610014
 20
3357.235245710859
 10
3217.549608955524
 20
3360.875321463675
 10
3222.554713115646
 20
3368.307142792341
 10
3225.284769930258
 20
3372.402228014259
 10
3227.2564776297
 20
3375.587294297974
 10
3229.986534444313
 20
3379.834049342926
 10
3232.716591258925
 20
3384.687483680014
 10
3235.143308427469
 20
3388.32755943283
 10
3238.025035065115
 20
3391.967635185647
 10
3239.390063472421
 20
3393.636003239021
 10
3241.665110817931
 20
3393.636003239021
 10
3244.850177101645
 20
3393.029323946884
 10
3248.490252854462
 20
3390.147597309239
 10
3251.82698896121
 20
3387.720880140694
 10
3254.557045775822
 20
3385.900842264286
 10
3255.669291144739
 20
3385.091936541438
 97
        1
330
10C
 75
     0
 76
     1
 98
        1
 10
0.0
 20
0.0
  0
SPLINE
  5
10C
102
{ACAD_REACTORS
330
4AD
102
}
330
478
100
AcDbEntity
  8
Subfloor Pit
  6
Continuous
 62
     7
370
    13
100
AcDbSpline
210
0.0
220
0.0
230
1.0
 70
    11
 71
     3
 72
    42
 73
    38
 74
     0
 42
0.0000000001
 43
0.00000001
 40
0.0
 40
0.0
 40
0.0
 40
0.0
 40
0.0285714285714286
 40
0.0571428571428571
 40
0.0857142857142857
 40
0.1142857142857143
 40
0.1428571428571429
 40
0.1714285714285714
 40
0.2
 40
0.2285714285714286
 40
0.2571428571428572
 40
0.2857142857142858
 40
0.3142857142857143
 40
0.3428571428571429
 40
0.3714285714285715
 40
0.4000000000000001
 40
0.4285714285714287
 40
0.4571428571428572
 40
0.4857142857142858
 40
0.5142857142857143
 40
0.5428571428571429
 40
0.5714285714285715
 40
0.6000000000000001
 40
0.6285714285714287
 40
0.6571428571428573
 40
0.6857142857142858
 40
0.7142857142857144
 40
0.742857142857143
 40
0.7714285714285716
 40
0.8000000000000002
 40
0.8285714285714287
 40
0.8571428571428573
 40
0.8857142857142859
 40
0.9142857142857145
 40
0.9428571428571431
 40
0.9714285714285716
 40
1.0
 40
1.0
 40
1.0
 40
1.0
 10
3255.669291144739
 20
3385.091936541438
 30
0.0
 10
3256.781536513654
 20
3384.28303081859
 30
0.0
 10
3258.500461174706
 20
3382.867445803606
 30
0.0
 10
3261.230517989319
 20
3381.047407927198
 30
0.0
 10
3263.353895511795
 20
3378.620690758653
 30
0.0
 10
3263.353895511795
 20
3375.738964121008
 30
0.0
 10
3260.168829228081
 20
3370.582190137851
 30
0.0
 10
3256.832093121332
 20
3365.425416154695
 30
0.0
 10
3253.798696660652
 20
3360.723651640641
 30
0.0
 10
3250.765300199972
 20
3356.628566418722
 30
0.0
 10
3247.580233916257
 20
3352.230141550736
 30
0.0
 10
3245.911865862884
 20
3348.59006579792
 30
0.0
 10
3243.030139225237
 20
3344.494980576002
 30
0.0
 10
3241.058431525795
 20
3341.916593584423
 30
0.0
 10
3239.390063472421
 20
3339.186536769811
 30
0.0
 10
3236.508336834775
 20
3339.034866946777
 30
0.0
 10
3233.019930904993
 20
3339.793216061947
 30
0.0
 10
3228.01482674487
 20
3343.129952168695
 30
0.0
 10
3223.313062230816
 20
3346.31501845241
 30
0.0
 10
3219.369646831932
 20
3348.741735620954
 30
0.0
 10
3216.032910725183
 20
3351.016782966464
 30
0.0
 10
3214.667882317877
 20
3353.595169958042
 30
0.0
 10
3215.274561610014
 20
3357.235245710859
 30
0.0
 10
3217.549608955524
 20
3360.875321463675
 30
0.0
 10
3222.554713115646
 20
3368.307142792341
 30
0.0
 10
3225.284769930258
 20
3372.402228014259
 30
0.0
 10
3227.2564776297
 20
3375.587294297974
 30
0.0
 10
3229.986534444313
 20
3379.834049342926
 30
0.0
 10
3232.716591258925
 20
3384.687483680014
 30
0.0
 10
3235.143308427469
 20
3388.32755943283
 30
0.0
 10
3238.025035065115
 20
3391.967635185647
 30
0.0
 10
3239.390063472421
 20
3393.636003239021
 30
0.0
 10
3241.665110817931
 20
3393.636003239021
 30
0.0
 10
3244.850177101645
 20
3393.029323946884
 30
0.0
 10
3248.490252854462
 20
3390.147597309239
 30
0.0
 10
3251.82698896121
 20
3387.720880140694
 30
0.0
 10
3254.557045775822
 20
3385.900842264286
 30
0.0
 10
3255.669291144739
 20
3385.091936541438
 30
0.0
  0
LWPOLYLINE
  5
150
330
478
100
AcDbEntity
  8
Key
  6
Continuous
 62
     7
370
     0
100
AcDbPolyline
 90
        4
 70
   129
 43
0.0
 10
1836.336616
 20
889.168225
 10
1126.172736
 20
889.168225
 10
1126.172736
 20
1494.634445
 10
1836.336616
 20
1494.634445
  0
HATCH
  5
4AE
330
478
100
AcDbEntity
  8
Key
  6
Continuous
 62
    46
370
    13
100
AcDbHatch
 10
0.0
 20
0.0
 30
0.0
210
0.0
220
0.0
230
1.0
  2
SOLID
 70
     1
 71
     1
 91
        1
 92
        1
 93
        1
 72
     4
 94
        3
 73
     0
 74
     0
 95
       42
 96
       38
 40
0.0
 40
0.0
 40
0.0
 40
0.0
 40
0.0285714285714286
 40
0.0571428571428571
 40
0.0857142857142857
 40
0.1142857142857143
 40
0.1428571428571429
 40
0.1714285714285714
 40
0.2
 40
0.2285714285714286
 40
0.2571428571428572
 40
0.2857142857142858
 40
0.3142857142857143
 40
0.3428571428571429
 40
0.3714285714285715
 40
0.4000000000000001
 40
0.4285714285714287
 40
0.4571428571428572
 40
0.4857142857142858
 40
0.5142857142857143
 40
0.5428571428571429
 40
0.5714285714285715
 40
0.6000000000000001
 40
0.6285714285714287
 40
0.6571428571428573
 40
0.6857142857142858
 40
0.7142857142857144
 40
0.742857142857143
 40
0.7714285714285716
 40
0.8000000000000002
 40
0.8285714285714287
 40
0.8571428571428573
 40
0.8857142857142859
 40
0.9142857142857145
 40
0.9428571428571431
 40
0.9714285714285716
 40
1.0
 40
1.0
 40
1.0
 40
1.0
 10
1193.954889453619
 20
1410.644287941311
 10
1194.243709895209
 20
1413.379659153605
 10
1194.976650402542
 20
1417.772509015915
 10
1195.398991661569
 20
1424.321144002781
 10
1197.478811570611
 20
1430.425658923903
 10
1202.470108520538
 20
1433.307385561549
 10
1214.586969346229
 20
1432.947462915839
 10
1226.855499994953
 20
1432.324840430657
 10
1238.0325914792
 20
1431.772608155314
 10
1248.158883605567
 20
1430.613696587834
 10
1258.962245233908
 20
1429.495424826953
 10
1266.93540943456
 20
1430.2458023456
 10
1276.910031737892
 20
1429.34959061759
 10
1283.347636708323
 20
1428.512879696061
 10
1289.744601872154
 20
1428.353238276503
 10
1292.88902834927
 20
1423.51361114961
 10
1295.063935081704
 20
1416.713165726632
 10
1294.289642773488
 20
1404.707334917378
 10
1293.474710658674
 20
1393.378573610098
 10
1293.214928626041
 20
1384.121660615336
 10
1292.611167140741
 20
1376.067216801488
 10
1289.510298277059
 20
1371.124531254681
 10
1282.598822837645
 20
1368.535254859745
 10
1274.018979344859
 20
1368.835676698976
 10
1256.141583050712
 20
1370.072950072816
 10
1246.318630570412
 20
1370.706461961356
 10
1238.830226242103
 20
1370.93649359075
 10
1228.744573922334
 20
1371.418335656256
 10
1217.608122244685
 20
1371.293498429625
 10
1208.876608928864
 20
1371.856620108328
 10
1199.69008614394
 20
1373.207841305439
 10
1195.435359502466
 20
1373.903771807294
 10
1193.160312156956
 20
1377.844269399342
 10
1191.026045231121
 20
1383.967645320347
 10
1192.377266428232
 20
1393.154168105269
 10
1193.243727753003
 20
1401.360281742151
 10
1193.666069012029
 20
1407.908916729017
 10
1193.954889453619
 20
1410.644287941311
 97
        1
330
20F
 75
     0
 76
     1
 98
        1
 10
0.0
 20
0.0
  0
SPLINE
  5
20F
102
{ACAD_REACTORS
330
4AE
102
}
330
478
100
AcDbEntity
  8
Key
  6
Continuous
 62
     7
370
    13
100
AcDbSpline
210
0.0
220
0.0
230
1.0
 70
    11
 71
     3
 72
    42
 73
    38
 74
     0
 42
0.0000000001
 43
0.00000001
 40
0.0
 40
0.0
 40
0.0
 40
0.0
 40
0.0285714285714286
 40
0.0571428571428571
 40
0.0857142857142857
 40
0.1142857142857143
 40
0.1428571428571429
 40
0.1714285714285714
 40
0.2
 40
0.2285714285714286
 40
0.2571428571428572
 40
0.2857142857142858
 40
0.3142857142857143
 40
0.3428571428571429
 40
0.3714285714285715
 40
0.4000000000000001
 40
0.4285714285714287
 40
0.4571428571428572
 40
0.4857142857142858
 40
0.5142857142857143
 40
0.5428571428571429
 40
0.5714285714285715
 40
0.6000000000000001
 40
0.6285714285714287
 40
0.6571428571428573
 40
0.6857142857142858
 40
0.7142857142857144
 40
0.742857142857143
 40
0.7714285714285716
 40
0.8000000000000002
 40
0.8285714285714287
 40
0.8571428571428573
 40
0.8857142857142859
 40
0.9142857142857145
 40
0.9428571428571431
 40
0.9714285714285716
 40
1.0
 40
1.0
 40
1.0
 40
1.0
 10
1193.954889453619
 20
1410.644287941311
 30
0.0
 10
1194.243709895209
 20
1413.379659153605
 30
0.0
 10
1194.976650402542
 20
1417.772509015915
 30
0.0
 10
1195.398991661569
 20
1424.321144002781
 30
0.0
 10
1197.478811570611
 20
1430.425658923903
 30
0.0
 10
1202.470108520538
 20
1433.307385561549
 30
0.0
 10
1214.586969346229
 20
1432.947462915839
 30
0.0
 10
1226.855499994953
 20
1432.324840430657
 30
0.0
 10
1238.0325914792
 20
1431.772608155314
 30
0.0
 10
1248.158883605567
 20
1430.613696587834
 30
0.0
 10
1258.962245233908
 20
1429.495424826953
 30
0.0
 10
1266.93540943456
 20
1430.2458023456
 30
0.0
 10
1276.910031737892
 20
1429.34959061759
 30
0.0
 10
1283.347636708323
 20
1428.512879696061
 30
0.0
 10
1289.744601872154
 20
1428.353238276503
 30
0.0
 10
1292.88902834927
 20
1423.51361114961
 30
0.0
 10
1295.063935081704
 20
1416.713165726632
 30
0.0
 10
1294.289642773488
 20
1404.707334917378
 30
0.0
 10
1293.474710658674
 20
1393.378573610098
 30
0.0
 10
1293.214928626041
 20
1384.121660615336
 30
0.0
 10
1292.611167140741
 20
1376.067216801488
 30
0.0
 10
1289.510298277059
 20
1371.124531254681
 30
0.0
 10
1282.598822837645
 20
1368.535254859745
 30
0.0
 10
1274.018979344859
 20
1368.835676698976
 30
0.0
 10
1256.141583050712
 20
1370.072950072816
 30
0.0
 10
1246.318630570412
 20
1370.706461961356
 30
0.0
 10
1238.830226242103
 20
1370.93649359075
 30
0.0
 10
1228.744573922334
 20
1371.418335656256
 30
0.0
 10
1217.608122244685
 20
1371.293498429625
 30
0.0
 10
1208.876608928864
 20
1371.856620108328
 30
0.0
 10
1199.69008614394
 20
1373.207841305439
 30
0.0
 10
1195.435359502466
 20
1373.903771807294
 30
0.0
 10
1193.160312156956
 20
1377.844269399342
 30
0.0
 10
1191.026045231121
 20
1383.967645320347
 30
0.0
 10
1192.377266428232
 20
1393.154168105269
 30
0.0
 10
1193.243727753003
 20
1401.360281742151
 30
0.0
 10
1193.666069012029
 20
1407.908916729017
 30
0.0
 10
1193.954889453619
 20
1410.644287941311
 30
0.0
  0
TEXT
  5
214
330
478
100
AcDbEntity
  8
Key
  6
Continuous
 62
     7
370
    13
100
AcDbText
 10
1381.924996
 20
1382.758997
 30
0.0
 40
48.0
  1
- Subfloor pit
  7
Style-Garamond
 11
1381.924996
 21
1430.758997
 31
0.0
100
AcDbText
 73
     3
  0
SPLINE
  5
215
102
{ACAD_REACTORS
330
4AF
330
4AF
102
}
330
478
100
AcDbEntity
  8
Key
  6
Continuous
 62
     7
370
    13
100
AcDbSpline
210
0.0
220
0.0
230
1.0
 70
    11
 71
     3
 72
    18
 73
    14
 74
     0
 42
0.0000000001
 43
0.00000001
 40
0.0
 40
0.0
 40
0.0
 40
0.0
 40
0.0909090909090909
 40
0.1818181818181818
 40
0.2727272727272727
 40
0.3636363636363637
 40
0.4545454545454546
 40
0.5454545454545455
 40
0.6363636363636365
 40
0.7272727272727274
 40
0.8181818181818183
 40
0.9090909090909093
 40
1.0
 40
1.0
 40
1.0
 40
1.0
 10
1242.150704490577
 20
1299.749969925887
 30
0.0
 10
1251.96957549561
 20
1300.622758459667
 30
0.0
 10
1271.170923238783
 20
1301.495546993448
 30
0.0
 10
1273.789288840126
 20
1279.239439382043
 30
0.0
 10
1273.789288840126
 20
1263.529245773991
 30
0.0
 10
1277.716837242141
 20
1246.509869365268
 30
0.0
 10
1252.842364029388
 20
1246.509869365268
 30
0.0
 10
1230.586256417983
 20
1239.96395536191
 30
0.0
 10
1216.185245610603
 20
1245.200686564596
 30
0.0
 10
1209.639331607249
 20
1270.075159777345
 30
0.0
 10
1209.639331607249
 20
1292.331267388751
 30
0.0
 10
1212.257697208588
 20
1296.258815790766
 30
0.0
 10
1232.331833485545
 20
1298.877181392106
 30
0.0
 10
1242.150704490577
 20
1299.749969925887
 30
0.0
  0
HATCH
  5
4AF
330
478
100
AcDbEntity
  8
Key
  6
Continuous
 62
     7
370
    13
100
AcDbHatch
 10
0.0
 20
0.0
 30
0.0
210
0.0
220
0.0
230
1.0
  2
SOLID
 70
     1
 71
     1
 91
        1
 92
        1
 93
        1
 72
     4
 94
        3
 73
     0
 74
     0
 95
       18
 96
       14
 40
0.0
 40
0.0
 40
0.0
 40
0.0
 40
0.0909090909090909
 40
0.1818181818181818
 40
0.2727272727272727
 40
0.3636363636363637
 40
0.4545454545454546
 40
0.5454545454545455
 40
0.6363636363636365
 40
0.7272727272727274
 40
0.8181818181818183
 40
0.9090909090909093
 40
1.0
 40
1.0
 40
1.0
 40
1.0
 10
1242.150704490577
 20
1299.749969925887
 10
1251.96957549561
 20
1300.622758459667
 10
1271.170923238783
 20
1301.495546993448
 10
1273.789288840126
 20
1279.239439382043
 10
1273.789288840126
 20
1263.529245773991
 10
1277.716837242141
 20
1246.509869365268
 10
1252.842364029388
 20
1246.509869365268
 10
1230.586256417983
 20
1239.96395536191
 10
1216.185245610603
 20
1245.200686564596
 10
1209.639331607249
 20
1270.075159777345
 10
1209.639331607249
 20
1292.331267388751
 10
1212.257697208588
 20
1296.258815790766
 10
1232.331833485545
 20
1298.877181392106
 10
1242.150704490577
 20
1299.749969925887
 97
        1
330
215
 75
     0
 76
     1
 98
        1
 10
0.0
 20
0.0
  0
TEXT
  5
217
330
478
100
AcDbEntity
  8
Key
  6
Continuous
 62
     7
370
    13
100
AcDbText
 10
1375.55757
 20
1264.338674
 30
0.0
 40
48.0
  1
- Driven post
  7
Style-Garamond
 11
1375.55757
 21
1312.338674
 31
0.0
100
AcDbText
 73
     3
  0
HATCH
  5
4B0
330
478
100
AcDbEntity
  8
Key
  6
Continuous
 62
    54
370
    13
100
AcDbHatch
 10
0.0
 20
0.0
 30
0.0
210
0.0
220
0.0
230
1.0
  2
SOLID
 70
     1
 71
     1
 91
        1
 92
        1
 93
        1
 72
     4
 94
        3
 73
     0
 74
     0
 95
       71
 96
       67
 40
0.0
 40
0.0
 40
0.0
 40
0.0
 40
0.015625
 40
0.03125
 40
0.046875
 40
0.0625
 40
0.078125
 40
0.09375
 40
0.109375
 40
0.125
 40
0.140625
 40
0.15625
 40
0.171875
 40
0.1875
 40
0.203125
 40
0.21875
 40
0.234375
 40
0.25
 40
0.265625
 40
0.28125
 40
0.296875
 40
0.3125
 40
0.328125
 40
0.34375
 40
0.359375
 40
0.375
 40
0.390625
 40
0.40625
 40
0.421875
 40
0.4375
 40
0.453125
 40
0.46875
 40
0.484375
 40
0.5
 40
0.515625
 40
0.53125
 40
0.546875
 40
0.5625
 40
0.578125
 40
0.59375
 40
0.609375
 40
0.625
 40
0.640625
 40
0.65625
 40
0.671875
 40
0.6875
 40
0.703125
 40
0.71875
 40
0.734375
 40
0.75
 40
0.765625
 40
0.78125
 40
0.796875
 40
0.8125
 40
0.828125
 40
0.84375
 40
0.859375
 40
0.875
 40
0.890625
 40
0.90625
 40
0.921875
 40
0.9375
 40
0.953125
 40
0.96875
 40
0.984375
 40
1.0
 40
1.0
 40
1.0
 40
1.0
 10
1238.849716848703
 20
1163.854064333217
 10
1240.521328572153
 20
1163.285909882934
 10
1243.367221077719
 20
1162.792051894181
 10
1249.689739298858
 20
1160.8233084125
 10
1253.330173364455
 20
1164.599245474888
 10
1257.479648636172
 20
1165.223886387289
 10
1262.710380839334
 20
1164.16676586396
 10
1269.313742379868
 20
1162.547720500725
 10
1274.523416409963
 20
1159.950323022645
 10
1282.22909305501
 20
1158.189793178429
 10
1285.297311395283
 20
1160.496195526557
 10
1288.235637162392
 20
1163.397887292838
 10
1294.115832231373
 20
1159.364319678741
 10
1298.384670989721
 20
1158.623532695612
 10
1300.199623479252
 20
1160.12643198812
 10
1301.603840076224
 20
1161.874922580339
 10
1304.34909875097
 20
1160.751072900519
 10
1308.210745151523
 20
1150.418926070438
 10
1314.571937701788
 20
1131.086695727562
 10
1319.613146347348
 20
1116.167082611473
 10
1318.089566263746
 20
1115.784019914784
 10
1315.832290622056
 20
1112.21629648986
 10
1313.70490755353
 20
1108.053283646782
 10
1308.396928209871
 20
1113.556385975143
 10
1305.651669535126
 20
1114.680235654961
 10
1302.183244388828
 20
1113.38956308392
 10
1299.796076173975
 20
1110.417129077146
 10
1296.239874800646
 20
1112.802299833764
 10
1291.486596544005
 20
1108.397708774976
 10
1283.089340687007
 20
1110.054131800455
 10
1276.356086573309
 20
1112.268466581845
 10
1271.156941629747
 20
1115.636002537302
 10
1265.76472959382
 20
1114.977997046658
 10
1261.085154942914
 20
1115.964375329498
 10
1256.956737844264
 20
1116.880011371847
 10
1250.894004769451
 20
1117.658176017222
 10
1248.355885808368
 20
1113.740754473852
 10
1242.086013019895
 20
1119.560190342411
 10
1239.990217210969
 20
1117.70759293146
 10
1235.570427706389
 20
1117.503392377996
 10
1233.344739324301
 20
1116.246084385197
 10
1228.805586333092
 20
1117.407311727258
 10
1224.40685500158
 20
1118.743388128543
 10
1222.061803132859
 20
1118.851508031275
 10
1217.912327861141
 20
1118.226867118877
 10
1215.556746905888
 20
1117.564848544234
 10
1210.368131048861
 20
1121.702522977062
 10
1207.980962834007
 20
1118.730088970291
 10
1203.613818762096
 20
1122.3765808037
 10
1200.826443741216
 20
1120.419876574019
 10
1197.530027514216
 20
1121.614468494325
 10
1194.805827012538
 20
1124.278595128895
 10
1192.481833316885
 20
1125.926991986377
 10
1192.829394690242
 20
1121.060569822416
 10
1188.037442104476
 20
1134.019465624821
 10
1180.87583594216
 20
1155.383155521869
 10
1175.293998830877
 20
1171.143649355822
 10
1177.509158126434
 20
1171.630818871243
 10
1182.136087344673
 20
1166.793748201524
 10
1190.726410294037
 20
1169.162866622143
 10
1197.09104486131
 20
1170.274677049966
 10
1204.92661407952
 20
1167.918857787597
 10
1212.611232551499
 20
1164.618050988631
 10
1222.963862557725
 20
1164.639376314881
 10
1233.33755073702
 20
1166.200978595879
 10
1237.178105125254
 20
1164.4222187835
 10
1238.849716848703
 20
1163.854064333217
 97
        1
330
21D
 75
     0
 76
     1
 98
        1
 10
0.0
 20
0.0
  0
SPLINE
  5
21D
102
{ACAD_REACTORS
330
4B0
102
}
330
478
100
AcDbEntity
  8
Key
  6
Continuous
 62
     7
370
    13
100
AcDbSpline
210
0.0
220
0.0
230
1.0
 70
    11
 71
     3
 72
    71
 73
    67
 74
     0
 42
0.0000000001
 43
0.00000001
 40
0.0
 40
0.0
 40
0.0
 40
0.0
 40
0.015625
 40
0.03125
 40
0.046875
 40
0.0625
 40
0.078125
 40
0.09375
 40
0.109375
 40
0.125
 40
0.140625
 40
0.15625
 40
0.171875
 40
0.1875
 40
0.203125
 40
0.21875
 40
0.234375
 40
0.25
 40
0.265625
 40
0.28125
 40
0.296875
 40
0.3125
 40
0.328125
 40
0.34375
 40
0.359375
 40
0.375
 40
0.390625
 40
0.40625
 40
0.421875
 40
0.4375
 40
0.453125
 40
0.46875
 40
0.484375
 40
0.5
 40
0.515625
 40
0.53125
 40
0.546875
 40
0.5625
 40
0.578125
 40
0.59375
 40
0.609375
 40
0.625
 40
0.640625
 40
0.65625
 40
0.671875
 40
0.6875
 40
0.703125
 40
0.71875
 40
0.734375
 40
0.75
 40
0.765625
 40
0.78125
 40
0.796875
 40
0.8125
 40
0.828125
 40
0.84375
 40
0.859375
 40
0.875
 40
0.890625
 40
0.90625
 40
0.921875
 40
0.9375
 40
0.953125
 40
0.96875
 40
0.984375
 40
1.0
 40
1.0
 40
1.0
 40
1.0
 10
1238.849716848703
 20
1163.854064333217
 30
0.0
 10
1240.521328572153
 20
1163.285909882934
 30
0.0
 10
1243.367221077719
 20
1162.792051894181
 30
0.0
 10
1249.689739298858
 20
1160.8233084125
 30
0.0
 10
1253.330173364455
 20
1164.599245474888
 30
0.0
 10
1257.479648636172
 20
1165.223886387289
 30
0.0
 10
1262.710380839334
 20
1164.16676586396
 30
0.0
 10
1269.313742379868
 20
1162.547720500725
 30
0.0
 10
1274.523416409963
 20
1159.950323022645
 30
0.0
 10
1282.22909305501
 20
1158.189793178429
 30
0.0
 10
1285.297311395283
 20
1160.496195526557
 30
0.0
 10
1288.235637162392
 20
1163.397887292838
 30
0.0
 10
1294.115832231373
 20
1159.364319678741
 30
0.0
 10
1298.384670989721
 20
1158.623532695612
 30
0.0
 10
1300.199623479252
 20
1160.12643198812
 30
0.0
 10
1301.603840076224
 20
1161.874922580339
 30
0.0
 10
1304.34909875097
 20
1160.751072900519
 30
0.0
 10
1308.210745151523
 20
1150.418926070438
 30
0.0
 10
1314.571937701788
 20
1131.086695727562
 30
0.0
 10
1319.613146347348
 20
1116.167082611473
 30
0.0
 10
1318.089566263746
 20
1115.784019914784
 30
0.0
 10
1315.832290622056
 20
1112.21629648986
 30
0.0
 10
1313.70490755353
 20
1108.053283646782
 30
0.0
 10
1308.396928209871
 20
1113.556385975143
 30
0.0
 10
1305.651669535126
 20
1114.680235654961
 30
0.0
 10
1302.183244388828
 20
1113.38956308392
 30
0.0
 10
1299.796076173975
 20
1110.417129077146
 30
0.0
 10
1296.239874800646
 20
1112.802299833764
 30
0.0
 10
1291.486596544005
 20
1108.397708774976
 30
0.0
 10
1283.089340687007
 20
1110.054131800455
 30
0.0
 10
1276.356086573309
 20
1112.268466581845
 30
0.0
 10
1271.156941629747
 20
1115.636002537302
 30
0.0
 10
1265.76472959382
 20
1114.977997046658
 30
0.0
 10
1261.085154942914
 20
1115.964375329498
 30
0.0
 10
1256.956737844264
 20
1116.880011371847
 30
0.0
 10
1250.894004769451
 20
1117.658176017222
 30
0.0
 10
1248.355885808368
 20
1113.740754473852
 30
0.0
 10
1242.086013019895
 20
1119.560190342411
 30
0.0
 10
1239.990217210969
 20
1117.70759293146
 30
0.0
 10
1235.570427706389
 20
1117.503392377996
 30
0.0
 10
1233.344739324301
 20
1116.246084385197
 30
0.0
 10
1228.805586333092
 20
1117.407311727258
 30
0.0
 10
1224.40685500158
 20
1118.743388128543
 30
0.0
 10
1222.061803132859
 20
1118.851508031275
 30
0.0
 10
1217.912327861141
 20
1118.226867118877
 30
0.0
 10
1215.556746905888
 20
1117.564848544234
 30
0.0
 10
1210.368131048861
 20
1121.702522977062
 30
0.0
 10
1207.980962834007
 20
1118.730088970291
 30
0.0
 10
1203.613818762096
 20
1122.3765808037
 30
0.0
 10
1200.826443741216
 20
1120.419876574019
 30
0.0
 10
1197.530027514216
 20
1121.614468494325
 30
0.0
 10
1194.805827012538
 20
1124.278595128895
 30
0.0
 10
1192.481833316885
 20
1125.926991986377
 30
0.0
 10
1192.829394690242
 20
1121.060569822416
 30
0.0
 10
1188.037442104476
 20
1134.019465624821
 30
0.0
 10
1180.87583594216
 20
1155.383155521869
 30
0.0
 10
1175.293998830877
 20
1171.143649355822
 30
0.0
 10
1177.509158126434
 20
1171.630818871243
 30
0.0
 10
1182.136087344673
 20
1166.793748201524
 30
0.0
 10
1190.726410294037
 20
1169.162866622143
 30
0.0
 10
1197.09104486131
 20
1170.274677049966
 30
0.0
 10
1204.92661407952
 20
1167.918857787597
 30
0.0
 10
1212.611232551499
 20
1164.618050988631
 30
0.0
 10
1222.963862557725
 20
1164.639376314881
 30
0.0
 10
1233.33755073702
 20
1166.200978595879
 30
0.0
 10
1237.178105125254
 20
1164.4222187835
 30
0.0
 10
1238.849716848703
 20
1163.854064333217
 30
0.0
  0
TEXT
  5
21F
330
478
100
AcDbEntity
  8
Key
  6
Continuous
 62
     7
370
    13
100
AcDbText
 10
1372.095603
 20
1126.422249
 30
0.0
 40
48.0
  1
- Trench
  7
Style-Garamond
 11
1372.095603
 21
1174.422249
 31
0.0
100
AcDbText
 73
     3
  0
LINE
  5
222
330
478
100
AcDbEntity
  8
Feature Numbers
  6
Continuous
 62
     7
370
    13
100
AcDbLine
 10
2930.94165
 20
3359.251892
 30
0.0
 11
2950.254401
 21
3323.899946
 31
0.0
  0
LINE
  5
223
330
478
100
AcDbEntity
  8
Feature Numbers
  6
Continuous
 62
     7
370
    13
100
AcDbLine
 10
2947.772391
 20
3274.603036
 30
0.0
 11
2947.772391
 21
3212.062264
 31
0.0
  0
TEXT
  5
2F2
330
478
100
AcDbEntity
  8
STPs
  6
Continuous
 62
     7
370
    13
100
AcDbText
 10
6235.641058
 20
-805.374777
 30
0.0
 40
144.0
  1
A
  7
Style-Garamond
 11
6235.641058
 21
-661.374777
 31
0.0
100
AcDbText
 73
     3
  0
TEXT
  5
2F3
330
478
100
AcDbEntity
  8
STPs
  6
Continuous
 62
     7
370
    13
100
AcDbText
 10
6235.641058
 20
-205.374777
 30
0.0
 40
144.0
  1
B
  7
Style-Garamond
 11
6235.641058
 21
-61.374777
 31
0.0
100
AcDbText
 73
     3
  0
TEXT
  5
2F4
330
478
100
AcDbEntity
  8
STPs
  6
Continuous
 62
     7
370
    13
100
AcDbText
 10
6235.641058
 20
394.625223
 30
0.0
 40
144.0
  1
C
  7
Style-Garamond
 11
6235.641058
 21
538.625223
 31
0.0
100
AcDbText
 73
     3
  0
TEXT
  5
2F5
330
478
100
AcDbEntity
  8
STPs
  6
Continuous
 62
     7
370
    13
100
AcDbText
 10
6235.641058
 20
994.625223
 30
0.0
 40
144.0
  1
D
  7
Style-Garamond
 11
6235.641058
 21
1138.625223
 31
0.0
100
AcDbText
 73
     3
  0
TEXT
  5
2F6
330
478
100
AcDbEntity
  8
STPs
  6
Continuous
 62
     7
370
    13
100
AcDbText
 10
6235.641058
 20
1594.625223
 30
0.0
 40
144.0
  1
E
  7
Style-Garamond
 11
6235.641058
 21
1738.625223
 31
0.0
100
AcDbText
 73
     3
  0
TEXT
  5
2F7
330
478
100
AcDbEntity
  8
STPs
  6
Continuous
 62
     7
370
    13
100
AcDbText
 10
6235.641058
 20
2194.625223
 30
0.0
 40
144.0
  1
F
  7
Style-Garamond
 11
6235.641058
 21
2338.625223
 31
0.0
100
AcDbText
 73
     3
  0
TEXT
  5
2F8
330
478
100
AcDbEntity
  8
STPs
  6
Continuous
 62
     7
370
    13
100
AcDbText
 10
6235.641058
 20
2794.625223
 30
0.0
 40
144.0
  1
G
  7
Style-Garamond
 11
6235.641058
 21
2938.625223
 31
0.0
100
AcDbText
 73
     3
  0
TEXT
  5
2F9
330
478
100
AcDbEntity
  8
STPs
  6
Continuous
 62
     7
370
    13
100
AcDbText
 10
6235.641058
 20
3394.625223
 30
0.0
 40
144.0
  1
H
  7
Style-Garamond
 11
6235.641058
 21
3538.625223
 31
0.0
100
AcDbText
 73
     3
  0
TEXT
  5
2FA
330
478
100
AcDbEntity
  8
STPs
  6
Continuous
 62
     7
370
    13
100
AcDbText
 10
6235.641058
 20
3994.625223
 30
0.0
 40
144.0
  1
I
  7
Style-Garamond
 11
6235.641058
 21
4138.625223
 31
0.0
100
AcDbText
 73
     3
  0
TEXT
  5
2FB
330
478
100
AcDbEntity
  8
STPs
  6
Continuous
 62
     7
370
    13
100
AcDbText
 10
6235.641058
 20
4594.625223
 30
0.0
 40
144.0
  1
J
  7
Style-Garamond
 11
6235.641058
 21
4738.625223
 31
0.0
100
AcDbText
 73
     3
  0
TEXT
  5
2FC
330
478
100
AcDbEntity
  8
STPs
  6
Continuous
 62
     7
370
    13
100
AcDbText
 10
6235.641058
 20
5194.625223
 30
0.0
 40
144.0
  1
K
  7
Style-Garamond
 11
6235.641058
 21
5338.625223
 31
0.0
100
AcDbText
 73
     3
  0
TEXT
  5
2FD
330
478
100
AcDbEntity
  8
STPs
  6
Continuous
 62
     7
370
    13
100
AcDbText
 10
6235.641058
 20
5794.625223
 30
0.0
 40
144.0
  1
L
  7
Style-Garamond
 11
6235.641058
 21
5938.625223
 31
0.0
100
AcDbText
 73
     3
  0
TEXT
  5
2FE
330
478
100
AcDbEntity
  8
STPs
  6
Continuous
 62
     7
370
    13
100
AcDbText
 10
5519.933482
 20
-1532.815265
 30
0.0
 40
144.0
  1
1
  7
Style-Garamond
 11
5519.933482
 21
-1388.815265
 31
0.0
100
AcDbText
 73
     3
  0
TEXT
  5
2FF
330
478
100
AcDbEntity
  8
STPs
  6
Continuous
 62
     7
370
    13
100
AcDbText
 10
4919.933482
 20
-1532.815265
 30
0.0
 40
144.0
  1
2
  7
Style-Garamond
 11
4919.933482
 21
-1388.815265
 31
0.0
100
AcDbText
 73
     3
  0
TEXT
  5
300
330
478
100
AcDbEntity
  8
STPs
  6
Continuous
 62
     7
370
    13
100
AcDbText
 10
4319.933482
 20
-1532.815265
 30
0.0
 40
144.0
  1
3
  7
Style-Garamond
 11
4319.933482
 21
-1388.815265
 31
0.0
100
AcDbText
 73
     3
  0
TEXT
  5
301
330
478
100
AcDbEntity
  8
STPs
  6
Continuous
 62
     7
370
    13
100
AcDbText
 10
3719.933482
 20
-1532.815265
 30
0.0
 40
144.0
  1
4
  7
Style-Garamond
 11
3719.933482
 21
-1388.815265
 31
0.0
100
AcDbText
 73
     3
  0
TEXT
  5
302
330
478
100
AcDbEntity
  8
STPs
  6
Continuous
 62
     7
370
    13
100
AcDbText
 10
3119.933482
 20
-1532.815265
 30
0.0
 40
144.0
  1
5
  7
Style-Garamond
 11
3119.933482
 21
-1388.815265
 31
0.0
100
AcDbText
 73
     3
  0
TEXT
  5
303
330
478
100
AcDbEntity
  8
STPs
  6
Continuous
 62
     7
370
    13
100
AcDbText
 10
2519.933482
 20
-1532.815265
 30
0.0
 40
144.0
  1
6
  7
Style-Garamond
 11
2519.933482
 21
-1388.815265
 31
0.0
100
AcDbText
 73
     3
  0
TEXT
  5
304
330
478
100
AcDbEntity
  8
STPs
  6
Continuous
 62
     7
370
    13
100
AcDbText
 10
1919.933482
 20
-1532.815265
 30
0.0
 40
144.0
  1
7
  7
Style-Garamond
 11
1919.933482
 21
-1388.815265
 31
0.0
100
AcDbText
 73
     3
  0
TEXT
  5
305
330
478
100
AcDbEntity
  8
STPs
  6
Continuous
 62
     7
370
    13
100
AcDbText
 10
1319.933482
 20
-1532.815265
 30
0.0
 40
144.0
  1
8
  7
Style-Garamond
 11
1319.933482
 21
-1388.815265
 31
0.0
100
AcDbText
 73
     3
  0
TEXT
  5
306
330
478
100
AcDbEntity
  8
STPs
  6
Continuous
 62
     7
370
    13
100
AcDbText
 10
719.933482
 20
-1532.815265
 30
0.0
 40
144.0
  1
9
  7
Style-Garamond
 11
719.933482
 21
-1388.815265
 31
0.0
100
AcDbText
 73
     3
  0
TEXT
  5
307
330
478
100
AcDbEntity
  8
STPs
  6
Continuous
 62
     7
370
    13
100
AcDbText
 10
119.933482
 20
-1532.815265
 30
0.0
 40
144.0
  1
10
  7
Style-Garamond
 11
119.933482
 21
-1388.815265
 31
0.0
100
AcDbText
 73
     3
  0
TEXT
  5
308
330
478
100
AcDbEntity
  8
STPs
  6
Continuous
 62
     7
370
    13
100
AcDbText
 10
-480.066518
 20
-1532.815265
 30
0.0
 40
144.0
  1
11
  7
Style-Garamond
 11
-480.066518
 21
-1388.815265
 31
0.0
100
AcDbText
 73
     3
  0
TEXT
  5
309
330
478
100
AcDbEntity
  8
STPs
  6
Continuous
 62
     7
370
    13
100
AcDbText
 10
-1080.066518
 20
-1532.815265
 30
0.0
 40
144.0
  1
12
  7
Style-Garamond
 11
-1080.066518
 21
-1388.815265
 31
0.0
100
AcDbText
 73
     3
  0
TEXT
  5
30A
330
478
100
AcDbEntity
  8
STPs
  6
Continuous
 62
     7
370
    13
100
AcDbText
 10
-1680.066518
 20
-1532.815265
 30
0.0
 40
144.0
  1
13
  7
Style-Garamond
 11
-1680.066518
 21
-1388.815265
 31
0.0
100
AcDbText
 73
     3
  0
TEXT
  5
30B
330
478
100
AcDbEntity
  8
STPs
  6
Continuous
 62
     7
370
    13
100
AcDbText
 10
-2280.066518
 20
-1532.815265
 30
0.0
 40
144.0
  1
14
  7
Style-Garamond
 11
-2280.066518
 21
-1388.815265
 31
0.0
100
AcDbText
 73
     3
  0
TEXT
  5
30C
330
478
100
AcDbEntity
  8
STPs
  6
Continuous
 62
     7
370
    13
100
AcDbText
 10
-2880.066518
 20
-1532.815265
 30
0.0
 40
144.0
  1
15
  7
Style-Garamond
 11
-2880.066518
 21
-1388.815265
 31
0.0
100
AcDbText
 73
     3
  0
TEXT
  5
30D
330
478
100
AcDbEntity
  8
STPs
  6
Continuous
 62
     7
370
    13
100
AcDbText
 10
-3480.066518
 20
-1532.815265
 30
0.0
 40
144.0
  1
16
  7
Style-Garamond
 11
-3480.066518
 21
-1388.815265
 31
0.0
100
AcDbText
 73
     3
  0
TEXT
  5
30E
330
478
100
AcDbEntity
  8
STPs
  6
Continuous
 62
     7
370
    13
100
AcDbText
 10
-4080.066518
 20
-1532.815265
 30
0.0
 40
144.0
  1
17
  7
Style-Garamond
 11
-4080.066518
 21
-1388.815265
 31
0.0
100
AcDbText
 73
     3
  0
TEXT
  5
316
330
478
100
AcDbEntity
  8
STPs
  6
Continuous
 62
     7
370
    13
100
AcDbText
 10
-8752.015717
 20
-1532.815265
 30
0.0
 40
144.0
  1
25
  7
Style-Garamond
 11
-8752.015717
 21
-1388.815265
 31
0.0
100
AcDbText
 73
     3
  0
TEXT
  5
317
330
478
100
AcDbEntity
  8
STPs
  6
Continuous
 62
     7
370
    13
100
AcDbText
 10
-9349.520584
 20
-1532.815265
 30
0.0
 40
144.0
  1
26
  7
Style-Garamond
 11
-9349.520584
 21
-1388.815265
 31
0.0
100
AcDbText
 73
     3
  0
TEXT
  5
31A
330
478
100
AcDbEntity
  8
STPs
  6
Continuous
 62
     7
370
    13
100
AcDbText
 10
-8113.709195
 20
-711.511489
 30
0.0
 40
144.0
  1
A
  7
Style-Garamond
 11
-8113.709195
 21
-567.511489
 31
0.0
100
AcDbText
 73
     3
  0
TEXT
  5
31B
330
478
100
AcDbEntity
  8
STPs
  6
Continuous
 62
     7
370
    13
100
AcDbText
 10
-8113.709195
 20
-111.511489
 30
0.0
 40
144.0
  1
B
  7
Style-Garamond
 11
-8113.709195
 21
32.488511
 31
0.0
100
AcDbText
 73
     3
  0
TEXT
  5
31C
330
478
100
AcDbEntity
  8
STPs
  6
Continuous
 62
     7
370
    13
100
AcDbText
 10
-8113.709195
 20
488.488511
 30
0.0
 40
144.0
  1
C
  7
Style-Garamond
 11
-8113.709195
 21
632.488511
 31
0.0
100
AcDbText
 73
     3
  0
TEXT
  5
31D
330
478
100
AcDbEntity
  8
STPs
  6
Continuous
 62
     7
370
    13
100
AcDbText
 10
-8113.709195
 20
1088.488511
 30
0.0
 40
144.0
  1
D
  7
Style-Garamond
 11
-8113.709195
 21
1232.488511
 31
0.0
100
AcDbText
 73
     3
  0
TEXT
  5
31F
330
478
100
AcDbEntity
  8
STPs
  6
Continuous
 62
     7
370
    13
100
AcDbText
 10
-8113.709195
 20
2288.488511
 30
0.0
 40
144.0
  1
F
  7
Style-Garamond
 11
-8113.709195
 21
2432.488511
 31
0.0
100
AcDbText
 73
     3
  0
TEXT
  5
320
330
478
100
AcDbEntity
  8
STPs
  6
Continuous
 62
     7
370
    13
100
AcDbText
 10
-8113.709195
 20
2888.488511
 30
0.0
 40
144.0
  1
G
  7
Style-Garamond
 11
-8113.709195
 21
3032.488511
 31
0.0
100
AcDbText
 73
     3
  0
TEXT
  5
321
330
478
100
AcDbEntity
  8
STPs
  6
Continuous
 62
     7
370
    13
100
AcDbText
 10
-8113.709195
 20
3488.488511
 30
0.0
 40
144.0
  1
H
  7
Style-Garamond
 11
-8113.709195
 21
3632.488511
 31
0.0
100
AcDbText
 73
     3
  0
TEXT
  5
322
330
478
100
AcDbEntity
  8
STPs
  6
Continuous
 62
     7
370
    13
100
AcDbText
 10
-8113.709195
 20
4088.488511
 30
0.0
 40
144.0
  1
I
  7
Style-Garamond
 11
-8113.709195
 21
4232.488511
 31
0.0
100
AcDbText
 73
     3
  0
TEXT
  5
323
330
478
100
AcDbEntity
  8
STPs
  6
Continuous
 62
     7
370
    13
100
AcDbText
 10
-8113.709195
 20
4688.488511
 30
0.0
 40
144.0
  1
J
  7
Style-Garamond
 11
-8113.709195
 21
4832.488511
 31
0.0
100
AcDbText
 73
     3
  0
TEXT
  5
AB
330
478
100
AcDbEntity
  8
Quadrat Numbers
  6
Continuous
 62
     7
370
     0
100
AcDbText
 10
2856.551295
 20
3482.442254
 30
0.0
 40
30.0
  1
01
 50
359.499994
  7
Style-Garamond
 11
2856.813094
 21
3512.441112
 31
0.0
100
AcDbText
 73
     3
  0
TEXT
  5
B3
330
478
100
AcDbEntity
  8
Quadrat Numbers
  6
Continuous
 62
     7
370
     0
100
AcDbText
 10
1965.178119
 20
2853.982449
 30
0.0
 40
30.0
  1
02
 50
359.499994
  7
Style-Garamond
 11
1965.439918
 21
2883.981307
 31
0.0
100
AcDbText
 73
     3
  0
TEXT
  5
D0
330
478
100
AcDbEntity
  8
Quadrat Numbers
  6
Continuous
 62
     7
370
     0
100
AcDbText
 10
2566.136208
 20
1498.023907
 30
0.0
 40
30.0
  1
03
 50
359.499994
  7
Style-Garamond
 11
2566.398007
 21
1528.022765
 31
0.0
100
AcDbText
 73
     3
  0
TEXT
  5
B2
330
478
100
AcDbEntity
  8
Quadrat Numbers
  6
Continuous
 62
     7
370
     0
100
AcDbText
 10
2976.551295
 20
3422.442254
 30
0.0
 40
30.0
  1
04
 50
359.499994
  7
Style-Garamond
 11
2976.813094
 21
3452.441112
 31
0.0
100
AcDbText
 73
     3
  0
TEXT
  5
AC
330
478
100
AcDbEntity
  8
Quadrat Numbers
  6
Continuous
 62
     7
370
     0
100
AcDbText
 10
2856.551295
 20
3542.442254
 30
0.0
 40
30.0
  1
05
 50
359.499994
  7
Style-Garamond
 11
2856.813094
 21
3572.441112
 31
0.0
100
AcDbText
 73
     3
  0
TEXT
  5
B1
330
478
100
AcDbEntity
  8
Quadrat Numbers
  6
Continuous
 62
     7
370
     0
100
AcDbText
 10
2796.551295
 20
3482.442254
 30
0.0
 40
30.0
  1
06
 50
359.499994
  7
Style-Garamond
 11
2796.813094
 21
3512.441112
 31
0.0
100
AcDbText
 73
     3
  0
TEXT
  5
AE
330
478
100
AcDbEntity
  8
Quadrat Numbers
  6
Continuous
 62
     7
370
     0
100
AcDbText
 10
2916.551295
 20
3482.442254
 30
0.0
 40
30.0
  1
07
 50
359.499994
  7
Style-Garamond
 11
2916.813094
 21
3512.441112
 31
0.0
100
AcDbText
 73
     3
  0
TEXT
  5
AD
330
478
100
AcDbEntity
  8
Quadrat Numbers
  6
Continuous
 62
     7
370
     0
100
AcDbText
 10
2916.551295
 20
3542.442254
 30
0.0
 40
30.0
  1
08
 50
359.499994
  7
Style-Garamond
 11
2916.813094
 21
3572.441112
 31
0.0
100
AcDbText
 73
     3
  0
TEXT
  5
D8
330
478
100
AcDbEntity
  8
Quadrat Numbers
  6
Continuous
 62
     7
370
     0
100
AcDbText
 10
3756.809109
 20
2574.31525
 30
0.0
 40
30.0
  1
09
 50
359.499994
  7
Style-Garamond
 11
3757.070908
 21
2604.314108
 31
0.0
100
AcDbText
 73
     3
  0
TEXT
  5
DB
330
478
100
AcDbEntity
  8
Quadrat Numbers
  6
Continuous
 62
     7
370
     0
100
AcDbText
 10
2969.609657
 20
2315.767291
 30
0.0
 40
30.0
  1
10
 50
359.499994
  7
Style-Garamond
 11
2969.871457
 21
2345.766148
 31
0.0
100
AcDbText
 73
     3
  0
TEXT
  5
D2
330
478
100
AcDbEntity
  8
Quadrat Numbers
  6
Continuous
 62
     7
370
     0
100
AcDbText
 10
3571.728744
 20
3337.237327
 30
0.0
 40
30.0
  1
11
 50
359.499994
  7
Style-Garamond
 11
3571.990543
 21
3367.236184
 31
0.0
100
AcDbText
 73
     3
  0
TEXT
  5
D9
330
478
100
AcDbEntity
  8
Quadrat Numbers
  6
Continuous
 62
     7
370
     0
100
AcDbText
 10
4012.320286
 20
2006.992966
 30
0.0
 40
30.0
  1
12
 50
359.499994
  7
Style-Garamond
 11
4012.582086
 21
2036.991824
 31
0.0
100
AcDbText
 73
     3
  0
TEXT
  5
DA
330
478
100
AcDbEntity
  8
Quadrat Numbers
  6
Continuous
 62
     7
370
     0
100
AcDbText
 10
3758.583105
 20
1784.851408
 30
0.0
 40
30.0
  1
13
 50
359.499994
  7
Style-Garamond
 11
3758.844905
 21
1814.850266
 31
0.0
100
AcDbText
 73
     3
  0
TEXT
  5
DD
330
478
100
AcDbEntity
  8
Quadrat Numbers
  6
Continuous
 62
     7
370
     0
100
AcDbText
 10
3662.278633
 20
645.919125
 30
0.0
 40
30.0
  1
14
 50
359.499994
  7
Style-Garamond
 11
3662.540433
 21
675.917983
 31
0.0
100
AcDbText
 73
     3
  0
TEXT
  5
B4
330
478
100
AcDbEntity
  8
Quadrat Numbers
  6
Continuous
 62
     7
370
     0
100
AcDbText
 10
2552.265374
 20
3781.352248
 30
0.0
 40
30.0
  1
15
 50
359.499994
  7
Style-Garamond
 11
2552.527174
 21
3811.351105
 31
0.0
100
AcDbText
 73
     3
  0
TEXT
  5
B9
330
478
100
AcDbEntity
  8
Quadrat Numbers
  6
Continuous
 62
     7
370
     0
100
AcDbText
 10
3466.4794
 20
3785.135202
 30
0.0
 40
30.0
  1
16
 50
359.499994
  7
Style-Garamond
 11
3466.741199
 21
3815.13406
 31
0.0
100
AcDbText
 73
     3
  0
TEXT
  5
BA
330
478
100
AcDbEntity
  8
Quadrat Numbers
  6
Continuous
 62
     7
370
     0
100
AcDbText
 10
3770.376752
 20
3785.135202
 30
0.0
 40
30.0
  1
17
 50
359.499994
  7
Style-Garamond
 11
3770.638551
 21
3815.13406
 31
0.0
100
AcDbText
 73
     3
  0
TEXT
  5
B5
330
478
100
AcDbEntity
  8
Quadrat Numbers
  6
Continuous
 62
     7
370
     0
100
AcDbText
 10
2552.265374
 20
3487.542775
 30
0.0
 40
30.0
  1
18
 50
359.499994
  7
Style-Garamond
 11
2552.527174
 21
3517.541632
 31
0.0
100
AcDbText
 73
     3
  0
TEXT
  5
B6
330
478
100
AcDbEntity
  8
Quadrat Numbers
  6
Continuous
 62
     7
370
     0
100
AcDbText
 10
3165.104018
 20
3492.586714
 30
0.0
 40
30.0
  1
19
 50
359.499994
  7
Style-Garamond
 11
3165.365817
 21
3522.585572
 31
0.0
100
AcDbText
 73
     3
  0
TEXT
  5
B7
330
478
100
AcDbEntity
  8
Quadrat Numbers
  6
Continuous
 62
     7
370
     0
100
AcDbText
 10
3471.523339
 20
3490.064744
 30
0.0
 40
30.0
  1
20
 50
359.499994
  7
Style-Garamond
 11
3471.785139
 21
3520.063602
 31
0.0
100
AcDbText
 73
     3
  0
TEXT
  5
BE
330
478
100
AcDbEntity
  8
Quadrat Numbers
  6
Continuous
 62
     7
370
     0
100
AcDbText
 10
1948.884118
 20
3188.689362
 30
0.0
 40
30.0
  1
21
 50
359.499994
  7
Style-Garamond
 11
1949.145917
 21
3218.68822
 31
0.0
100
AcDbText
 73
     3
  0
TEXT
  5
BF
330
478
100
AcDbEntity
  8
Quadrat Numbers
  6
Continuous
 62
     7
370
     0
100
AcDbText
 10
2248.368022
 20
3188.689362
 30
0.0
 40
30.0
  1
22
 50
359.499994
  7
Style-Garamond
 11
2248.629822
 21
3218.68822
 31
0.0
100
AcDbText
 73
     3
  0
TEXT
  5
BB
330
478
100
AcDbEntity
  8
Quadrat Numbers
  6
Continuous
 62
     7
370
     0
100
AcDbText
 10
2554.787344
 20
3189.950347
 30
0.0
 40
30.0
  1
23
 50
359.499994
  7
Style-Garamond
 11
2555.049143
 21
3219.949205
 31
0.0
100
AcDbText
 73
     3
  0
TEXT
  5
BC
330
478
100
AcDbEntity
  8
Quadrat Numbers
  6
Continuous
 62
     7
370
     0
100
AcDbText
 10
2859.945681
 20
3188.689362
 30
0.0
 40
30.0
  1
24
 50
359.499994
  7
Style-Garamond
 11
2860.20748
 21
3218.68822
 31
0.0
100
AcDbText
 73
     3
  0
TEXT
  5
BD
330
478
100
AcDbEntity
  8
Quadrat Numbers
  6
Continuous
 62
     7
370
     0
100
AcDbText
 10
3161.321063
 20
3188.689362
 30
0.0
 40
30.0
  1
25
 50
359.499994
  7
Style-Garamond
 11
3161.582862
 21
3218.68822
 31
0.0
100
AcDbText
 73
     3
  0
TEXT
  5
C0
330
478
100
AcDbEntity
  8
Quadrat Numbers
  6
Continuous
 62
     7
370
     0
100
AcDbText
 10
2248.368022
 20
2888.574965
 30
0.0
 40
30.0
  1
26
 50
359.499994
  7
Style-Garamond
 11
2248.629822
 21
2918.573822
 31
0.0
100
AcDbText
 73
     3
  0
TEXT
  5
C1
330
478
100
AcDbEntity
  8
Quadrat Numbers
  6
Continuous
 62
     7
370
     0
100
AcDbText
 10
3472.784324
 20
2307.364162
 30
0.0
 40
30.0
  1
27
 50
359.499994
  7
Style-Garamond
 11
3473.046123
 21
2337.36302
 31
0.0
100
AcDbText
 73
     3
  0
TEXT
  5
C2
330
478
100
AcDbEntity
  8
Quadrat Numbers
  6
Continuous
 62
     7
370
     0
100
AcDbText
 10
3166.049756
 20
2005.831157
 30
0.0
 40
30.0
  1
28
 50
359.499994
  7
Style-Garamond
 11
3166.311556
 21
2035.830014
 31
0.0
100
AcDbText
 73
     3
  0
MTEXT
  5
132
330
478
100
AcDbEntity
  8
Feature Numbers
  6
Continuous
 62
     7
370
     0
100
AcDbMText
 10
2390.228132
 20
3716.832939
 30
0.0
 40
36.0
 41
0.0
 71
     1
 72
     1
  1
General Location of \PF01, F02, and F03
  7
Style-Garamond
 73
     2
 44
0.928084
  0
TEXT
  5
12D
330
478
100
AcDbEntity
  8
Feature Numbers
  6
Continuous
 62
     7
370
     0
100
AcDbText
 10
3339.666387
 20
3426.673909
 30
0.0
 40
30.0
  1
F22
  7
Style-Garamond
 11
3339.666387
 21
3456.673909
 31
0.0
100
AcDbText
 73
     3
  0
TEXT
  5
12A
330
478
100
AcDbEntity
  8
Feature Numbers
  6
Continuous
 62
     7
370
     0
100
AcDbText
 10
3079.889729
 20
3365.151218
 30
0.0
 40
30.0
  1
F21
  7
Style-Garamond
 11
3079.889729
 21
3395.151218
 31
0.0
100
AcDbText
 73
     3
  0
TEXT
  5
125
330
478
100
AcDbEntity
  8
Feature Numbers
  6
Continuous
 62
     7
370
     0
100
AcDbText
 10
2890.51986
 20
2934.280728
 30
0.0
 40
30.0
  1
F20
  7
Style-Garamond
 11
2890.51986
 21
2964.280728
 31
0.0
100
AcDbText
 73
     3
  0
TEXT
  5
126
330
478
100
AcDbEntity
  8
Feature Numbers
  6
Continuous
 62
     7
370
     0
100
AcDbText
 10
2867.937261
 20
3057.926154
 30
0.0
 40
30.0
  1
F19
  7
Style-Garamond
 11
2867.937261
 21
3087.926154
 31
0.0
100
AcDbText
 73
     3
  0
TEXT
  5
128
330
478
100
AcDbEntity
  8
Feature Numbers
  6
Continuous
 62
     7
370
     0
100
AcDbText
 10
3030.747585
 20
3111.251222
 30
0.0
 40
30.0
  1
F18
  7
Style-Garamond
 11
3030.747585
 21
3141.251222
 31
0.0
100
AcDbText
 73
     3
  0
TEXT
  5
129
330
478
100
AcDbEntity
  8
Feature Numbers
  6
Continuous
 62
     7
370
     0
100
AcDbText
 10
3171.461696
 20
3297.668004
 30
0.0
 40
30.0
  1
F17
  7
Style-Garamond
 11
3171.461696
 21
3327.668004
 31
0.0
100
AcDbText
 73
     3
  0
TEXT
  5
12E
330
478
100
AcDbEntity
  8
Feature Numbers
  6
Continuous
 62
     7
370
     0
100
AcDbText
 10
2890.781048
 20
3366.738471
 30
0.0
 40
30.0
  1
F16
  7
Style-Garamond
 11
2890.781048
 21
3396.738471
 31
0.0
100
AcDbText
 73
     3
  0
TEXT
  5
131
330
478
100
AcDbEntity
  8
Feature Numbers
  6
Continuous
 62
     7
370
     0
100
AcDbText
 10
3036.870152
 20
3306.043284
 30
0.0
 40
30.0
  1
F15
  7
Style-Garamond
 11
3036.870152
 21
3336.043284
 31
0.0
100
AcDbText
 73
     3
  0
TEXT
  5
130
330
478
100
AcDbEntity
  8
Feature Numbers
  6
Continuous
 62
     7
370
     0
100
AcDbText
 10
3022.831914
 20
3204.321956
 30
0.0
 40
30.0
  1
F14
  7
Style-Garamond
 11
3022.831914
 21
3234.321956
 31
0.0
100
AcDbText
 73
     3
  0
TEXT
  5
127
330
478
100
AcDbEntity
  8
Feature Numbers
  6
Continuous
 62
     7
370
     0
100
AcDbText
 10
3097.605422
 20
3011.480967
 30
0.0
 40
30.0
  1
F13
  7
Style-Garamond
 11
3097.605422
 21
3041.480967
 31
0.0
100
AcDbText
 73
     3
  0
TEXT
  5
12C
330
478
100
AcDbEntity
  8
Feature Numbers
  6
Continuous
 62
     7
370
     0
100
AcDbText
 10
3262.542153
 20
3464.722688
 30
0.0
 40
30.0
  1
F12
  7
Style-Garamond
 11
3262.542153
 21
3494.722688
 31
0.0
100
AcDbText
 73
     3
  0
TEXT
  5
123
330
478
100
AcDbEntity
  8
Feature Numbers
  6
Continuous
 62
     7
370
     0
100
AcDbText
 10
2710.337556
 20
3246.267504
 30
0.0
 40
30.0
  1
F11
  7
Style-Garamond
 11
2710.337556
 21
3276.267504
 31
0.0
100
AcDbText
 73
     3
  0
TEXT
  5
12B
330
478
100
AcDbEntity
  8
Feature Numbers
  6
Continuous
 62
     7
370
     0
100
AcDbText
 10
3305.670037
 20
3284.56863
 30
0.0
 40
30.0
  1
F10
  7
Style-Garamond
 11
3305.670037
 21
3314.56863
 31
0.0
100
AcDbText
 73
     3
  0
TEXT
  5
12F
330
478
100
AcDbEntity
  8
Feature Numbers
  6
Continuous
 62
     7
370
     0
100
AcDbText
 10
2923.653623
 20
3175.8061
 30
0.0
 40
30.0
  1
F09
  7
Style-Garamond
 11
2923.653623
 21
3205.8061
 31
0.0
100
AcDbText
 73
     3
  0
TEXT
  5
124
330
478
100
AcDbEntity
  8
Feature Numbers
  6
Continuous
 62
     7
370
     0
100
AcDbText
 10
2743.774583
 20
3314.33802
 30
0.0
 40
30.0
  1
F08
  7
Style-Garamond
 11
2743.774583
 21
3344.33802
 31
0.0
100
AcDbText
 73
     3
  0
LINE
  5
330
330
478
100
AcDbEntity
  8
Feature Numbers
  6
Continuous
 62
     7
370
    13
100
AcDbLine
 10
2821.15484
 20
3328.623042
 30
0.0
 11
2894.112967
 21
3325.011253
 31
0.0
  0
LINE
  5
331
330
478
100
AcDbEntity
  8
Feature Numbers
  6
Continuous
 62
     7
370
    13
100
AcDbLine
 10
3151.589558
 20
3373.310179
 30
0.0
 11
3196.84379
 21
3365.921733
 31
0.0
  0
LINE
  5
332
330
478
100
AcDbEntity
  8
Feature Numbers
  6
Continuous
 62
     7
370
    13
100
AcDbLine
 10
3036.085733
 20
3240.155374
 30
0.0
 11
2983.369691
 21
3278.75741
 31
0.0
  0
LINE
  5
334
330
478
100
AcDbEntity
  8
Feature Numbers
  6
Continuous
 62
     7
370
    13
100
AcDbLine
 10
3031.928502
 20
3317.401484
 30
0.0
 11
2975.029443
 21
3303.627063
 31
0.0
  0
LINE
  5
335
330
478
100
AcDbEntity
  8
Feature Numbers
  6
Continuous
 62
     7
370
    13
100
AcDbLine
 10
2782.645641
 20
3259.174831
 30
0.0
 11
2845.421252
 21
3254.625873
 31
0.0
  0
LINE
  5
336
330
478
100
AcDbEntity
  8
Feature Numbers
  6
Continuous
 62
     7
370
    13
100
AcDbLine
 10
3333.979269
 20
3323.770025
 30
0.0
 11
3259.376369
 21
3356.522517
 31
0.0
  0
HATCH
  5
2B1
330
478
100
AcDbEntity
  8
STPs
  6
Continuous
 62
     7
370
    13
100
AcDbHatch
 10
0.0
 20
0.0
 30
0.0
210
0.0
220
0.0
230
1.0
  2
SOLID
 70
     1
 71
     0
 91
        1
 92
        1
 93
        1
 72
     2
 10
-8649.055113232298
 20
-720.9460373441711
 40
5.999999999999961
 50
0.0
 51
360.0
 73
     1
 97
        0
 75
     0
 76
     1
 98
        0
  0
HATCH
  5
2B2
330
478
100
AcDbEntity
  8
STPs
  6
Continuous
 62
     7
370
    13
100
AcDbHatch
 10
0.0
 20
0.0
 30
0.0
210
0.0
220
0.0
230
1.0
  2
SOLID
 70
     1
 71
     0
 91
        1
 92
        1
 93
        1
 72
     2
 10
-8649.055113232298
 20
-120.9460373441712
 40
5.999999999999961
 50
0.0
 51
360.0
 73
     1
 97
        0
 75
     0
 76
     1
 98
        0
  0
HATCH
  5
2B3
330
478
100
AcDbEntity
  8
STPs
  6
Continuous
 62
     7
370
    13
100
AcDbHatch
 10
0.0
 20
0.0
 30
0.0
210
0.0
220
0.0
230
1.0
  2
SOLID
 70
     1
 71
     0
 91
        1
 92
        1
 93
        1
 72
     2
 10
-9249.055113232298
 20
-120.9460373441712
 40
5.999999999999961
 50
0.0
 51
360.0
 73
     1
 97
        0
 75
     0
 76
     1
 98
        0
  0
HATCH
  5
2B4
330
478
100
AcDbEntity
  8
STPs
  6
Continuous
 62
     7
370
    13
100
AcDbHatch
 10
0.0
 20
0.0
 30
0.0
210
0.0
220
0.0
230
1.0
  2
SOLID
 70
     1
 71
     0
 91
        1
 92
        1
 93
        1
 72
     2
 10
-9249.055113232298
 20
479.0539626558289
 40
5.999999999999961
 50
0.0
 51
360.0
 73
     1
 97
        0
 75
     0
 76
     1
 98
        0
  0
HATCH
  5
2B5
330
478
100
AcDbEntity
  8
STPs
  6
Continuous
 62
     7
370
    13
100
AcDbHatch
 10
0.0
 20
0.0
 30
0.0
210
0.0
220
0.0
230
1.0
  2
SOLID
 70
     1
 71
     0
 91
        1
 92
        1
 93
        1
 72
     2
 10
-8649.055113232298
 20
479.0539626558289
 40
5.999999999999961
 50
0.0
 51
360.0
 73
     1
 97
        0
 75
     0
 76
     1
 98
        0
  0
HATCH
  5
2B6
330
478
100
AcDbEntity
  8
STPs
  6
Continuous
 62
     7
370
    13
100
AcDbHatch
 10
0.0
 20
0.0
 30
0.0
210
0.0
220
0.0
230
1.0
  2
SOLID
 70
     1
 71
     0
 91
        1
 92
        1
 93
        1
 72
     2
 10
-8649.055113232298
 20
1079.053962655829
 40
5.999999999999961
 50
0.0
 51
360.0
 73
     1
 97
        0
 75
     0
 76
     1
 98
        0
  0
HATCH
  5
2B7
330
478
100
AcDbEntity
  8
STPs
  6
Continuous
 62
     7
370
    13
100
AcDbHatch
 10
0.0
 20
0.0
 30
0.0
210
0.0
220
0.0
230
1.0
  2
SOLID
 70
     1
 71
     0
 91
        1
 92
        1
 93
        1
 72
     2
 10
-9249.055113232298
 20
1079.053962655829
 40
5.999999999999961
 50
0.0
 51
360.0
 73
     1
 97
        0
 75
     0
 76
     1
 98
        0
  0
HATCH
  5
2B8
330
478
100
AcDbEntity
  8
STPs
  6
Continuous
 62
     7
370
    13
100
AcDbHatch
 10
0.0
 20
0.0
 30
0.0
210
0.0
220
0.0
230
1.0
  2
SOLID
 70
     1
 71
     0
 91
        1
 92
        1
 93
        1
 72
     2
 10
-8649.055113232298
 20
2279.053962655829
 40
5.999999999999961
 50
0.0
 51
360.0
 73
     1
 97
        0
 75
     0
 76
     1
 98
        0
  0
HATCH
  5
2B9
330
478
100
AcDbEntity
  8
STPs
  6
Continuous
 62
     7
370
    13
100
AcDbHatch
 10
0.0
 20
0.0
 30
0.0
210
0.0
220
0.0
230
1.0
  2
SOLID
 70
     1
 71
     0
 91
        1
 92
        1
 93
        1
 72
     2
 10
-8649.055113232298
 20
2879.053962655829
 40
5.999999999999961
 50
0.0
 51
360.0
 73
     1
 97
        0
 75
     0
 76
     1
 98
        0
  0
HATCH
  5
2BA
330
478
100
AcDbEntity
  8
STPs
  6
Continuous
 62
     7
370
    13
100
AcDbHatch
 10
0.0
 20
0.0
 30
0.0
210
0.0
220
0.0
230
1.0
  2
SOLID
 70
     1
 71
     0
 91
        1
 92
        1
 93
        1
 72
     2
 10
-8649.055113232298
 20
3479.053962655829
 40
5.999999999999961
 50
0.0
 51
360.0
 73
     1
 97
        0
 75
     0
 76
     1
 98
        0
  0
HATCH
  5
2BB
330
478
100
AcDbEntity
  8
STPs
  6
Continuous
 62
     7
370
    13
100
AcDbHatch
 10
0.0
 20
0.0
 30
0.0
210
0.0
220
0.0
230
1.0
  2
SOLID
 70
     1
 71
     0
 91
        1
 92
        1
 93
        1
 72
     2
 10
-8649.055113232298
 20
4079.053962655829
 40
5.999999999999961
 50
0.0
 51
360.0
 73
     1
 97
        0
 75
     0
 76
     1
 98
        0
  0
HATCH
  5
2BC
330
478
100
AcDbEntity
  8
STPs
  6
Continuous
 62
     7
370
    13
100
AcDbHatch
 10
0.0
 20
0.0
 30
0.0
210
0.0
220
0.0
230
1.0
  2
SOLID
 70
     1
 71
     0
 91
        1
 92
        1
 93
        1
 72
     2
 10
-8649.055113232298
 20
4679.053962655829
 40
5.999999999999961
 50
0.0
 51
360.0
 73
     1
 97
        0
 75
     0
 76
     1
 98
        0
  0
HATCH
  5
273
330
478
100
AcDbEntity
  8
STPs
  6
Continuous
 62
     7
370
    13
100
AcDbHatch
 10
0.0
 20
0.0
 30
0.0
210
0.0
220
0.0
230
1.0
  2
SOLID
 70
     1
 71
     0
 91
        1
 92
        1
 93
        1
 72
     2
 10
768.136062955619
 20
-720.9460373441702
 40
6.0
 50
0.0
 51
360.0
 73
     1
 97
        0
 75
     0
 76
     1
 98
        0
  0
HATCH
  5
274
330
478
100
AcDbEntity
  8
STPs
  6
Continuous
 62
     7
370
    13
100
AcDbHatch
 10
0.0
 20
0.0
 30
0.0
210
0.0
220
0.0
230
1.0
  2
SOLID
 70
     1
 71
     0
 91
        1
 92
        1
 93
        1
 72
     2
 10
768.136062955619
 20
-120.9460373441703
 40
6.0
 50
0.0
 51
360.0
 73
     1
 97
        0
 75
     0
 76
     1
 98
        0
  0
HATCH
  5
275
330
478
100
AcDbEntity
  8
STPs
  6
Continuous
 62
     7
370
    13
100
AcDbHatch
 10
0.0
 20
0.0
 30
0.0
210
0.0
220
0.0
230
1.0
  2
SOLID
 70
     1
 71
     0
 91
        1
 92
        1
 93
        1
 72
     2
 10
768.136062955619
 20
479.0539626558298
 40
6.0
 50
0.0
 51
360.0
 73
     1
 97
        0
 75
     0
 76
     1
 98
        0
  0
HATCH
  5
276
330
478
100
AcDbEntity
  8
STPs
  6
Continuous
 62
     7
370
    13
100
AcDbHatch
 10
0.0
 20
0.0
 30
0.0
210
0.0
220
0.0
230
1.0
  2
SOLID
 70
     1
 71
     0
 91
        1
 92
        1
 93
        1
 72
     2
 10
768.136062955619
 20
1079.05396265583
 40
6.0
 50
0.0
 51
360.0
 73
     1
 97
        0
 75
     0
 76
     1
 98
        0
  0
HATCH
  5
277
330
478
100
AcDbEntity
  8
STPs
  6
Continuous
 62
     7
370
    13
100
AcDbHatch
 10
0.0
 20
0.0
 30
0.0
210
0.0
220
0.0
230
1.0
  2
SOLID
 70
     1
 71
     0
 91
        1
 92
        1
 93
        1
 72
     2
 10
768.136062955619
 20
1679.05396265583
 40
6.0
 50
0.0
 51
360.0
 73
     1
 97
        0
 75
     0
 76
     1
 98
        0
  0
HATCH
  5
278
330
478
100
AcDbEntity
  8
STPs
  6
Continuous
 62
     7
370
    13
100
AcDbHatch
 10
0.0
 20
0.0
 30
0.0
210
0.0
220
0.0
230
1.0
  2
SOLID
 70
     1
 71
     0
 91
        1
 92
        1
 93
        1
 72
     2
 10
768.136062955619
 20
2279.05396265583
 40
6.0
 50
0.0
 51
360.0
 73
     1
 97
        0
 75
     0
 76
     1
 98
        0
  0
HATCH
  5
282
330
478
100
AcDbEntity
  8
STPs
  6
Continuous
 62
     7
370
    13
100
AcDbHatch
 10
0.0
 20
0.0
 30
0.0
210
0.0
220
0.0
230
1.0
  2
SOLID
 70
     1
 71
     0
 91
        1
 92
        1
 93
        1
 72
     2
 10
168.136062955619
 20
2279.05396265583
 40
6.0
 50
0.0
 51
360.0
 73
     1
 97
        0
 75
     0
 76
     1
 98
        0
  0
HATCH
  5
284
330
478
100
AcDbEntity
  8
STPs
  6
Continuous
 62
     7
370
    13
100
AcDbHatch
 10
0.0
 20
0.0
 30
0.0
210
0.0
220
0.0
230
1.0
  2
SOLID
 70
     1
 71
     0
 91
        1
 92
        1
 93
        1
 72
     2
 10
168.136062955619
 20
1679.05396265583
 40
6.0
 50
0.0
 51
360.0
 73
     1
 97
        0
 75
     0
 76
     1
 98
        0
  0
HATCH
  5
285
330
478
100
AcDbEntity
  8
STPs
  6
Continuous
 62
     7
370
    13
100
AcDbHatch
 10
0.0
 20
0.0
 30
0.0
210
0.0
220
0.0
230
1.0
  2
SOLID
 70
     1
 71
     0
 91
        1
 92
        1
 93
        1
 72
     2
 10
168.136062955619
 20
1079.05396265583
 40
6.0
 50
0.0
 51
360.0
 73
     1
 97
        0
 75
     0
 76
     1
 98
        0
  0
HATCH
  5
286
330
478
100
AcDbEntity
  8
STPs
  6
Continuous
 62
     7
370
    13
100
AcDbHatch
 10
0.0
 20
0.0
 30
0.0
210
0.0
220
0.0
230
1.0
  2
SOLID
 70
     1
 71
     0
 91
        1
 92
        1
 93
        1
 72
     2
 10
168.136062955619
 20
479.0539626558298
 40
6.0
 50
0.0
 51
360.0
 73
     1
 97
        0
 75
     0
 76
     1
 98
        0
  0
HATCH
  5
287
330
478
100
AcDbEntity
  8
STPs
  6
Continuous
 62
     7
370
    13
100
AcDbHatch
 10
0.0
 20
0.0
 30
0.0
210
0.0
220
0.0
230
1.0
  2
SOLID
 70
     1
 71
     0
 91
        1
 92
        1
 93
        1
 72
     2
 10
168.136062955619
 20
-120.9460373441703
 40
6.0
 50
0.0
 51
360.0
 73
     1
 97
        0
 75
     0
 76
     1
 98
        0
  0
HATCH
  5
288
330
478
100
AcDbEntity
  8
STPs
  6
Continuous
 62
     7
370
    13
100
AcDbHatch
 10
0.0
 20
0.0
 30
0.0
210
0.0
220
0.0
230
1.0
  2
SOLID
 70
     1
 71
     0
 91
        1
 92
        1
 93
        1
 72
     2
 10
168.136062955619
 20
-720.9460373441702
 40
6.0
 50
0.0
 51
360.0
 73
     1
 97
        0
 75
     0
 76
     1
 98
        0
  0
HATCH
  5
289
330
478
100
AcDbEntity
  8
STPs
  6
Continuous
 62
     7
370
    13
100
AcDbHatch
 10
0.0
 20
0.0
 30
0.0
210
0.0
220
0.0
230
1.0
  2
SOLID
 70
     1
 71
     0
 91
        1
 92
        1
 93
        1
 72
     2
 10
-431.863937044381
 20
-720.9460373441702
 40
6.0
 50
0.0
 51
360.0
 73
     1
 97
        0
 75
     0
 76
     1
 98
        0
  0
HATCH
  5
28A
330
478
100
AcDbEntity
  8
STPs
  6
Continuous
 62
     7
370
    13
100
AcDbHatch
 10
0.0
 20
0.0
 30
0.0
210
0.0
220
0.0
230
1.0
  2
SOLID
 70
     1
 71
     0
 91
        1
 92
        1
 93
        1
 72
     2
 10
-431.863937044381
 20
-120.9460373441703
 40
6.0
 50
0.0
 51
360.0
 73
     1
 97
        0
 75
     0
 76
     1
 98
        0
  0
HATCH
  5
28B
330
478
100
AcDbEntity
  8
STPs
  6
Continuous
 62
     7
370
    13
100
AcDbHatch
 10
0.0
 20
0.0
 30
0.0
210
0.0
220
0.0
230
1.0
  2
SOLID
 70
     1
 71
     0
 91
        1
 92
        1
 93
        1
 72
     2
 10
-431.863937044381
 20
479.0539626558298
 40
6.0
 50
0.0
 51
360.0
 73
     1
 97
        0
 75
     0
 76
     1
 98
        0
  0
HATCH
  5
28C
330
478
100
AcDbEntity
  8
STPs
  6
Continuous
 62
     7
370
    13
100
AcDbHatch
 10
0.0
 20
0.0
 30
0.0
210
0.0
220
0.0
230
1.0
  2
SOLID
 70
     1
 71
     0
 91
        1
 92
        1
 93
        1
 72
     2
 10
-431.863937044381
 20
1079.05396265583
 40
6.0
 50
0.0
 51
360.0
 73
     1
 97
        0
 75
     0
 76
     1
 98
        0
  0
HATCH
  5
28D
330
478
100
AcDbEntity
  8
STPs
  6
Continuous
 62
     7
370
    13
100
AcDbHatch
 10
0.0
 20
0.0
 30
0.0
210
0.0
220
0.0
230
1.0
  2
SOLID
 70
     1
 71
     0
 91
        1
 92
        1
 93
        1
 72
     2
 10
-431.863937044381
 20
1679.05396265583
 40
6.0
 50
0.0
 51
360.0
 73
     1
 97
        0
 75
     0
 76
     1
 98
        0
  0
HATCH
  5
28E
330
478
100
AcDbEntity
  8
STPs
  6
Continuous
 62
     7
370
    13
100
AcDbHatch
 10
0.0
 20
0.0
 30
0.0
210
0.0
220
0.0
230
1.0
  2
SOLID
 70
     1
 71
     0
 91
        1
 92
        1
 93
        1
 72
     2
 10
-431.863937044381
 20
2279.05396265583
 40
6.0
 50
0.0
 51
360.0
 73
     1
 97
        0
 75
     0
 76
     1
 98
        0
  0
HATCH
  5
290
330
478
100
AcDbEntity
  8
STPs
  6
Continuous
 62
     7
370
    13
100
AcDbHatch
 10
0.0
 20
0.0
 30
0.0
210
0.0
220
0.0
230
1.0
  2
SOLID
 70
     1
 71
     0
 91
        1
 92
        1
 93
        1
 72
     2
 10
-1031.863937044381
 20
2279.05396265583
 40
6.0
 50
0.0
 51
360.0
 73
     1
 97
        0
 75
     0
 76
     1
 98
        0
  0
HATCH
  5
291
330
478
100
AcDbEntity
  8
STPs
  6
Continuous
 62
     7
370
    13
100
AcDbHatch
 10
0.0
 20
0.0
 30
0.0
210
0.0
220
0.0
230
1.0
  2
SOLID
 70
     1
 71
     0
 91
        1
 92
        1
 93
        1
 72
     2
 10
-1631.863937044381
 20
2279.05396265583
 40
6.0
 50
0.0
 51
360.0
 73
     1
 97
        0
 75
     0
 76
     1
 98
        0
  0
HATCH
  5
292
330
478
100
AcDbEntity
  8
STPs
  6
Continuous
 62
     7
370
    13
100
AcDbHatch
 10
0.0
 20
0.0
 30
0.0
210
0.0
220
0.0
230
1.0
  2
SOLID
 70
     1
 71
     0
 91
        1
 92
        1
 93
        1
 72
     2
 10
-2231.863937044381
 20
2279.05396265583
 40
6.0
 50
0.0
 51
360.0
 73
     1
 97
        0
 75
     0
 76
     1
 98
        0
  0
HATCH
  5
293
330
478
100
AcDbEntity
  8
STPs
  6
Continuous
 62
     7
370
    13
100
AcDbHatch
 10
0.0
 20
0.0
 30
0.0
210
0.0
220
0.0
230
1.0
  2
SOLID
 70
     1
 71
     0
 91
        1
 92
        1
 93
        1
 72
     2
 10
-2831.863937044381
 20
2279.05396265583
 40
6.0
 50
0.0
 51
360.0
 73
     1
 97
        0
 75
     0
 76
     1
 98
        0
  0
HATCH
  5
294
330
478
100
AcDbEntity
  8
STPs
  6
Continuous
 62
     7
370
    13
100
AcDbHatch
 10
0.0
 20
0.0
 30
0.0
210
0.0
220
0.0
230
1.0
  2
SOLID
 70
     1
 71
     0
 91
        1
 92
        1
 93
        1
 72
     2
 10
-2831.863937044381
 20
1679.05396265583
 40
6.0
 50
0.0
 51
360.0
 73
     1
 97
        0
 75
     0
 76
     1
 98
        0
  0
HATCH
  5
295
330
478
100
AcDbEntity
  8
STPs
  6
Continuous
 62
     7
370
    13
100
AcDbHatch
 10
0.0
 20
0.0
 30
0.0
210
0.0
220
0.0
230
1.0
  2
SOLID
 70
     1
 71
     0
 91
        1
 92
        1
 93
        1
 72
     2
 10
-2231.863937044381
 20
1679.05396265583
 40
6.0
 50
0.0
 51
360.0
 73
     1
 97
        0
 75
     0
 76
     1
 98
        0
  0
HATCH
  5
296
330
478
100
AcDbEntity
  8
STPs
  6
Continuous
 62
     7
370
    13
100
AcDbHatch
 10
0.0
 20
0.0
 30
0.0
210
0.0
220
0.0
230
1.0
  2
SOLID
 70
     1
 71
     0
 91
        1
 92
        1
 93
        1
 72
     2
 10
-1631.863937044381
 20
1679.05396265583
 40
6.0
 50
0.0
 51
360.0
 73
     1
 97
        0
 75
     0
 76
     1
 98
        0
  0
HATCH
  5
297
330
478
100
AcDbEntity
  8
STPs
  6
Continuous
 62
     7
370
    13
100
AcDbHatch
 10
0.0
 20
0.0
 30
0.0
210
0.0
220
0.0
230
1.0
  2
SOLID
 70
     1
 71
     0
 91
        1
 92
        1
 93
        1
 72
     2
 10
-1031.863937044381
 20
1679.05396265583
 40
6.0
 50
0.0
 51
360.0
 73
     1
 97
        0
 75
     0
 76
     1
 98
        0
  0
HATCH
  5
298
330
478
100
AcDbEntity
  8
STPs
  6
Continuous
 62
     7
370
    13
100
AcDbHatch
 10
0.0
 20
0.0
 30
0.0
210
0.0
220
0.0
230
1.0
  2
SOLID
 70
     1
 71
     0
 91
        1
 92
        1
 93
        1
 72
     2
 10
-1031.863937044381
 20
1079.05396265583
 40
6.0
 50
0.0
 51
360.0
 73
     1
 97
        0
 75
     0
 76
     1
 98
        0
  0
HATCH
  5
299
330
478
100
AcDbEntity
  8
STPs
  6
Continuous
 62
     7
370
    13
100
AcDbHatch
 10
0.0
 20
0.0
 30
0.0
210
0.0
220
0.0
230
1.0
  2
SOLID
 70
     1
 71
     0
 91
        1
 92
        1
 93
        1
 72
     2
 10
-1631.863937044381
 20
1079.05396265583
 40
6.0
 50
0.0
 51
360.0
 73
     1
 97
        0
 75
     0
 76
     1
 98
        0
  0
HATCH
  5
29A
330
478
100
AcDbEntity
  8
STPs
  6
Continuous
 62
     7
370
    13
100
AcDbHatch
 10
0.0
 20
0.0
 30
0.0
210
0.0
220
0.0
230
1.0
  2
SOLID
 70
     1
 71
     0
 91
        1
 92
        1
 93
        1
 72
     2
 10
-2231.863937044381
 20
1079.05396265583
 40
6.0
 50
0.0
 51
360.0
 73
     1
 97
        0
 75
     0
 76
     1
 98
        0
  0
HATCH
  5
29B
330
478
100
AcDbEntity
  8
STPs
  6
Continuous
 62
     7
370
    13
100
AcDbHatch
 10
0.0
 20
0.0
 30
0.0
210
0.0
220
0.0
230
1.0
  2
SOLID
 70
     1
 71
     0
 91
        1
 92
        1
 93
        1
 72
     2
 10
-2831.863937044381
 20
1079.05396265583
 40
6.0
 50
0.0
 51
360.0
 73
     1
 97
        0
 75
     0
 76
     1
 98
        0
  0
HATCH
  5
29C
330
478
100
AcDbEntity
  8
STPs
  6
Continuous
 62
     7
370
    13
100
AcDbHatch
 10
0.0
 20
0.0
 30
0.0
210
0.0
220
0.0
230
1.0
  2
SOLID
 70
     1
 71
     0
 91
        1
 92
        1
 93
        1
 72
     2
 10
-3431.863937044381
 20
1079.05396265583
 40
6.0
 50
0.0
 51
360.0
 73
     1
 97
        0
 75
     0
 76
     1
 98
        0
  0
HATCH
  5
29D
330
478
100
AcDbEntity
  8
STPs
  6
Continuous
 62
     7
370
    13
100
AcDbHatch
 10
0.0
 20
0.0
 30
0.0
210
0.0
220
0.0
230
1.0
  2
SOLID
 70
     1
 71
     0
 91
        1
 92
        1
 93
        1
 72
     2
 10
-3431.863937044381
 20
479.0539626558298
 40
6.0
 50
0.0
 51
360.0
 73
     1
 97
        0
 75
     0
 76
     1
 98
        0
  0
HATCH
  5
29E
330
478
100
AcDbEntity
  8
STPs
  6
Continuous
 62
     7
370
    13
100
AcDbHatch
 10
0.0
 20
0.0
 30
0.0
210
0.0
220
0.0
230
1.0
  2
SOLID
 70
     1
 71
     0
 91
        1
 92
        1
 93
        1
 72
     2
 10
-2831.863937044381
 20
479.0539626558298
 40
6.0
 50
0.0
 51
360.0
 73
     1
 97
        0
 75
     0
 76
     1
 98
        0
  0
HATCH
  5
29F
330
478
100
AcDbEntity
  8
STPs
  6
Continuous
 62
     7
370
    13
100
AcDbHatch
 10
0.0
 20
0.0
 30
0.0
210
0.0
220
0.0
230
1.0
  2
SOLID
 70
     1
 71
     0
 91
        1
 92
        1
 93
        1
 72
     2
 10
-2231.863937044381
 20
479.0539626558298
 40
6.0
 50
0.0
 51
360.0
 73
     1
 97
        0
 75
     0
 76
     1
 98
        0
  0
HATCH
  5
2A0
330
478
100
AcDbEntity
  8
STPs
  6
Continuous
 62
     7
370
    13
100
AcDbHatch
 10
0.0
 20
0.0
 30
0.0
210
0.0
220
0.0
230
1.0
  2
SOLID
 70
     1
 71
     0
 91
        1
 92
        1
 93
        1
 72
     2
 10
-1631.863937044381
 20
479.0539626558298
 40
6.0
 50
0.0
 51
360.0
 73
     1
 97
        0
 75
     0
 76
     1
 98
        0
  0
HATCH
  5
2A1
330
478
100
AcDbEntity
  8
STPs
  6
Continuous
 62
     7
370
    13
100
AcDbHatch
 10
0.0
 20
0.0
 30
0.0
210
0.0
220
0.0
230
1.0
  2
SOLID
 70
     1
 71
     0
 91
        1
 92
        1
 93
        1
 72
     2
 10
-1031.863937044381
 20
479.0539626558298
 40
6.0
 50
0.0
 51
360.0
 73
     1
 97
        0
 75
     0
 76
     1
 98
        0
  0
HATCH
  5
2A2
330
478
100
AcDbEntity
  8
STPs
  6
Continuous
 62
     7
370
    13
100
AcDbHatch
 10
0.0
 20
0.0
 30
0.0
210
0.0
220
0.0
230
1.0
  2
SOLID
 70
     1
 71
     0
 91
        1
 92
        1
 93
        1
 72
     2
 10
-1031.863937044381
 20
-120.9460373441703
 40
6.0
 50
0.0
 51
360.0
 73
     1
 97
        0
 75
     0
 76
     1
 98
        0
  0
HATCH
  5
2A3
330
478
100
AcDbEntity
  8
STPs
  6
Continuous
 62
     7
370
    13
100
AcDbHatch
 10
0.0
 20
0.0
 30
0.0
210
0.0
220
0.0
230
1.0
  2
SOLID
 70
     1
 71
     0
 91
        1
 92
        1
 93
        1
 72
     2
 10
-1631.863937044381
 20
-120.9460373441703
 40
6.0
 50
0.0
 51
360.0
 73
     1
 97
        0
 75
     0
 76
     1
 98
        0
  0
HATCH
  5
2A4
330
478
100
AcDbEntity
  8
STPs
  6
Continuous
 62
     7
370
    13
100
AcDbHatch
 10
0.0
 20
0.0
 30
0.0
210
0.0
220
0.0
230
1.0
  2
SOLID
 70
     1
 71
     0
 91
        1
 92
        1
 93
        1
 72
     2
 10
-2231.863937044381
 20
-120.9460373441703
 40
6.0
 50
0.0
 51
360.0
 73
     1
 97
        0
 75
     0
 76
     1
 98
        0
  0
HATCH
  5
2A5
330
478
100
AcDbEntity
  8
STPs
  6
Continuous
 62
     7
370
    13
100
AcDbHatch
 10
0.0
 20
0.0
 30
0.0
210
0.0
220
0.0
230
1.0
  2
SOLID
 70
     1
 71
     0
 91
        1
 92
        1
 93
        1
 72
     2
 10
-2831.863937044381
 20
-120.9460373441703
 40
6.0
 50
0.0
 51
360.0
 73
     1
 97
        0
 75
     0
 76
     1
 98
        0
  0
HATCH
  5
2A6
330
478
100
AcDbEntity
  8
STPs
  6
Continuous
 62
     7
370
    13
100
AcDbHatch
 10
0.0
 20
0.0
 30
0.0
210
0.0
220
0.0
230
1.0
  2
SOLID
 70
     1
 71
     0
 91
        1
 92
        1
 93
        1
 72
     2
 10
-3431.863937044381
 20
-120.9460373441703
 40
6.0
 50
0.0
 51
360.0
 73
     1
 97
        0
 75
     0
 76
     1
 98
        0
  0
HATCH
  5
2A7
330
478
100
AcDbEntity
  8
STPs
  6
Continuous
 62
     7
370
    13
100
AcDbHatch
 10
0.0
 20
0.0
 30
0.0
210
0.0
220
0.0
230
1.0
  2
SOLID
 70
     1
 71
     0
 91
        1
 92
        1
 93
        1
 72
     2
 10
-3431.863937044381
 20
-720.9460373441702
 40
6.0
 50
0.0
 51
360.0
 73
     1
 97
        0
 75
     0
 76
     1
 98
        0
  0
HATCH
  5
2A8
330
478
100
AcDbEntity
  8
STPs
  6
Continuous
 62
     7
370
    13
100
AcDbHatch
 10
0.0
 20
0.0
 30
0.0
210
0.0
220
0.0
230
1.0
  2
SOLID
 70
     1
 71
     0
 91
        1
 92
        1
 93
        1
 72
     2
 10
-2831.863937044381
 20
-720.9460373441702
 40
6.0
 50
0.0
 51
360.0
 73
     1
 97
        0
 75
     0
 76
     1
 98
        0
  0
HATCH
  5
2A9
330
478
100
AcDbEntity
  8
STPs
  6
Continuous
 62
     7
370
    13
100
AcDbHatch
 10
0.0
 20
0.0
 30
0.0
210
0.0
220
0.0
230
1.0
  2
SOLID
 70
     1
 71
     0
 91
        1
 92
        1
 93
        1
 72
     2
 10
-2231.863937044381
 20
-720.9460373441702
 40
6.0
 50
0.0
 51
360.0
 73
     1
 97
        0
 75
     0
 76
     1
 98
        0
  0
HATCH
  5
2AA
330
478
100
AcDbEntity
  8
STPs
  6
Continuous
 62
     7
370
    13
100
AcDbHatch
 10
0.0
 20
0.0
 30
0.0
210
0.0
220
0.0
230
1.0
  2
SOLID
 70
     1
 71
     0
 91
        1
 92
        1
 93
        1
 72
     2
 10
-1631.863937044381
 20
-720.9460373441702
 40
6.0
 50
0.0
 51
360.0
 73
     1
 97
        0
 75
     0
 76
     1
 98
        0
  0
HATCH
  5
2AB
330
478
100
AcDbEntity
  8
STPs
  6
Continuous
 62
     7
370
    13
100
AcDbHatch
 10
0.0
 20
0.0
 30
0.0
210
0.0
220
0.0
230
1.0
  2
SOLID
 70
     1
 71
     0
 91
        1
 92
        1
 93
        1
 72
     2
 10
-1031.863937044381
 20
-720.9460373441702
 40
6.0
 50
0.0
 51
360.0
 73
     1
 97
        0
 75
     0
 76
     1
 98
        0
  0
HATCH
  5
2AC
330
478
100
AcDbEntity
  8
STPs
  6
Continuous
 62
     7
370
    13
100
AcDbHatch
 10
0.0
 20
0.0
 30
0.0
210
0.0
220
0.0
230
1.0
  2
SOLID
 70
     1
 71
     0
 91
        1
 92
        1
 93
        1
 72
     2
 10
-4031.863937044381
 20
1079.05396265583
 40
6.0
 50
0.0
 51
360.0
 73
     1
 97
        0
 75
     0
 76
     1
 98
        0
  0
HATCH
  5
2AD
330
478
100
AcDbEntity
  8
STPs
  6
Continuous
 62
     7
370
    13
100
AcDbHatch
 10
0.0
 20
0.0
 30
0.0
210
0.0
220
0.0
230
1.0
  2
SOLID
 70
     1
 71
     0
 91
        1
 92
        1
 93
        1
 72
     2
 10
-4031.863937044381
 20
479.0539626558298
 40
6.0
 50
0.0
 51
360.0
 73
     1
 97
        0
 75
     0
 76
     1
 98
        0
  0
HATCH
  5
2AF
330
478
100
AcDbEntity
  8
STPs
  6
Continuous
 62
     7
370
    13
100
AcDbHatch
 10
0.0
 20
0.0
 30
0.0
210
0.0
220
0.0
230
1.0
  2
SOLID
 70
     1
 71
     0
 91
        1
 92
        1
 93
        1
 72
     2
 10
-4031.863937044381
 20
-120.9460373441703
 40
6.0
 50
0.0
 51
360.0
 73
     1
 97
        0
 75
     0
 76
     1
 98
        0
  0
HATCH
  5
2B0
330
478
100
AcDbEntity
  8
STPs
  6
Continuous
 62
     7
370
    13
100
AcDbHatch
 10
0.0
 20
0.0
 30
0.0
210
0.0
220
0.0
230
1.0
  2
SOLID
 70
     1
 71
     0
 91
        1
 92
        1
 93
        1
 72
     2
 10
-4031.863937044381
 20
-720.9460373441702
 40
6.0
 50
0.0
 51
360.0
 73
     1
 97
        0
 75
     0
 76
     1
 98
        0
  0
HATCH
  5
23A
330
478
100
AcDbEntity
  8
STPs
  6
Continuous
 62
     7
370
    13
100
AcDbHatch
 10
0.0
 20
0.0
 30
0.0
210
0.0
220
0.0
230
1.0
  2
SOLID
 70
     1
 71
     0
 91
        1
 92
        1
 93
        1
 72
     2
 10
3768.136062955619
 20
2879.05396265583
 40
6.0
 50
0.0
 51
360.0
 73
     1
 97
        0
 75
     0
 76
     1
 98
        0
  0
HATCH
  5
23C
330
478
100
AcDbEntity
  8
STPs
  6
Continuous
 62
     7
370
    13
100
AcDbHatch
 10
0.0
 20
0.0
 30
0.0
210
0.0
220
0.0
230
1.0
  2
SOLID
 70
     1
 71
     0
 91
        1
 92
        1
 93
        1
 72
     2
 10
3768.136062955619
 20
3479.05396265583
 40
6.0
 50
0.0
 51
360.0
 73
     1
 97
        0
 75
     0
 76
     1
 98
        0
  0
HATCH
  5
24E
330
478
100
AcDbEntity
  8
STPs
  6
Continuous
 62
     7
370
    13
100
AcDbHatch
 10
0.0
 20
0.0
 30
0.0
210
0.0
220
0.0
230
1.0
  2
SOLID
 70
     1
 71
     0
 91
        1
 92
        1
 93
        1
 72
     2
 10
3168.136062955619
 20
2879.05396265583
 40
6.0
 50
0.0
 51
360.0
 73
     1
 97
        0
 75
     0
 76
     1
 98
        0
  0
HATCH
  5
24F
330
478
100
AcDbEntity
  8
STPs
  6
Continuous
 62
     7
370
    13
100
AcDbHatch
 10
0.0
 20
0.0
 30
0.0
210
0.0
220
0.0
230
1.0
  2
SOLID
 70
     1
 71
     0
 91
        1
 92
        1
 93
        1
 72
     2
 10
3204.902861760117
 20
3474.720732796728
 40
6.0
 50
0.0
 51
360.0
 73
     1
 97
        0
 75
     0
 76
     1
 98
        0
  0
HATCH
  5
250
330
478
100
AcDbEntity
  8
STPs
  6
Continuous
 62
     7
370
    13
100
AcDbHatch
 10
0.0
 20
0.0
 30
0.0
210
0.0
220
0.0
230
1.0
  2
SOLID
 70
     1
 71
     0
 91
        1
 92
        1
 93
        1
 72
     2
 10
2604.902861760117
 20
3459.488773292007
 40
6.0
 50
0.0
 51
360.0
 73
     1
 97
        0
 75
     0
 76
     1
 98
        0
  0
HATCH
  5
251
330
478
100
AcDbEntity
  8
STPs
  6
Continuous
 62
     7
370
    13
100
AcDbHatch
 10
0.0
 20
0.0
 30
0.0
210
0.0
220
0.0
230
1.0
  2
SOLID
 70
     1
 71
     0
 91
        1
 92
        1
 93
        1
 72
     2
 10
2568.136062955619
 20
2879.05396265583
 40
6.0
 50
0.0
 51
360.0
 73
     1
 97
        0
 75
     0
 76
     1
 98
        0
  0
HATCH
  5
25E
330
478
100
AcDbEntity
  8
STPs
  6
Continuous
 62
     7
370
    13
100
AcDbHatch
 10
0.0
 20
0.0
 30
0.0
210
0.0
220
0.0
230
1.0
  2
SOLID
 70
     1
 71
     0
 91
        1
 92
        1
 93
        1
 72
     2
 10
1968.136062955619
 20
2879.05396265583
 40
6.0
 50
0.0
 51
360.0
 73
     1
 97
        0
 75
     0
 76
     1
 98
        0
  0
HATCH
  5
25F
330
478
100
AcDbEntity
  8
STPs
  6
Continuous
 62
     7
370
    13
100
AcDbHatch
 10
0.0
 20
0.0
 30
0.0
210
0.0
220
0.0
230
1.0
  2
SOLID
 70
     1
 71
     0
 91
        1
 92
        1
 93
        1
 72
     2
 10
1968.136062955619
 20
3479.05396265583
 40
6.0
 50
0.0
 51
360.0
 73
     1
 97
        0
 75
     0
 76
     1
 98
        0
  0
HATCH
  5
260
330
478
100
AcDbEntity
  8
STPs
  6
Continuous
 62
     7
370
    13
100
AcDbHatch
 10
0.0
 20
0.0
 30
0.0
210
0.0
220
0.0
230
1.0
  2
SOLID
 70
     1
 71
     0
 91
        1
 92
        1
 93
        1
 72
     2
 10
1968.136062955619
 20
4079.053962655829
 40
6.0
 50
0.0
 51
360.0
 73
     1
 97
        0
 75
     0
 76
     1
 98
        0
  0
HATCH
  5
261
330
478
100
AcDbEntity
  8
STPs
  6
Continuous
 62
     7
370
    13
100
AcDbHatch
 10
0.0
 20
0.0
 30
0.0
210
0.0
220
0.0
230
1.0
  2
SOLID
 70
     1
 71
     0
 91
        1
 92
        1
 93
        1
 72
     2
 10
1968.136062955619
 20
4679.053962655829
 40
6.0
 50
0.0
 51
360.0
 73
     1
 97
        0
 75
     0
 76
     1
 98
        0
  0
HATCH
  5
262
330
478
100
AcDbEntity
  8
STPs
  6
Continuous
 62
     7
370
    13
100
AcDbHatch
 10
0.0
 20
0.0
 30
0.0
210
0.0
220
0.0
230
1.0
  2
SOLID
 70
     1
 71
     0
 91
        1
 92
        1
 93
        1
 72
     2
 10
1968.136062955619
 20
5279.053962655829
 40
6.0
 50
0.0
 51
360.0
 73
     1
 97
        0
 75
     0
 76
     1
 98
        0
  0
HATCH
  5
263
330
478
100
AcDbEntity
  8
STPs
  6
Continuous
 62
     7
370
    13
100
AcDbHatch
 10
0.0
 20
0.0
 30
0.0
210
0.0
220
0.0
230
1.0
  2
SOLID
 70
     1
 71
     0
 91
        1
 92
        1
 93
        1
 72
     2
 10
1968.136062955619
 20
5879.053962655829
 40
6.0
 50
0.0
 51
360.0
 73
     1
 97
        0
 75
     0
 76
     1
 98
        0
  0
HATCH
  5
264
330
478
100
AcDbEntity
  8
STPs
  6
Continuous
 62
     7
370
    13
100
AcDbHatch
 10
0.0
 20
0.0
 30
0.0
210
0.0
220
0.0
230
1.0
  2
SOLID
 70
     1
 71
     0
 91
        1
 92
        1
 93
        1
 72
     2
 10
2568.136062955619
 20
5279.053962655829
 40
6.0
 50
0.0
 51
360.0
 73
     1
 97
        0
 75
     0
 76
     1
 98
        0
  0
HATCH
  5
265
330
478
100
AcDbEntity
  8
STPs
  6
Continuous
 62
     7
370
    13
100
AcDbHatch
 10
0.0
 20
0.0
 30
0.0
210
0.0
220
0.0
230
1.0
  2
SOLID
 70
     1
 71
     0
 91
        1
 92
        1
 93
        1
 72
     2
 10
2568.136062955619
 20
4679.053962655829
 40
6.0
 50
0.0
 51
360.0
 73
     1
 97
        0
 75
     0
 76
     1
 98
        0
  0
HATCH
  5
266
330
478
100
AcDbEntity
  8
STPs
  6
Continuous
 62
     7
370
    13
100
AcDbHatch
 10
0.0
 20
0.0
 30
0.0
210
0.0
220
0.0
230
1.0
  2
SOLID
 70
     1
 71
     0
 91
        1
 92
        1
 93
        1
 72
     2
 10
2568.136062955619
 20
4079.053962655829
 40
6.0
 50
0.0
 51
360.0
 73
     1
 97
        0
 75
     0
 76
     1
 98
        0
  0
HATCH
  5
267
330
478
100
AcDbEntity
  8
STPs
  6
Continuous
 62
     7
370
    13
100
AcDbHatch
 10
0.0
 20
0.0
 30
0.0
210
0.0
220
0.0
230
1.0
  2
SOLID
 70
     1
 71
     0
 91
        1
 92
        1
 93
        1
 72
     2
 10
1368.136062955619
 20
5879.053962655829
 40
6.0
 50
0.0
 51
360.0
 73
     1
 97
        0
 75
     0
 76
     1
 98
        0
  0
HATCH
  5
268
330
478
100
AcDbEntity
  8
STPs
  6
Continuous
 62
     7
370
    13
100
AcDbHatch
 10
0.0
 20
0.0
 30
0.0
210
0.0
220
0.0
230
1.0
  2
SOLID
 70
     1
 71
     0
 91
        1
 92
        1
 93
        1
 72
     2
 10
1368.136062955619
 20
5279.053962655829
 40
6.0
 50
0.0
 51
360.0
 73
     1
 97
        0
 75
     0
 76
     1
 98
        0
  0
HATCH
  5
269
330
478
100
AcDbEntity
  8
STPs
  6
Continuous
 62
     7
370
    13
100
AcDbHatch
 10
0.0
 20
0.0
 30
0.0
210
0.0
220
0.0
230
1.0
  2
SOLID
 70
     1
 71
     0
 91
        1
 92
        1
 93
        1
 72
     2
 10
1368.136062955619
 20
4679.053962655829
 40
6.0
 50
0.0
 51
360.0
 73
     1
 97
        0
 75
     0
 76
     1
 98
        0
  0
HATCH
  5
26A
330
478
100
AcDbEntity
  8
STPs
  6
Continuous
 62
     7
370
    13
100
AcDbHatch
 10
0.0
 20
0.0
 30
0.0
210
0.0
220
0.0
230
1.0
  2
SOLID
 70
     1
 71
     0
 91
        1
 92
        1
 93
        1
 72
     2
 10
1368.136062955619
 20
4079.053962655829
 40
6.0
 50
0.0
 51
360.0
 73
     1
 97
        0
 75
     0
 76
     1
 98
        0
  0
HATCH
  5
26B
330
478
100
AcDbEntity
  8
STPs
  6
Continuous
 62
     7
370
    13
100
AcDbHatch
 10
0.0
 20
0.0
 30
0.0
210
0.0
220
0.0
230
1.0
  2
SOLID
 70
     1
 71
     0
 91
        1
 92
        1
 93
        1
 72
     2
 10
1368.136062955619
 20
3479.05396265583
 40
6.0
 50
0.0
 51
360.0
 73
     1
 97
        0
 75
     0
 76
     1
 98
        0
  0
HATCH
  5
26C
330
478
100
AcDbEntity
  8
STPs
  6
Continuous
 62
     7
370
    13
100
AcDbHatch
 10
0.0
 20
0.0
 30
0.0
210
0.0
220
0.0
230
1.0
  2
SOLID
 70
     1
 71
     0
 91
        1
 92
        1
 93
        1
 72
     2
 10
1368.136062955619
 20
2879.05396265583
 40
6.0
 50
0.0
 51
360.0
 73
     1
 97
        0
 75
     0
 76
     1
 98
        0
  0
HATCH
  5
279
330
478
100
AcDbEntity
  8
STPs
  6
Continuous
 62
     7
370
    13
100
AcDbHatch
 10
0.0
 20
0.0
 30
0.0
210
0.0
220
0.0
230
1.0
  2
SOLID
 70
     1
 71
     0
 91
        1
 92
        1
 93
        1
 72
     2
 10
768.136062955619
 20
2879.05396265583
 40
6.0
 50
0.0
 51
360.0
 73
     1
 97
        0
 75
     0
 76
     1
 98
        0
  0
HATCH
  5
27A
330
478
100
AcDbEntity
  8
STPs
  6
Continuous
 62
     7
370
    13
100
AcDbHatch
 10
0.0
 20
0.0
 30
0.0
210
0.0
220
0.0
230
1.0
  2
SOLID
 70
     1
 71
     0
 91
        1
 92
        1
 93
        1
 72
     2
 10
768.136062955619
 20
3479.05396265583
 40
6.0
 50
0.0
 51
360.0
 73
     1
 97
        0
 75
     0
 76
     1
 98
        0
  0
HATCH
  5
27B
330
478
100
AcDbEntity
  8
STPs
  6
Continuous
 62
     7
370
    13
100
AcDbHatch
 10
0.0
 20
0.0
 30
0.0
210
0.0
220
0.0
230
1.0
  2
SOLID
 70
     1
 71
     0
 91
        1
 92
        1
 93
        1
 72
     2
 10
768.136062955619
 20
4079.053962655829
 40
6.0
 50
0.0
 51
360.0
 73
     1
 97
        0
 75
     0
 76
     1
 98
        0
  0
HATCH
  5
27C
330
478
100
AcDbEntity
  8
STPs
  6
Continuous
 62
     7
370
    13
100
AcDbHatch
 10
0.0
 20
0.0
 30
0.0
210
0.0
220
0.0
230
1.0
  2
SOLID
 70
     1
 71
     0
 91
        1
 92
        1
 93
        1
 72
     2
 10
768.136062955619
 20
4679.053962655829
 40
6.0
 50
0.0
 51
360.0
 73
     1
 97
        0
 75
     0
 76
     1
 98
        0
  0
HATCH
  5
27D
330
478
100
AcDbEntity
  8
STPs
  6
Continuous
 62
     7
370
    13
100
AcDbHatch
 10
0.0
 20
0.0
 30
0.0
210
0.0
220
0.0
230
1.0
  2
SOLID
 70
     1
 71
     0
 91
        1
 92
        1
 93
        1
 72
     2
 10
768.136062955619
 20
5279.053962655829
 40
6.0
 50
0.0
 51
360.0
 73
     1
 97
        0
 75
     0
 76
     1
 98
        0
  0
HATCH
  5
27E
330
478
100
AcDbEntity
  8
STPs
  6
Continuous
 62
     7
370
    13
100
AcDbHatch
 10
0.0
 20
0.0
 30
0.0
210
0.0
220
0.0
230
1.0
  2
SOLID
 70
     1
 71
     0
 91
        1
 92
        1
 93
        1
 72
     2
 10
168.136062955619
 20
4679.053962655829
 40
6.0
 50
0.0
 51
360.0
 73
     1
 97
        0
 75
     0
 76
     1
 98
        0
  0
HATCH
  5
27F
330
478
100
AcDbEntity
  8
STPs
  6
Continuous
 62
     7
370
    13
100
AcDbHatch
 10
0.0
 20
0.0
 30
0.0
210
0.0
220
0.0
230
1.0
  2
SOLID
 70
     1
 71
     0
 91
        1
 92
        1
 93
        1
 72
     2
 10
168.136062955619
 20
4079.053962655829
 40
6.0
 50
0.0
 51
360.0
 73
     1
 97
        0
 75
     0
 76
     1
 98
        0
  0
HATCH
  5
280
330
478
100
AcDbEntity
  8
STPs
  6
Continuous
 62
     7
370
    13
100
AcDbHatch
 10
0.0
 20
0.0
 30
0.0
210
0.0
220
0.0
230
1.0
  2
SOLID
 70
     1
 71
     0
 91
        1
 92
        1
 93
        1
 72
     2
 10
168.136062955619
 20
3479.05396265583
 40
6.0
 50
0.0
 51
360.0
 73
     1
 97
        0
 75
     0
 76
     1
 98
        0
  0
HATCH
  5
281
330
478
100
AcDbEntity
  8
STPs
  6
Continuous
 62
     7
370
    13
100
AcDbHatch
 10
0.0
 20
0.0
 30
0.0
210
0.0
220
0.0
230
1.0
  2
SOLID
 70
     1
 71
     0
 91
        1
 92
        1
 93
        1
 72
     2
 10
168.136062955619
 20
2879.05396265583
 40
6.0
 50
0.0
 51
360.0
 73
     1
 97
        0
 75
     0
 76
     1
 98
        0
  0
HATCH
  5
28F
330
478
100
AcDbEntity
  8
STPs
  6
Continuous
 62
     7
370
    13
100
AcDbHatch
 10
0.0
 20
0.0
 30
0.0
210
0.0
220
0.0
230
1.0
  2
SOLID
 70
     1
 71
     0
 91
        1
 92
        1
 93
        1
 72
     2
 10
-431.863937044381
 20
2879.05396265583
 40
6.0
 50
0.0
 51
360.0
 73
     1
 97
        0
 75
     0
 76
     1
 98
        0
  0
HATCH
  5
410
330
478
100
AcDbEntity
  8
STPs
  6
Continuous
 62
     7
370
    13
100
AcDbHatch
 10
0.0
 20
0.0
 30
0.0
210
0.0
220
0.0
230
1.0
  2
SOLID
 70
     1
 71
     0
 91
        1
 92
        1
 93
        1
 72
     2
 10
768.136062955619
 20
3779.05396265583
 40
6.0
 50
0.0
 51
360.0
 73
     1
 97
        0
 75
     0
 76
     1
 98
        0
  0
HATCH
  5
411
330
478
100
AcDbEntity
  8
STPs
  6
Continuous
 62
     7
370
    13
100
AcDbHatch
 10
0.0
 20
0.0
 30
0.0
210
0.0
220
0.0
230
1.0
  2
SOLID
 70
     1
 71
     0
 91
        1
 92
        1
 93
        1
 72
     2
 10
1368.136062955619
 20
3779.05396265583
 40
6.0
 50
0.0
 51
360.0
 73
     1
 97
        0
 75
     0
 76
     1
 98
        0
  0
HATCH
  5
412
330
478
100
AcDbEntity
  8
STPs
  6
Continuous
 62
     7
370
    13
100
AcDbHatch
 10
0.0
 20
0.0
 30
0.0
210
0.0
220
0.0
230
1.0
  2
SOLID
 70
     1
 71
     0
 91
        1
 92
        1
 93
        1
 72
     2
 10
1963.934143092248
 20
3770.650122929088
 40
6.0
 50
0.0
 51
360.0
 73
     1
 97
        0
 75
     0
 76
     1
 98
        0
  0
HATCH
  5
413
330
478
100
AcDbEntity
  8
STPs
  6
Continuous
 62
     7
370
    13
100
AcDbHatch
 10
0.0
 20
0.0
 30
0.0
210
0.0
220
0.0
230
1.0
  2
SOLID
 70
     1
 71
     0
 91
        1
 92
        1
 93
        1
 72
     2
 10
2263.934143092248
 20
3770.650122929088
 40
6.0
 50
0.0
 51
360.0
 73
     1
 97
        0
 75
     0
 76
     1
 98
        0
  0
HATCH
  5
414
330
478
100
AcDbEntity
  8
STPs
  6
Continuous
 62
     7
370
    13
100
AcDbHatch
 10
0.0
 20
0.0
 30
0.0
210
0.0
220
0.0
230
1.0
  2
SOLID
 70
     1
 71
     0
 91
        1
 92
        1
 93
        1
 72
     2
 10
2603.327141811353
 20
3778.528722672908
 40
6.0
 50
0.0
 51
360.0
 73
     1
 97
        0
 75
     0
 76
     1
 98
        0
  0
HATCH
  5
415
330
478
100
AcDbEntity
  8
STPs
  6
Continuous
 62
     7
370
    13
100
AcDbHatch
 10
0.0
 20
0.0
 30
0.0
210
0.0
220
0.0
230
1.0
  2
SOLID
 70
     1
 71
     0
 91
        1
 92
        1
 93
        1
 72
     2
 10
2868.136062955619
 20
3779.05396265583
 40
6.0
 50
0.0
 51
360.0
 73
     1
 97
        0
 75
     0
 76
     1
 98
        0
  0
HATCH
  5
416
330
478
100
AcDbEntity
  8
STPs
  6
Continuous
 62
     7
370
    13
100
AcDbHatch
 10
0.0
 20
0.0
 30
0.0
210
0.0
220
0.0
230
1.0
  2
SOLID
 70
     1
 71
     0
 91
        1
 92
        1
 93
        1
 72
     2
 10
3168.136062955619
 20
3779.05396265583
 40
6.0
 50
0.0
 51
360.0
 73
     1
 97
        0
 75
     0
 76
     1
 98
        0
  0
HATCH
  5
417
330
478
100
AcDbEntity
  8
STPs
  6
Continuous
 62
     7
370
    13
100
AcDbHatch
 10
0.0
 20
0.0
 30
0.0
210
0.0
220
0.0
230
1.0
  2
SOLID
 70
     1
 71
     0
 91
        1
 92
        1
 93
        1
 72
     2
 10
3474.964182733597
 20
3824.22460118707
 40
6.0
 50
0.0
 51
360.0
 73
     1
 97
        0
 75
     0
 76
     1
 98
        0
  0
HATCH
  5
418
330
478
100
AcDbEntity
  8
STPs
  6
Continuous
 62
     7
370
    13
100
AcDbHatch
 10
0.0
 20
0.0
 30
0.0
210
0.0
220
0.0
230
1.0
  2
SOLID
 70
     1
 71
     0
 91
        1
 92
        1
 93
        1
 72
     2
 10
3774.964182733597
 20
3824.22460118707
 40
6.0
 50
0.0
 51
360.0
 73
     1
 97
        0
 75
     0
 76
     1
 98
        0
  0
HATCH
  5
419
330
478
100
AcDbEntity
  8
STPs
  6
Continuous
 62
     7
370
    13
100
AcDbHatch
 10
0.0
 20
0.0
 30
0.0
210
0.0
220
0.0
230
1.0
  2
SOLID
 70
     1
 71
     0
 91
        1
 92
        1
 93
        1
 72
     2
 10
4068.136062955619
 20
3479.05396265583
 40
6.0
 50
0.0
 51
360.0
 73
     1
 97
        0
 75
     0
 76
     1
 98
        0
  0
HATCH
  5
41A
330
478
100
AcDbEntity
  8
STPs
  6
Continuous
 62
     7
370
    13
100
AcDbHatch
 10
0.0
 20
0.0
 30
0.0
210
0.0
220
0.0
230
1.0
  2
SOLID
 70
     1
 71
     0
 91
        1
 92
        1
 93
        1
 72
     2
 10
3504.902861760117
 20
3474.720732796728
 40
6.0
 50
0.0
 51
360.0
 73
     1
 97
        0
 75
     0
 76
     1
 98
        0
  0
HATCH
  5
41B
330
478
100
AcDbEntity
  8
STPs
  6
Continuous
 62
     7
370
    13
100
AcDbHatch
 10
0.0
 20
0.0
 30
0.0
210
0.0
220
0.0
230
1.0
  2
SOLID
 70
     1
 71
     0
 91
        1
 92
        1
 93
        1
 72
     2
 10
2884.401663721714
 20
3454.55270774129
 40
6.0
 50
0.0
 51
360.0
 73
     1
 97
        0
 75
     0
 76
     1
 98
        0
  0
HATCH
  5
41C
330
478
100
AcDbEntity
  8
STPs
  6
Continuous
 62
     7
370
    13
100
AcDbHatch
 10
0.0
 20
0.0
 30
0.0
210
0.0
220
0.0
230
1.0
  2
SOLID
 70
     1
 71
     0
 91
        1
 92
        1
 93
        1
 72
     2
 10
2266.035103023934
 20
3467.498683031559
 40
6.0
 50
0.0
 51
360.0
 73
     1
 97
        0
 75
     0
 76
     1
 98
        0
  0
HATCH
  5
41D
330
478
100
AcDbEntity
  8
STPs
  6
Continuous
 62
     7
370
    13
100
AcDbHatch
 10
0.0
 20
0.0
 30
0.0
210
0.0
220
0.0
230
1.0
  2
SOLID
 70
     1
 71
     0
 91
        1
 92
        1
 93
        1
 72
     2
 10
1668.136062955619
 20
3479.05396265583
 40
6.0
 50
0.0
 51
360.0
 73
     1
 97
        0
 75
     0
 76
     1
 98
        0
  0
HATCH
  5
41E
330
478
100
AcDbEntity
  8
STPs
  6
Continuous
 62
     7
370
    13
100
AcDbHatch
 10
0.0
 20
0.0
 30
0.0
210
0.0
220
0.0
230
1.0
  2
SOLID
 70
     1
 71
     0
 91
        1
 92
        1
 93
        1
 72
     2
 10
1068.136062955619
 20
3479.05396265583
 40
6.0
 50
0.0
 51
360.0
 73
     1
 97
        0
 75
     0
 76
     1
 98
        0
  0
HATCH
  5
41F
330
478
100
AcDbEntity
  8
STPs
  6
Continuous
 62
     7
370
    13
100
AcDbHatch
 10
0.0
 20
0.0
 30
0.0
210
0.0
220
0.0
230
1.0
  2
SOLID
 70
     1
 71
     0
 91
        1
 92
        1
 93
        1
 72
     2
 10
468.136062955619
 20
3479.05396265583
 40
6.0
 50
0.0
 51
360.0
 73
     1
 97
        0
 75
     0
 76
     1
 98
        0
  0
HATCH
  5
420
330
478
100
AcDbEntity
  8
STPs
  6
Continuous
 62
     7
370
    13
100
AcDbHatch
 10
0.0
 20
0.0
 30
0.0
210
0.0
220
0.0
230
1.0
  2
SOLID
 70
     1
 71
     0
 91
        1
 92
        1
 93
        1
 72
     2
 10
3468.136062955619
 20
2879.05396265583
 40
6.0
 50
0.0
 51
360.0
 73
     1
 97
        0
 75
     0
 76
     1
 98
        0
  0
HATCH
  5
421
330
478
100
AcDbEntity
  8
STPs
  6
Continuous
 62
     7
370
    13
100
AcDbHatch
 10
0.0
 20
0.0
 30
0.0
210
0.0
220
0.0
230
1.0
  2
SOLID
 70
     1
 71
     0
 91
        1
 92
        1
 93
        1
 72
     2
 10
2868.136062955619
 20
2879.05396265583
 40
6.0
 50
0.0
 51
360.0
 73
     1
 97
        0
 75
     0
 76
     1
 98
        0
  0
HATCH
  5
422
330
478
100
AcDbEntity
  8
STPs
  6
Continuous
 62
     7
370
    13
100
AcDbHatch
 10
0.0
 20
0.0
 30
0.0
210
0.0
220
0.0
230
1.0
  2
SOLID
 70
     1
 71
     0
 91
        1
 92
        1
 93
        1
 72
     2
 10
2268.136062955619
 20
2879.05396265583
 40
6.0
 50
0.0
 51
360.0
 73
     1
 97
        0
 75
     0
 76
     1
 98
        0
  0
HATCH
  5
423
330
478
100
AcDbEntity
  8
STPs
  6
Continuous
 62
     7
370
    13
100
AcDbHatch
 10
0.0
 20
0.0
 30
0.0
210
0.0
220
0.0
230
1.0
  2
SOLID
 70
     1
 71
     0
 91
        1
 92
        1
 93
        1
 72
     2
 10
1668.136062955619
 20
2879.05396265583
 40
6.0
 50
0.0
 51
360.0
 73
     1
 97
        0
 75
     0
 76
     1
 98
        0
  0
HATCH
  5
424
330
478
100
AcDbEntity
  8
STPs
  6
Continuous
 62
     7
370
    13
100
AcDbHatch
 10
0.0
 20
0.0
 30
0.0
210
0.0
220
0.0
230
1.0
  2
SOLID
 70
     1
 71
     0
 91
        1
 92
        1
 93
        1
 72
     2
 10
1368.136062955619
 20
3179.05396265583
 40
6.0
 50
0.0
 51
360.0
 73
     1
 97
        0
 75
     0
 76
     1
 98
        0
  0
HATCH
  5
425
330
478
100
AcDbEntity
  8
STPs
  6
Continuous
 62
     7
370
    13
100
AcDbHatch
 10
0.0
 20
0.0
 30
0.0
210
0.0
220
0.0
230
1.0
  2
SOLID
 70
     1
 71
     0
 91
        1
 92
        1
 93
        1
 72
     2
 10
768.136062955619
 20
3179.05396265583
 40
6.0
 50
0.0
 51
360.0
 73
     1
 97
        0
 75
     0
 76
     1
 98
        0
  0
HATCH
  5
426
330
478
100
AcDbEntity
  8
STPs
  6
Continuous
 62
     7
370
    13
100
AcDbHatch
 10
0.0
 20
0.0
 30
0.0
210
0.0
220
0.0
230
1.0
  2
SOLID
 70
     1
 71
     0
 91
        1
 92
        1
 93
        1
 72
     2
 10
1958.595349878203
 20
3180.475696426603
 40
6.0
 50
0.0
 51
360.0
 73
     1
 97
        0
 75
     0
 76
     1
 98
        0
  0
HATCH
  5
427
330
478
100
AcDbEntity
  8
STPs
  6
Continuous
 62
     7
370
    13
100
AcDbHatch
 10
0.0
 20
0.0
 30
0.0
210
0.0
220
0.0
230
1.0
  2
SOLID
 70
     1
 71
     0
 91
        1
 92
        1
 93
        1
 72
     2
 10
1968.136062955619
 20
2579.05396265583
 40
6.0
 50
0.0
 51
360.0
 73
     1
 97
        0
 75
     0
 76
     1
 98
        0
  0
HATCH
  5
428
330
478
100
AcDbEntity
  8
STPs
  6
Continuous
 62
     7
370
    13
100
AcDbHatch
 10
0.0
 20
0.0
 30
0.0
210
0.0
220
0.0
230
1.0
  2
SOLID
 70
     1
 71
     0
 91
        1
 92
        1
 93
        1
 72
     2
 10
1368.136062955619
 20
2579.05396265583
 40
6.0
 50
0.0
 51
360.0
 73
     1
 97
        0
 75
     0
 76
     1
 98
        0
  0
HATCH
  5
429
330
478
100
AcDbEntity
  8
STPs
  6
Continuous
 62
     7
370
    13
100
AcDbHatch
 10
0.0
 20
0.0
 30
0.0
210
0.0
220
0.0
230
1.0
  2
SOLID
 70
     1
 71
     0
 91
        1
 92
        1
 93
        1
 72
     2
 10
2568.136062955619
 20
2579.05396265583
 40
6.0
 50
0.0
 51
360.0
 73
     1
 97
        0
 75
     0
 76
     1
 98
        0
  0
HATCH
  5
42A
330
478
100
AcDbEntity
  8
STPs
  6
Continuous
 62
     7
370
    13
100
AcDbHatch
 10
0.0
 20
0.0
 30
0.0
210
0.0
220
0.0
230
1.0
  2
SOLID
 70
     1
 71
     0
 91
        1
 92
        1
 93
        1
 72
     2
 10
3168.136062955619
 20
2579.05396265583
 40
6.0
 50
0.0
 51
360.0
 73
     1
 97
        0
 75
     0
 76
     1
 98
        0
  0
HATCH
  5
42B
330
478
100
AcDbEntity
  8
STPs
  6
Continuous
 62
     7
370
    13
100
AcDbHatch
 10
0.0
 20
0.0
 30
0.0
210
0.0
220
0.0
230
1.0
  2
SOLID
 70
     1
 71
     0
 91
        1
 92
        1
 93
        1
 72
     2
 10
3207.003821691802
 20
3155.418163424367
 40
6.0
 50
0.0
 51
360.0
 73
     1
 97
        0
 75
     0
 76
     1
 98
        0
  0
HATCH
  5
42C
330
478
100
AcDbEntity
  8
STPs
  6
Continuous
 62
     7
370
    13
100
AcDbHatch
 10
0.0
 20
0.0
 30
0.0
210
0.0
220
0.0
230
1.0
  2
SOLID
 70
     1
 71
     0
 91
        1
 92
        1
 93
        1
 72
     2
 10
3768.136062955619
 20
3179.05396265583
 40
6.0
 50
0.0
 51
360.0
 73
     1
 97
        0
 75
     0
 76
     1
 98
        0
  0
HATCH
  5
228
330
478
100
AcDbEntity
  8
STPs
  6
Continuous
 62
     7
370
    13
100
AcDbHatch
 10
0.0
 20
0.0
 30
0.0
210
0.0
220
0.0
230
1.0
  2
SOLID
 70
     1
 71
     0
 91
        1
 92
        1
 93
        1
 72
     2
 10
5568.136062955619
 20
1079.05396265583
 40
6.0
 50
0.0
 51
360.0
 73
     1
 97
        0
 75
     0
 76
     1
 98
        0
  0
HATCH
  5
229
330
478
100
AcDbEntity
  8
STPs
  6
Continuous
 62
     7
370
    13
100
AcDbHatch
 10
0.0
 20
0.0
 30
0.0
210
0.0
220
0.0
230
1.0
  2
SOLID
 70
     1
 71
     0
 91
        1
 92
        1
 93
        1
 72
     2
 10
5568.136062955619
 20
1679.05396265583
 40
6.0
 50
0.0
 51
360.0
 73
     1
 97
        0
 75
     0
 76
     1
 98
        0
  0
HATCH
  5
22A
330
478
100
AcDbEntity
  8
STPs
  6
Continuous
 62
     7
370
    13
100
AcDbHatch
 10
0.0
 20
0.0
 30
0.0
210
0.0
220
0.0
230
1.0
  2
SOLID
 70
     1
 71
     0
 91
        1
 92
        1
 93
        1
 72
     2
 10
5568.136062955619
 20
2279.05396265583
 40
6.0
 50
0.0
 51
360.0
 73
     1
 97
        0
 75
     0
 76
     1
 98
        0
  0
HATCH
  5
22B
330
478
100
AcDbEntity
  8
STPs
  6
Continuous
 62
     7
370
    13
100
AcDbHatch
 10
0.0
 20
0.0
 30
0.0
210
0.0
220
0.0
230
1.0
  2
SOLID
 70
     1
 71
     0
 91
        1
 92
        1
 93
        1
 72
     2
 10
5568.136062955619
 20
2879.05396265583
 40
6.0
 50
0.0
 51
360.0
 73
     1
 97
        0
 75
     0
 76
     1
 98
        0
  0
HATCH
  5
22C
330
478
100
AcDbEntity
  8
STPs
  6
Continuous
 62
     7
370
    13
100
AcDbHatch
 10
0.0
 20
0.0
 30
0.0
210
0.0
220
0.0
230
1.0
  2
SOLID
 70
     1
 71
     0
 91
        1
 92
        1
 93
        1
 72
     2
 10
4968.136062955619
 20
2879.05396265583
 40
6.0
 50
0.0
 51
360.0
 73
     1
 97
        0
 75
     0
 76
     1
 98
        0
  0
HATCH
  5
22D
330
478
100
AcDbEntity
  8
STPs
  6
Continuous
 62
     7
370
    13
100
AcDbHatch
 10
0.0
 20
0.0
 30
0.0
210
0.0
220
0.0
230
1.0
  2
SOLID
 70
     1
 71
     0
 91
        1
 92
        1
 93
        1
 72
     2
 10
4968.136062955619
 20
3479.05396265583
 40
6.0
 50
0.0
 51
360.0
 73
     1
 97
        0
 75
     0
 76
     1
 98
        0
  0
HATCH
  5
22E
330
478
100
AcDbEntity
  8
STPs
  6
Continuous
 62
     7
370
    13
100
AcDbHatch
 10
0.0
 20
0.0
 30
0.0
210
0.0
220
0.0
230
1.0
  2
SOLID
 70
     1
 71
     0
 91
        1
 92
        1
 93
        1
 72
     2
 10
4968.136062955619
 20
2279.05396265583
 40
6.0
 50
0.0
 51
360.0
 73
     1
 97
        0
 75
     0
 76
     1
 98
        0
  0
HATCH
  5
22F
330
478
100
AcDbEntity
  8
STPs
  6
Continuous
 62
     7
370
    13
100
AcDbHatch
 10
0.0
 20
0.0
 30
0.0
210
0.0
220
0.0
230
1.0
  2
SOLID
 70
     1
 71
     0
 91
        1
 92
        1
 93
        1
 72
     2
 10
4968.136062955619
 20
1679.05396265583
 40
6.0
 50
0.0
 51
360.0
 73
     1
 97
        0
 75
     0
 76
     1
 98
        0
  0
HATCH
  5
230
330
478
100
AcDbEntity
  8
STPs
  6
Continuous
 62
     7
370
    13
100
AcDbHatch
 10
0.0
 20
0.0
 30
0.0
210
0.0
220
0.0
230
1.0
  2
SOLID
 70
     1
 71
     0
 91
        1
 92
        1
 93
        1
 72
     2
 10
4968.136062955619
 20
1079.05396265583
 40
6.0
 50
0.0
 51
360.0
 73
     1
 97
        0
 75
     0
 76
     1
 98
        0
  0
HATCH
  5
225
330
478
100
AcDbEntity
  8
STPs
  6
Continuous
 62
     7
370
    13
100
AcDbHatch
 10
0.0
 20
0.0
 30
0.0
210
0.0
220
0.0
230
1.0
  2
SOLID
 70
     1
 71
     0
 91
        1
 92
        1
 93
        1
 72
     2
 10
5568.136062955619
 20
-720.94603734417
 40
6.0
 50
0.0
 51
360.0
 73
     1
 97
        0
 75
     0
 76
     1
 98
        0
  0
HATCH
  5
226
330
478
100
AcDbEntity
  8
STPs
  6
Continuous
 62
     7
370
    13
100
AcDbHatch
 10
0.0
 20
0.0
 30
0.0
210
0.0
220
0.0
230
1.0
  2
SOLID
 70
     1
 71
     0
 91
        1
 92
        1
 93
        1
 72
     2
 10
5568.136062955619
 20
-120.94603734417
 40
6.0
 50
0.0
 51
360.0
 73
     1
 97
        0
 75
     0
 76
     1
 98
        0
  0
HATCH
  5
227
330
478
100
AcDbEntity
  8
STPs
  6
Continuous
 62
     7
370
    13
100
AcDbHatch
 10
0.0
 20
0.0
 30
0.0
210
0.0
220
0.0
230
1.0
  2
SOLID
 70
     1
 71
     0
 91
        1
 92
        1
 93
        1
 72
     2
 10
5568.136062955619
 20
479.05396265583
 40
6.0
 50
0.0
 51
360.0
 73
     1
 97
        0
 75
     0
 76
     1
 98
        0
  0
HATCH
  5
231
330
478
100
AcDbEntity
  8
STPs
  6
Continuous
 62
     7
370
    13
100
AcDbHatch
 10
0.0
 20
0.0
 30
0.0
210
0.0
220
0.0
230
1.0
  2
SOLID
 70
     1
 71
     0
 91
        1
 92
        1
 93
        1
 72
     2
 10
4968.136062955619
 20
479.0539626558298
 40
6.0
 50
0.0
 51
360.0
 73
     1
 97
        0
 75
     0
 76
     1
 98
        0
  0
HATCH
  5
232
330
478
100
AcDbEntity
  8
STPs
  6
Continuous
 62
     7
370
    13
100
AcDbHatch
 10
0.0
 20
0.0
 30
0.0
210
0.0
220
0.0
230
1.0
  2
SOLID
 70
     1
 71
     0
 91
        1
 92
        1
 93
        1
 72
     2
 10
4968.136062955619
 20
-120.9460373441703
 40
6.0
 50
0.0
 51
360.0
 73
     1
 97
        0
 75
     0
 76
     1
 98
        0
  0
HATCH
  5
233
330
478
100
AcDbEntity
  8
STPs
  6
Continuous
 62
     7
370
    13
100
AcDbHatch
 10
0.0
 20
0.0
 30
0.0
210
0.0
220
0.0
230
1.0
  2
SOLID
 70
     1
 71
     0
 91
        1
 92
        1
 93
        1
 72
     2
 10
4968.136062955619
 20
-720.9460373441702
 40
6.0
 50
0.0
 51
360.0
 73
     1
 97
        0
 75
     0
 76
     1
 98
        0
  0
HATCH
  5
234
330
478
100
AcDbEntity
  8
STPs
  6
Continuous
 62
     7
370
    13
100
AcDbHatch
 10
0.0
 20
0.0
 30
0.0
210
0.0
220
0.0
230
1.0
  2
SOLID
 70
     1
 71
     0
 91
        1
 92
        1
 93
        1
 72
     2
 10
3768.136062955619
 20
-720.9460373441702
 40
6.0
 50
0.0
 51
360.0
 73
     1
 97
        0
 75
     0
 76
     1
 98
        0
  0
HATCH
  5
235
330
478
100
AcDbEntity
  8
STPs
  6
Continuous
 62
     7
370
    13
100
AcDbHatch
 10
0.0
 20
0.0
 30
0.0
210
0.0
220
0.0
230
1.0
  2
SOLID
 70
     1
 71
     0
 91
        1
 92
        1
 93
        1
 72
     2
 10
3768.136062955619
 20
-120.9460373441703
 40
6.0
 50
0.0
 51
360.0
 73
     1
 97
        0
 75
     0
 76
     1
 98
        0
  0
HATCH
  5
236
330
478
100
AcDbEntity
  8
STPs
  6
Continuous
 62
     7
370
    13
100
AcDbHatch
 10
0.0
 20
0.0
 30
0.0
210
0.0
220
0.0
230
1.0
  2
SOLID
 70
     1
 71
     0
 91
        1
 92
        1
 93
        1
 72
     2
 10
3768.136062955619
 20
479.0539626558298
 40
6.0
 50
0.0
 51
360.0
 73
     1
 97
        0
 75
     0
 76
     1
 98
        0
  0
HATCH
  5
237
330
478
100
AcDbEntity
  8
STPs
  6
Continuous
 62
     7
370
    13
100
AcDbHatch
 10
0.0
 20
0.0
 30
0.0
210
0.0
220
0.0
230
1.0
  2
SOLID
 70
     1
 71
     0
 91
        1
 92
        1
 93
        1
 72
     2
 10
3768.136062955619
 20
1079.05396265583
 40
6.0
 50
0.0
 51
360.0
 73
     1
 97
        0
 75
     0
 76
     1
 98
        0
  0
HATCH
  5
238
330
478
100
AcDbEntity
  8
STPs
  6
Continuous
 62
     7
370
    13
100
AcDbHatch
 10
0.0
 20
0.0
 30
0.0
210
0.0
220
0.0
230
1.0
  2
SOLID
 70
     1
 71
     0
 91
        1
 92
        1
 93
        1
 72
     2
 10
3768.136062955619
 20
1679.05396265583
 40
6.0
 50
0.0
 51
360.0
 73
     1
 97
        0
 75
     0
 76
     1
 98
        0
  0
HATCH
  5
239
330
478
100
AcDbEntity
  8
STPs
  6
Continuous
 62
     7
370
    13
100
AcDbHatch
 10
0.0
 20
0.0
 30
0.0
210
0.0
220
0.0
230
1.0
  2
SOLID
 70
     1
 71
     0
 91
        1
 92
        1
 93
        1
 72
     2
 10
3768.136062955619
 20
2279.05396265583
 40
6.0
 50
0.0
 51
360.0
 73
     1
 97
        0
 75
     0
 76
     1
 98
        0
  0
HATCH
  5
246
330
478
100
AcDbEntity
  8
STPs
  6
Continuous
 62
     7
370
    13
100
AcDbHatch
 10
0.0
 20
0.0
 30
0.0
210
0.0
220
0.0
230
1.0
  2
SOLID
 70
     1
 71
     0
 91
        1
 92
        1
 93
        1
 72
     2
 10
3168.136062955619
 20
-720.9460373441702
 40
6.0
 50
0.0
 51
360.0
 73
     1
 97
        0
 75
     0
 76
     1
 98
        0
  0
HATCH
  5
247
330
478
100
AcDbEntity
  8
STPs
  6
Continuous
 62
     7
370
    13
100
AcDbHatch
 10
0.0
 20
0.0
 30
0.0
210
0.0
220
0.0
230
1.0
  2
SOLID
 70
     1
 71
     0
 91
        1
 92
        1
 93
        1
 72
     2
 10
3168.136062955619
 20
-120.9460373441703
 40
6.0
 50
0.0
 51
360.0
 73
     1
 97
        0
 75
     0
 76
     1
 98
        0
  0
HATCH
  5
249
330
478
100
AcDbEntity
  8
STPs
  6
Continuous
 62
     7
370
    13
100
AcDbHatch
 10
0.0
 20
0.0
 30
0.0
210
0.0
220
0.0
230
1.0
  2
SOLID
 70
     1
 71
     0
 91
        1
 92
        1
 93
        1
 72
     2
 10
3168.136062955619
 20
479.0539626558298
 40
6.0
 50
0.0
 51
360.0
 73
     1
 97
        0
 75
     0
 76
     1
 98
        0
  0
HATCH
  5
24B
330
478
100
AcDbEntity
  8
STPs
  6
Continuous
 62
     7
370
    13
100
AcDbHatch
 10
0.0
 20
0.0
 30
0.0
210
0.0
220
0.0
230
1.0
  2
SOLID
 70
     1
 71
     0
 91
        1
 92
        1
 93
        1
 72
     2
 10
3168.136062955619
 20
1079.05396265583
 40
6.0
 50
0.0
 51
360.0
 73
     1
 97
        0
 75
     0
 76
     1
 98
        0
  0
HATCH
  5
24C
330
478
100
AcDbEntity
  8
STPs
  6
Continuous
 62
     7
370
    13
100
AcDbHatch
 10
0.0
 20
0.0
 30
0.0
210
0.0
220
0.0
230
1.0
  2
SOLID
 70
     1
 71
     0
 91
        1
 92
        1
 93
        1
 72
     2
 10
3168.136062955619
 20
1679.05396265583
 40
6.0
 50
0.0
 51
360.0
 73
     1
 97
        0
 75
     0
 76
     1
 98
        0
  0
HATCH
  5
24D
330
478
100
AcDbEntity
  8
STPs
  6
Continuous
 62
     7
370
    13
100
AcDbHatch
 10
0.0
 20
0.0
 30
0.0
210
0.0
220
0.0
230
1.0
  2
SOLID
 70
     1
 71
     0
 91
        1
 92
        1
 93
        1
 72
     2
 10
3168.136062955619
 20
2279.05396265583
 40
6.0
 50
0.0
 51
360.0
 73
     1
 97
        0
 75
     0
 76
     1
 98
        0
  0
HATCH
  5
252
330
478
100
AcDbEntity
  8
STPs
  6
Continuous
 62
     7
370
    13
100
AcDbHatch
 10
0.0
 20
0.0
 30
0.0
210
0.0
220
0.0
230
1.0
  2
SOLID
 70
     1
 71
     0
 91
        1
 92
        1
 93
        1
 72
     2
 10
2568.136062955619
 20
2279.05396265583
 40
6.0
 50
0.0
 51
360.0
 73
     1
 97
        0
 75
     0
 76
     1
 98
        0
  0
HATCH
  5
253
330
478
100
AcDbEntity
  8
STPs
  6
Continuous
 62
     7
370
    13
100
AcDbHatch
 10
0.0
 20
0.0
 30
0.0
210
0.0
220
0.0
230
1.0
  2
SOLID
 70
     1
 71
     0
 91
        1
 92
        1
 93
        1
 72
     2
 10
2568.136062955619
 20
1679.05396265583
 40
6.0
 50
0.0
 51
360.0
 73
     1
 97
        0
 75
     0
 76
     1
 98
        0
  0
HATCH
  5
254
330
478
100
AcDbEntity
  8
STPs
  6
Continuous
 62
     7
370
    13
100
AcDbHatch
 10
0.0
 20
0.0
 30
0.0
210
0.0
220
0.0
230
1.0
  2
SOLID
 70
     1
 71
     0
 91
        1
 92
        1
 93
        1
 72
     2
 10
2568.136062955619
 20
1079.05396265583
 40
6.0
 50
0.0
 51
360.0
 73
     1
 97
        0
 75
     0
 76
     1
 98
        0
  0
HATCH
  5
255
330
478
100
AcDbEntity
  8
STPs
  6
Continuous
 62
     7
370
    13
100
AcDbHatch
 10
0.0
 20
0.0
 30
0.0
210
0.0
220
0.0
230
1.0
  2
SOLID
 70
     1
 71
     0
 91
        1
 92
        1
 93
        1
 72
     2
 10
2568.136062955619
 20
479.0539626558298
 40
6.0
 50
0.0
 51
360.0
 73
     1
 97
        0
 75
     0
 76
     1
 98
        0
  0
HATCH
  5
256
330
478
100
AcDbEntity
  8
STPs
  6
Continuous
 62
     7
370
    13
100
AcDbHatch
 10
0.0
 20
0.0
 30
0.0
210
0.0
220
0.0
230
1.0
  2
SOLID
 70
     1
 71
     0
 91
        1
 92
        1
 93
        1
 72
     2
 10
2568.136062955619
 20
-120.9460373441703
 40
6.0
 50
0.0
 51
360.0
 73
     1
 97
        0
 75
     0
 76
     1
 98
        0
  0
HATCH
  5
257
330
478
100
AcDbEntity
  8
STPs
  6
Continuous
 62
     7
370
    13
100
AcDbHatch
 10
0.0
 20
0.0
 30
0.0
210
0.0
220
0.0
230
1.0
  2
SOLID
 70
     1
 71
     0
 91
        1
 92
        1
 93
        1
 72
     2
 10
2568.136062955619
 20
-720.9460373441702
 40
6.0
 50
0.0
 51
360.0
 73
     1
 97
        0
 75
     0
 76
     1
 98
        0
  0
HATCH
  5
258
330
478
100
AcDbEntity
  8
STPs
  6
Continuous
 62
     7
370
    13
100
AcDbHatch
 10
0.0
 20
0.0
 30
0.0
210
0.0
220
0.0
230
1.0
  2
SOLID
 70
     1
 71
     0
 91
        1
 92
        1
 93
        1
 72
     2
 10
1968.136062955619
 20
-720.9460373441702
 40
6.0
 50
0.0
 51
360.0
 73
     1
 97
        0
 75
     0
 76
     1
 98
        0
  0
HATCH
  5
259
330
478
100
AcDbEntity
  8
STPs
  6
Continuous
 62
     7
370
    13
100
AcDbHatch
 10
0.0
 20
0.0
 30
0.0
210
0.0
220
0.0
230
1.0
  2
SOLID
 70
     1
 71
     0
 91
        1
 92
        1
 93
        1
 72
     2
 10
1968.136062955619
 20
-120.9460373441703
 40
6.0
 50
0.0
 51
360.0
 73
     1
 97
        0
 75
     0
 76
     1
 98
        0
  0
HATCH
  5
25A
330
478
100
AcDbEntity
  8
STPs
  6
Continuous
 62
     7
370
    13
100
AcDbHatch
 10
0.0
 20
0.0
 30
0.0
210
0.0
220
0.0
230
1.0
  2
SOLID
 70
     1
 71
     0
 91
        1
 92
        1
 93
        1
 72
     2
 10
1968.136062955619
 20
479.0539626558298
 40
6.0
 50
0.0
 51
360.0
 73
     1
 97
        0
 75
     0
 76
     1
 98
        0
  0
HATCH
  5
25B
330
478
100
AcDbEntity
  8
STPs
  6
Continuous
 62
     7
370
    13
100
AcDbHatch
 10
0.0
 20
0.0
 30
0.0
210
0.0
220
0.0
230
1.0
  2
SOLID
 70
     1
 71
     0
 91
        1
 92
        1
 93
        1
 72
     2
 10
1968.136062955619
 20
1079.05396265583
 40
6.0
 50
0.0
 51
360.0
 73
     1
 97
        0
 75
     0
 76
     1
 98
        0
  0
HATCH
  5
25C
330
478
100
AcDbEntity
  8
STPs
  6
Continuous
 62
     7
370
    13
100
AcDbHatch
 10
0.0
 20
0.0
 30
0.0
210
0.0
220
0.0
230
1.0
  2
SOLID
 70
     1
 71
     0
 91
        1
 92
        1
 93
        1
 72
     2
 10
1968.136062955619
 20
1679.05396265583
 40
6.0
 50
0.0
 51
360.0
 73
     1
 97
        0
 75
     0
 76
     1
 98
        0
  0
HATCH
  5
25D
330
478
100
AcDbEntity
  8
STPs
  6
Continuous
 62
     7
370
    13
100
AcDbHatch
 10
0.0
 20
0.0
 30
0.0
210
0.0
220
0.0
230
1.0
  2
SOLID
 70
     1
 71
     0
 91
        1
 92
        1
 93
        1
 72
     2
 10
1968.136062955619
 20
2279.05396265583
 40
6.0
 50
0.0
 51
360.0
 73
     1
 97
        0
 75
     0
 76
     1
 98
        0
  0
HATCH
  5
26D
330
478
100
AcDbEntity
  8
STPs
  6
Continuous
 62
     7
370
    13
100
AcDbHatch
 10
0.0
 20
0.0
 30
0.0
210
0.0
220
0.0
230
1.0
  2
SOLID
 70
     1
 71
     0
 91
        1
 92
        1
 93
        1
 72
     2
 10
1368.136062955619
 20
2279.05396265583
 40
6.0
 50
0.0
 51
360.0
 73
     1
 97
        0
 75
     0
 76
     1
 98
        0
  0
HATCH
  5
26E
330
478
100
AcDbEntity
  8
STPs
  6
Continuous
 62
     7
370
    13
100
AcDbHatch
 10
0.0
 20
0.0
 30
0.0
210
0.0
220
0.0
230
1.0
  2
SOLID
 70
     1
 71
     0
 91
        1
 92
        1
 93
        1
 72
     2
 10
1368.136062955619
 20
1679.05396265583
 40
6.0
 50
0.0
 51
360.0
 73
     1
 97
        0
 75
     0
 76
     1
 98
        0
  0
HATCH
  5
26F
330
478
100
AcDbEntity
  8
STPs
  6
Continuous
 62
     7
370
    13
100
AcDbHatch
 10
0.0
 20
0.0
 30
0.0
210
0.0
220
0.0
230
1.0
  2
SOLID
 70
     1
 71
     0
 91
        1
 92
        1
 93
        1
 72
     2
 10
1368.136062955619
 20
1079.05396265583
 40
6.0
 50
0.0
 51
360.0
 73
     1
 97
        0
 75
     0
 76
     1
 98
        0
  0
HATCH
  5
270
330
478
100
AcDbEntity
  8
STPs
  6
Continuous
 62
     7
370
    13
100
AcDbHatch
 10
0.0
 20
0.0
 30
0.0
210
0.0
220
0.0
230
1.0
  2
SOLID
 70
     1
 71
     0
 91
        1
 92
        1
 93
        1
 72
     2
 10
1368.136062955619
 20
479.0539626558298
 40
6.0
 50
0.0
 51
360.0
 73
     1
 97
        0
 75
     0
 76
     1
 98
        0
  0
HATCH
  5
271
330
478
100
AcDbEntity
  8
STPs
  6
Continuous
 62
     7
370
    13
100
AcDbHatch
 10
0.0
 20
0.0
 30
0.0
210
0.0
220
0.0
230
1.0
  2
SOLID
 70
     1
 71
     0
 91
        1
 92
        1
 93
        1
 72
     2
 10
1368.136062955619
 20
-120.9460373441703
 40
6.0
 50
0.0
 51
360.0
 73
     1
 97
        0
 75
     0
 76
     1
 98
        0
  0
HATCH
  5
272
330
478
100
AcDbEntity
  8
STPs
  6
Continuous
 62
     7
370
    13
100
AcDbHatch
 10
0.0
 20
0.0
 30
0.0
210
0.0
220
0.0
230
1.0
  2
SOLID
 70
     1
 71
     0
 91
        1
 92
        1
 93
        1
 72
     2
 10
1368.136062955619
 20
-720.9460373441702
 40
6.0
 50
0.0
 51
360.0
 73
     1
 97
        0
 75
     0
 76
     1
 98
        0
  0
HATCH
  5
42D
330
478
100
AcDbEntity
  8
STPs
  6
Continuous
 62
     7
370
    13
100
AcDbHatch
 10
0.0
 20
0.0
 30
0.0
210
0.0
220
0.0
230
1.0
  2
SOLID
 70
     1
 71
     0
 91
        1
 92
        1
 93
        1
 72
     2
 10
2268.136062955619
 20
479.0539626558298
 40
6.0
 50
0.0
 51
360.0
 73
     1
 97
        0
 75
     0
 76
     1
 98
        0
  0
HATCH
  5
42E
330
478
100
AcDbEntity
  8
STPs
  6
Continuous
 62
     7
370
    13
100
AcDbHatch
 10
0.0
 20
0.0
 30
0.0
210
0.0
220
0.0
230
1.0
  2
SOLID
 70
     1
 71
     0
 91
        1
 92
        1
 93
        1
 72
     2
 10
2868.136062955619
 20
479.0539626558298
 40
6.0
 50
0.0
 51
360.0
 73
     1
 97
        0
 75
     0
 76
     1
 98
        0
  0
HATCH
  5
42F
330
478
100
AcDbEntity
  8
STPs
  6
Continuous
 62
     7
370
    13
100
AcDbHatch
 10
0.0
 20
0.0
 30
0.0
210
0.0
220
0.0
230
1.0
  2
SOLID
 70
     1
 71
     0
 91
        1
 92
        1
 93
        1
 72
     2
 10
3468.136062955619
 20
479.0539626558298
 40
6.0
 50
0.0
 51
360.0
 73
     1
 97
        0
 75
     0
 76
     1
 98
        0
  0
HATCH
  5
430
330
478
100
AcDbEntity
  8
STPs
  6
Continuous
 62
     7
370
    13
100
AcDbHatch
 10
0.0
 20
0.0
 30
0.0
210
0.0
220
0.0
230
1.0
  2
SOLID
 70
     1
 71
     0
 91
        1
 92
        1
 93
        1
 72
     2
 10
3468.136062955619
 20
1079.05396265583
 40
6.0
 50
0.0
 51
360.0
 73
     1
 97
        0
 75
     0
 76
     1
 98
        0
  0
HATCH
  5
431
330
478
100
AcDbEntity
  8
STPs
  6
Continuous
 62
     7
370
    13
100
AcDbHatch
 10
0.0
 20
0.0
 30
0.0
210
0.0
220
0.0
230
1.0
  2
SOLID
 70
     1
 71
     0
 91
        1
 92
        1
 93
        1
 72
     2
 10
3468.136062955619
 20
1679.05396265583
 40
6.0
 50
0.0
 51
360.0
 73
     1
 97
        0
 75
     0
 76
     1
 98
        0
  0
HATCH
  5
432
330
478
100
AcDbEntity
  8
STPs
  6
Continuous
 62
     7
370
    13
100
AcDbHatch
 10
0.0
 20
0.0
 30
0.0
210
0.0
220
0.0
230
1.0
  2
SOLID
 70
     1
 71
     0
 91
        1
 92
        1
 93
        1
 72
     2
 10
3468.136062955619
 20
2279.05396265583
 40
6.0
 50
0.0
 51
360.0
 73
     1
 97
        0
 75
     0
 76
     1
 98
        0
  0
HATCH
  5
433
330
478
100
AcDbEntity
  8
STPs
  6
Continuous
 62
     7
370
    13
100
AcDbHatch
 10
0.0
 20
0.0
 30
0.0
210
0.0
220
0.0
230
1.0
  2
SOLID
 70
     1
 71
     0
 91
        1
 92
        1
 93
        1
 72
     2
 10
2868.136062955619
 20
2279.05396265583
 40
6.0
 50
0.0
 51
360.0
 73
     1
 97
        0
 75
     0
 76
     1
 98
        0
  0
HATCH
  5
434
330
478
100
AcDbEntity
  8
STPs
  6
Continuous
 62
     7
370
    13
100
AcDbHatch
 10
0.0
 20
0.0
 30
0.0
210
0.0
220
0.0
230
1.0
  2
SOLID
 70
     1
 71
     0
 91
        1
 92
        1
 93
        1
 72
     2
 10
2268.136062955619
 20
2279.05396265583
 40
6.0
 50
0.0
 51
360.0
 73
     1
 97
        0
 75
     0
 76
     1
 98
        0
  0
HATCH
  5
435
330
478
100
AcDbEntity
  8
STPs
  6
Continuous
 62
     7
370
    13
100
AcDbHatch
 10
0.0
 20
0.0
 30
0.0
210
0.0
220
0.0
230
1.0
  2
SOLID
 70
     1
 71
     0
 91
        1
 92
        1
 93
        1
 72
     2
 10
2268.136062955619
 20
1679.05396265583
 40
6.0
 50
0.0
 51
360.0
 73
     1
 97
        0
 75
     0
 76
     1
 98
        0
  0
HATCH
  5
436
330
478
100
AcDbEntity
  8
STPs
  6
Continuous
 62
     7
370
    13
100
AcDbHatch
 10
0.0
 20
0.0
 30
0.0
210
0.0
220
0.0
230
1.0
  2
SOLID
 70
     1
 71
     0
 91
        1
 92
        1
 93
        1
 72
     2
 10
2268.136062955619
 20
1079.05396265583
 40
6.0
 50
0.0
 51
360.0
 73
     1
 97
        0
 75
     0
 76
     1
 98
        0
  0
HATCH
  5
437
330
478
100
AcDbEntity
  8
STPs
  6
Continuous
 62
     7
370
    13
100
AcDbHatch
 10
0.0
 20
0.0
 30
0.0
210
0.0
220
0.0
230
1.0
  2
SOLID
 70
     1
 71
     0
 91
        1
 92
        1
 93
        1
 72
     2
 10
2868.136062955619
 20
1079.05396265583
 40
6.0
 50
0.0
 51
360.0
 73
     1
 97
        0
 75
     0
 76
     1
 98
        0
  0
HATCH
  5
438
330
478
100
AcDbEntity
  8
STPs
  6
Continuous
 62
     7
370
    13
100
AcDbHatch
 10
0.0
 20
0.0
 30
0.0
210
0.0
220
0.0
230
1.0
  2
SOLID
 70
     1
 71
     0
 91
        1
 92
        1
 93
        1
 72
     2
 10
2868.136062955619
 20
1679.05396265583
 40
6.0
 50
0.0
 51
360.0
 73
     1
 97
        0
 75
     0
 76
     1
 98
        0
  0
HATCH
  5
439
330
478
100
AcDbEntity
  8
STPs
  6
Continuous
 62
     7
370
    13
100
AcDbHatch
 10
0.0
 20
0.0
 30
0.0
210
0.0
220
0.0
230
1.0
  2
SOLID
 70
     1
 71
     0
 91
        1
 92
        1
 93
        1
 72
     2
 10
2568.136062955619
 20
179.0539626558298
 40
6.0
 50
0.0
 51
360.0
 73
     1
 97
        0
 75
     0
 76
     1
 98
        0
  0
HATCH
  5
43A
330
478
100
AcDbEntity
  8
STPs
  6
Continuous
 62
     7
370
    13
100
AcDbHatch
 10
0.0
 20
0.0
 30
0.0
210
0.0
220
0.0
230
1.0
  2
SOLID
 70
     1
 71
     0
 91
        1
 92
        1
 93
        1
 72
     2
 10
2568.136062955619
 20
779.0539626558298
 40
6.0
 50
0.0
 51
360.0
 73
     1
 97
        0
 75
     0
 76
     1
 98
        0
  0
HATCH
  5
43B
330
478
100
AcDbEntity
  8
STPs
  6
Continuous
 62
     7
370
    13
100
AcDbHatch
 10
0.0
 20
0.0
 30
0.0
210
0.0
220
0.0
230
1.0
  2
SOLID
 70
     1
 71
     0
 91
        1
 92
        1
 93
        1
 72
     2
 10
2568.136062955619
 20
1379.05396265583
 40
6.0
 50
0.0
 51
360.0
 73
     1
 97
        0
 75
     0
 76
     1
 98
        0
  0
HATCH
  5
43C
330
478
100
AcDbEntity
  8
STPs
  6
Continuous
 62
     7
370
    13
100
AcDbHatch
 10
0.0
 20
0.0
 30
0.0
210
0.0
220
0.0
230
1.0
  2
SOLID
 70
     1
 71
     0
 91
        1
 92
        1
 93
        1
 72
     2
 10
2568.136062955619
 20
1979.05396265583
 40
6.0
 50
0.0
 51
360.0
 73
     1
 97
        0
 75
     0
 76
     1
 98
        0
  0
HATCH
  5
43D
330
478
100
AcDbEntity
  8
STPs
  6
Continuous
 62
     7
370
    13
100
AcDbHatch
 10
0.0
 20
0.0
 30
0.0
210
0.0
220
0.0
230
1.0
  2
SOLID
 70
     1
 71
     0
 91
        1
 92
        1
 93
        1
 72
     2
 10
3168.136062955619
 20
1979.05396265583
 40
6.0
 50
0.0
 51
360.0
 73
     1
 97
        0
 75
     0
 76
     1
 98
        0
  0
HATCH
  5
43E
330
478
100
AcDbEntity
  8
STPs
  6
Continuous
 62
     7
370
    13
100
AcDbHatch
 10
0.0
 20
0.0
 30
0.0
210
0.0
220
0.0
230
1.0
  2
SOLID
 70
     1
 71
     0
 91
        1
 92
        1
 93
        1
 72
     2
 10
3168.136062955619
 20
1379.05396265583
 40
6.0
 50
0.0
 51
360.0
 73
     1
 97
        0
 75
     0
 76
     1
 98
        0
  0
HATCH
  5
43F
330
478
100
AcDbEntity
  8
STPs
  6
Continuous
 62
     7
370
    13
100
AcDbHatch
 10
0.0
 20
0.0
 30
0.0
210
0.0
220
0.0
230
1.0
  2
SOLID
 70
     1
 71
     0
 91
        1
 92
        1
 93
        1
 72
     2
 10
3168.136062955619
 20
779.0539626558298
 40
6.0
 50
0.0
 51
360.0
 73
     1
 97
        0
 75
     0
 76
     1
 98
        0
  0
HATCH
  5
440
330
478
100
AcDbEntity
  8
STPs
  6
Continuous
 62
     7
370
    13
100
AcDbHatch
 10
0.0
 20
0.0
 30
0.0
210
0.0
220
0.0
230
1.0
  2
SOLID
 70
     1
 71
     0
 91
        1
 92
        1
 93
        1
 72
     2
 10
3168.136062955619
 20
179.0539626558298
 40
6.0
 50
0.0
 51
360.0
 73
     1
 97
        0
 75
     0
 76
     1
 98
        0
  0
LINE
  5
442
330
478
100
AcDbEntity
  8
Feature Numbers
  6
Continuous
 62
     7
370
    13
100
AcDbLine
 10
3168.715348
 20
3310.670841
 30
0.0
 11
3120.309831
 21
3278.400496
 31
0.0
  0
LWPOLYLINE
  5
454
330
478
100
AcDbEntity
  8
Feature Numbers
  6
Continuous
 62
     7
370
    13
100
AcDbPolyline
 90
        3
 70
   128
 43
0.0
 10
3260.641045
 20
3473.531339
 10
3219.076814
 20
3450.926231
 10
3219.076814
 20
3450.926231
  0
TEXT
  5
C3
330
478
100
AcDbEntity
  8
Quadrat Numbers
  6
Continuous
 62
     7
370
     0
100
AcDbText
 10
2857.738957
 20
1058.831525
 30
0.0
 40
30.0
  1
29
 50
359.499994
  7
Style-Garamond
 11
2858.000757
 21
1088.830383
 31
0.0
100
AcDbText
 73
     3
  0
TEXT
  5
455
330
478
100
AcDbEntity
  8
Scale-North Arrow
  6
Continuous
 62
     7
370
    13
100
AcDbText
 10
1123.54009
 20
1785.624921
 30
0.0
 40
60.0
  1
0
 50
1.0
  7
Style-Garamond
 11
1122.492945
 21
1845.615783
 31
0.0
100
AcDbText
 73
     3
  0
TEXT
  5
457
330
478
100
AcDbEntity
  8
Scale-North Arrow
  6
Continuous
 62
     7
370
    13
100
AcDbText
 10
1698.433003
 20
1783.795601
 30
0.0
 40
60.0
  1
50
 50
1.0
  7
Style-Garamond
 11
1697.385858
 21
1843.786463
 31
0.0
100
AcDbText
 73
     3
  0
SPLINE
  5
458
330
478
100
AcDbEntity
  8
Key
  6
Continuous
 62
     7
370
    13
100
AcDbSpline
210
0.0
220
0.0
230
1.0
 70
    11
 71
     3
 72
    67
 73
    63
 74
     0
 42
0.0000000001
 43
0.00000001
 40
0.0
 40
0.0
 40
0.0
 40
0.0
 40
0.0166666666666667
 40
0.0333333333333333
 40
0.05
 40
0.0666666666666667
 40
0.0833333333333333
 40
0.1
 40
0.1166666666666667
 40
0.1333333333333333
 40
0.15
 40
0.1666666666666667
 40
0.1833333333333333
 40
0.2
 40
0.2166666666666667
 40
0.2333333333333333
 40
0.25
 40
0.2666666666666667
 40
0.2833333333333333
 40
0.3
 40
0.3166666666666667
 40
0.3333333333333333
 40
0.35
 40
0.3666666666666666
 40
0.3833333333333333
 40
0.4
 40
0.4166666666666666
 40
0.4333333333333333
 40
0.45
 40
0.4666666666666666
 40
0.4833333333333333
 40
0.4999999999999999
 40
0.5166666666666666
 40
0.5333333333333333
 40
0.55
 40
0.5666666666666668
 40
0.5833333333333335
 40
0.6000000000000002
 40
0.6166666666666669
 40
0.6333333333333336
 40
0.6500000000000004
 40
0.6666666666666671
 40
0.6833333333333338
 40
0.7000000000000005
 40
0.7166666666666672
 40
0.733333333333334
 40
0.7500000000000007
 40
0.7666666666666674
 40
0.7833333333333341
 40
0.8000000000000008
 40
0.8166666666666675
 40
0.8333333333333343
 40
0.850000000000001
 40
0.8666666666666677
 40
0.8833333333333344
 40
0.9000000000000011
 40
0.9166666666666679
 40
0.9333333333333346
 40
0.9500000000000013
 40
0.966666666666668
 40
0.9833333333333347
 40
1.0
 40
1.0
 40
1.0
 40
1.0
 10
1186.539403862301
 20
968.2410876398038
 30
0.0
 10
1186.231003738183
 20
969.614870010875
 30
0.0
 10
1185.894567239145
 20
971.9699255041402
 30
0.0
 10
1185.894567239145
 20
976.5118182411516
 30
0.0
 10
1186.903876736259
 20
983.9134212199846
 30
0.0
 10
1187.744967983854
 20
988.2870957074769
 30
0.0
 10
1188.586059231448
 20
992.660770194969
 30
0.0
 10
1190.604678225675
 20
1000.39880967284
 30
0.0
 10
1192.286860720865
 20
1009.482595146862
 30
0.0
 10
1192.623297219902
 20
1015.202015630506
 30
0.0
 10
1192.623297219902
 20
1021.257872613188
 30
0.0
 10
1193.127951968459
 20
1028.995912091059
 30
0.0
 10
1193.127951968459
 20
1032.696713580475
 30
0.0
 10
1194.47369796461
 20
1040.098316559308
 30
0.0
 10
1196.492316958838
 20
1044.640209296319
 30
0.0
 10
1200.697773196811
 20
1049.35032028285
 30
0.0
 10
1207.25828492805
 20
1053.051121772266
 30
0.0
 10
1211.463741166023
 20
1054.396867768417
 30
0.0
 10
1215.164542655439
 20
1055.237959016012
 30
0.0
 10
1222.397927384754
 20
1056.583705012164
 30
0.0
 10
1228.453784367435
 20
1056.751923261682
 30
0.0
 10
1238.883315837609
 20
1056.247268513126
 30
0.0
 10
1244.098081572696
 20
1056.415486762645
 30
0.0
 10
1253.350085296237
 20
1056.079050263607
 30
0.0
 10
1259.405942278919
 20
1056.079050263607
 30
0.0
 10
1268.994382501498
 20
1055.910832014088
 30
0.0
 10
1275.386675983217
 20
1054.901522516974
 30
0.0
 10
1280.601441718304
 20
1053.387558271304
 30
0.0
 10
1283.797588459164
 20
1051.705375776114
 30
0.0
 10
1288.675917695213
 20
1045.481300543914
 30
0.0
 10
1292.208500935111
 20
1039.089007062195
 30
0.0
 10
1294.563556428376
 20
1030.005221588172
 30
0.0
 10
1295.741084175008
 20
1021.762527361744
 30
0.0
 10
1296.413957173084
 20
1013.183396636279
 30
0.0
 10
1296.413957173084
 20
1007.295757903116
 30
0.0
 10
1296.582175422603
 20
994.1747344406394
 30
0.0
 10
1297.086830171159
 20
988.1188774579578
 30
0.0
 10
1297.591484919716
 20
984.0816394695034
 30
0.0
 10
1298.937230915868
 20
977.689345987784
 30
0.0
 10
1299.610103913944
 20
971.1288342565456
 30
0.0
 10
1299.946540412981
 20
966.9233780185723
 30
0.0
 10
1298.432576167311
 20
960.1946480378149
 30
0.0
 10
1295.40464767597
 20
957.3349377959933
 30
0.0
 10
1288.003044697137
 20
957.3349377959933
 30
0.0
 10
1282.115405963975
 20
956.9985012969553
 30
0.0
 10
1275.386675983217
 20
956.6620647979173
 30
0.0
 10
1266.807545257752
 20
956.6620647979173
 30
0.0
 10
1256.378013787578
 20
956.9985012969553
 30
0.0
 10
1247.126010064037
 20
956.6620647979173
 30
0.0
 10
1243.929863323177
 20
956.6620647979173
 30
0.0
 10
1239.556188835685
 20
956.9985012969553
 30
0.0
 10
1235.687169096749
 20
957.1667195464742
 30
0.0
 10
1227.612693119841
 20
957.671374295031
 30
0.0
 10
1221.893272636197
 20
957.1667195464742
 30
0.0
 10
1215.332760904958
 20
955.8209735503227
 30
0.0
 10
1209.276903922277
 20
954.9798823027281
 30
0.0
 10
1203.725701688152
 20
954.8116640532091
 30
0.0
 10
1199.015590701622
 20
955.148100552247
 30
0.0
 10
1193.127951968459
 20
957.671374295031
 30
0.0
 10
1189.76358697808
 20
961.0357392854096
 30
0.0
 10
1187.744967983854
 20
963.7272312777125
 30
0.0
 10
1186.847803986419
 20
966.8673052687326
 30
0.0
 10
1186.539403862301
 20
968.2410876398038
 30
0.0
  0
MTEXT
  5
45A
330
478
100
AcDbEntity
  8
Key
  6
Continuous
 62
     7
370
    30
100
AcDbMText
 10
1365.974429
 20
1043.832774
 30
0.0
 40
48.0
 41
0.0
 71
     1
 72
     1
  1
- Area scrapped \P   by Gradall
  7
Style-Garamond
 73
     2
 44
0.846063
  0
LWPOLYLINE
  5
45D
330
478
100
AcDbEntity
  8
Scale-North Arrow
  6
Continuous
 62
     7
370
    30
100
AcDbPolyline
 90
        4
 70
   129
 43
0.0
 10
1145.536493
 20
1944.621259
 10
1205.536493
 20
1944.621259
 10
1205.536493
 20
1920.621259
 10
1145.536493
 20
1920.621259
  0
LWPOLYLINE
  5
45F
330
478
100
AcDbEntity
  8
Scale-North Arrow
  6
Continuous
 62
     7
370
    30
100
AcDbPolyline
 90
        4
 70
   129
 43
0.0
 10
1265.536493
 20
1944.621259
 10
1325.536493
 20
1944.621259
 10
1325.536493
 20
1920.621259
 10
1265.536493
 20
1920.621259
  0
SOLID
  5
45E
330
478
100
AcDbEntity
  8
Scale-North Arrow
  6
Continuous
 62
     7
370
    30
100
AcDbTrace
 10
-1205.536493
 20
1944.621259
 30
0.0
 11
-1265.536493
 21
1944.621259
 31
0.0
 12
-1205.536493
 22
1920.621259
 32
0.0
 13
-1265.536493
 23
1920.621259
 33
0.0
210
0.0
220
0.0
230
-1.0
  0
SOLID
  5
460
330
478
100
AcDbEntity
  8
Scale-North Arrow
  6
Continuous
 62
     7
370
    30
100
AcDbTrace
 10
-1325.536493
 20
1944.621259
 30
0.0
 11
-1385.536493
 21
1944.621259
 31
0.0
 12
-1325.536493
 22
1920.621259
 32
0.0
 13
-1385.536493
 23
1920.621259
 33
0.0
210
0.0
220
0.0
230
-1.0
  0
LWPOLYLINE
  5
466
330
478
100
AcDbEntity
  8
Scale-North Arrow
  6
Continuous
 62
     7
370
    30
100
AcDbPolyline
 90
        4
 70
   129
 43
0.0
 10
1205.536493
 20
1920.621259
 10
1265.536493
 20
1920.621259
 10
1265.536493
 20
1896.621259
 10
1205.536493
 20
1896.621259
  0
LWPOLYLINE
  5
467
330
478
100
AcDbEntity
  8
Scale-North Arrow
  6
Continuous
 62
     7
370
    30
100
AcDbPolyline
 90
        4
 70
   129
 43
0.0
 10
1325.536493
 20
1920.621259
 10
1385.536493
 20
1920.621259
 10
1385.536493
 20
1896.621259
 10
1325.536493
 20
1896.621259
  0
SOLID
  5
463
330
478
100
AcDbEntity
  8
Scale-North Arrow
  6
Continuous
 62
     7
370
    30
100
AcDbTrace
 10
-1145.536493
 20
1920.621259
 30
0.0
 11
-1205.536493
 21
1920.621259
 31
0.0
 12
-1145.536493
 22
1896.621259
 32
0.0
 13
-1205.536493
 23
1896.621259
 33
0.0
210
0.0
220
0.0
230
-1.0
  0
SOLID
  5
464
330
478
100
AcDbEntity
  8
Scale-North Arrow
  6
Continuous
 62
     7
370
    30
100
AcDbTrace
 10
-1265.536493
 20
1920.621259
 30
0.0
 11
-1325.536493
 21
1920.621259
 31
0.0
 12
-1265.536493
 22
1896.621259
 32
0.0
 13
-1325.536493
 23
1896.621259
 33
0.0
210
0.0
220
0.0
230
-1.0
  0
SOLID
  5
468
330
478
100
AcDbEntity
  8
Scale-North Arrow
  6
Continuous
 62
     7
370
    30
100
AcDbTrace
 10
1385.536493
 20
1897.973603
 30
0.0
 11
1745.536493
 21
1897.973603
 31
0.0
 12
1385.536493
 22
1921.973603
 32
0.0
 13
1745.536493
 23
1921.973603
 33
0.0
  0
LWPOLYLINE
  5
469
330
478
100
AcDbEntity
  8
Scale-North Arrow
  6
Continuous
 62
     7
370
    30
100
AcDbPolyline
 90
        4
 70
   129
 43
0.0
 10
1385.536493
 20
1921.973603
 10
1745.536493
 20
1921.973603
 10
1745.536493
 20
1945.973603
 10
1385.536493
 20
1945.973603
  0
TEXT
  5
46A
330
478
100
AcDbEntity
  8
Scale-North Arrow
  6
Continuous
 62
     7
370
    30
100
AcDbText
 10
1348.590994
 20
1788.886127
 30
0.0
 40
48.0
  1
20
  7
Style-Garamond
 11
1348.590994
 21
1836.886127
 31
0.0
100
AcDbText
 73
     3
  0
SPLINE
  5
46D
330
478
100
AcDbEntity
  8
Subfloor Pit
  6
Continuous
 62
     7
370
     0
100
AcDbSpline
210
0.0
220
0.0
230
1.0
 70
    11
 71
     3
 72
    37
 73
    33
 74
     0
 42
0.0000000001
 43
0.00000001
 40
0.0
 40
0.0
 40
0.0
 40
0.0
 40
0.0333333333333333
 40
0.0666666666666667
 40
0.1
 40
0.1333333333333333
 40
0.1666666666666667
 40
0.2
 40
0.2333333333333333
 40
0.2666666666666667
 40
0.3
 40
0.3333333333333333
 40
0.3666666666666666
 40
0.4
 40
0.4333333333333333
 40
0.4666666666666666
 40
0.4999999999999999
 40
0.5333333333333333
 40
0.5666666666666667
 40
0.6
 40
0.6333333333333333
 40
0.6666666666666666
 40
0.7
 40
0.7333333333333333
 40
0.7666666666666666
 40
0.7999999999999999
 40
0.8333333333333333
 40
0.8666666666666666
 40
0.8999999999999999
 40
0.9333333333333332
 40
0.9666666666666666
 40
1.0
 40
1.0
 40
1.0
 40
1.0
 10
2849.26096839401
 20
3446.743664335133
 30
0.0
 10
2851.952434810695
 20
3445.189437249442
 30
0.0
 10
2858.927502707456
 20
3442.611694765857
 30
0.0
 10
2873.939061876572
 20
3438.745081040478
 30
0.0
 10
2889.405516778086
 20
3438.062737441882
 30
0.0
 10
2906.009211010593
 20
3447.160652089831
 30
0.0
 10
2914.652229926145
 20
3456.486014603979
 30
0.0
 10
2918.518843651524
 20
3468.540751512511
 30
0.0
 10
2918.518843651523
 20
3481.505279885838
 30
0.0
 10
2918.291395785325
 20
3490.14829880139
 30
0.0
 10
2917.38160432053
 20
3504.704962238109
 30
0.0
 10
2916.471812855735
 20
3517.214594879039
 30
0.0
 10
2908.738585404978
 20
3527.677196724181
 30
0.0
 10
2900.323014355625
 20
3532.681049780553
 30
0.0
 10
2891.679995440073
 20
3535.410424174938
 30
0.0
 10
2883.491872256919
 20
3535.865319907335
 30
0.0
 10
2873.939061876572
 20
3536.320215639732
 30
0.0
 10
2864.386251496225
 20
3535.865319907335
 30
0.0
 10
2855.288336848276
 20
3535.865319907335
 30
0.0
 10
2847.100213665122
 20
3535.182976308739
 30
0.0
 10
2840.504225545358
 20
3530.406571118566
 30
0.0
 10
2835.500372488987
 20
3521.536104336815
 30
0.0
 10
2834.653852457498
 20
3512.123361385964
 30
0.0
 10
2831.868027713695
 20
3503.633228833421
 30
0.0
 10
2831.470052750295
 20
3491.82663825254
 30
0.0
 10
2831.072077786894
 20
3480.41802263506
 30
0.0
 10
2831.861206629807
 20
3472.862260970287
 30
0.0
 10
2832.088654496006
 20
3466.493720716722
 30
0.0
 10
2835.045476756589
 20
3459.442836864563
 30
0.0
 10
2838.002299017172
 20
3454.893879540588
 30
0.0
 10
2842.778704207346
 20
3451.937057280004
 30
0.0
 10
2846.569501977325
 20
3448.297891420825
 30
0.0
 10
2849.26096839401
 20
3446.743664335133
 30
0.0
  0
OLE2FRAME
  5
1174
330
478
100
AcDbEntity
  8
Subfloor Pit
  6
Continuous
 62
     7
370
     0
100
AcDbOle2Frame
 70
     2
 10
4163.200219
 20
1019.737069
 30
0.0
 11
4796.296624
 21
556.432992
 31
0.0
 72
     0
 73
     1
 90
    12928
310
8055120390413343B0404A894B84E5DD8F4000000000000000005BDC90EF4BBC
310
B2404A894B84E5DD8F4000000000000000005BDC90EF4BBCB2400E5647C47663
310
81400000000000000000120390413343B0400E5647C476638140000000000000
310
00006D3EAF2D0100000000010000020000000100000000000100000000320000
310
D0CF11E0A1B11AE1000000000000000000000000000000003E000300FEFF0900
310
0600000000000000000000000100000001000000000000000010000002000000
310
01000000FEFFFFFF0000000000000000FFFFFFFFFFFFFFFFFFFFFFFFFFFFFFFF
310
FFFFFFFFFFFFFFFFFFFFFFFFFFFFFFFFFFFFFFFFFFFFFFFFFFFFFFFFFFFFFFFF
310
FFFFFFFFFFFFFFFFFFFFFFFFFFFFFFFFFFFFFFFFFFFFFFFFFFFFFFFFFFFFFFFF
310
FFFFFFFFFFFFFFFFFFFFFFFFFFFFFFFFFFFFFFFFFFFFFFFFFFFFFFFFFFFFFFFF
310
FFFFFFFFFFFFFFFFFFFFFFFFFFFFFFFFFFFFFFFFFFFFFFFFFFFFFFFFFFFFFFFF
310
FFFFFFFFFFFFFFFFFFFFFFFFFFFFFFFFFFFFFFFFFFFFFFFFFFFFFFFFFFFFFFFF
310
FFFFFFFFFFFFFFFFFFFFFFFFFFFFFFFFFFFFFFFFFFFFFFFFFFFFFFFFFFFFFFFF
310
FFFFFFFFFFFFFFFFFFFFFFFFFFFFFFFFFFFFFFFFFFFFFFFFFFFFFFFFFFFFFFFF
310
FFFFFFFFFFFFFFFFFFFFFFFFFFFFFFFFFFFFFFFFFFFFFFFFFFFFFFFFFFFFFFFF
310
FFFFFFFFFFFFFFFFFFFFFFFFFFFFFFFFFFFFFFFFFFFFFFFFFFFFFFFFFFFFFFFF
310
FFFFFFFFFFFFFFFFFFFFFFFFFFFFFFFFFFFFFFFFFFFFFFFFFFFFFFFFFFFFFFFF
310
FFFFFFFFFFFFFFFFFFFFFFFFFFFFFFFFFFFFFFFFFFFFFFFFFFFFFFFFFFFFFFFF
310
FFFFFFFFFFFFFFFFFFFFFFFFFFFFFFFFFFFFFFFFFFFFFFFFFFFFFFFFFFFFFFFF
310
FFFFFFFFFFFFFFFFFFFFFFFFFFFFFFFFFFFFFFFFFFFFFFFFFFFFFFFFFFFFFFFF
310
FDFFFFFFFEFFFFFFFEFFFFFFFEFFFFFF05000000060000000700000008000000
310
090000000A0000000B0000000C0000000D0000000E0000000F00000010000000
310
11000000120000001300000014000000150000001600000017000000FEFFFFFF
310
FFFFFFFFFFFFFFFFFFFFFFFFFFFFFFFFFFFFFFFFFFFFFFFFFFFFFFFFFFFFFFFF
310
FFFFFFFFFFFFFFFFFFFFFFFFFFFFFFFFFFFFFFFFFFFFFFFFFFFFFFFFFFFFFFFF
310
FFFFFFFFFFFFFFFFFFFFFFFFFFFFFFFFFFFFFFFFFFFFFFFFFFFFFFFFFFFFFFFF
310
FFFFFFFFFFFFFFFFFFFFFFFFFFFFFFFFFFFFFFFFFFFFFFFFFFFFFFFFFFFFFFFF
310
FFFFFFFFFFFFFFFFFFFFFFFFFFFFFFFFFFFFFFFFFFFFFFFFFFFFFFFFFFFFFFFF
310
FFFFFFFFFFFFFFFFFFFFFFFFFFFFFFFFFFFFFFFFFFFFFFFFFFFFFFFFFFFFFFFF
310
FFFFFFFFFFFFFFFFFFFFFFFFFFFFFFFFFFFFFFFFFFFFFFFFFFFFFFFFFFFFFFFF
310
FFFFFFFFFFFFFFFFFFFFFFFFFFFFFFFFFFFFFFFFFFFFFFFFFFFFFFFFFFFFFFFF
310
FFFFFFFFFFFFFFFFFFFFFFFFFFFFFFFFFFFFFFFFFFFFFFFFFFFFFFFFFFFFFFFF
310
FFFFFFFFFFFFFFFFFFFFFFFFFFFFFFFFFFFFFFFFFFFFFFFFFFFFFFFFFFFFFFFF
310
FFFFFFFFFFFFFFFFFFFFFFFFFFFFFFFFFFFFFFFFFFFFFFFFFFFFFFFFFFFFFFFF
310
FFFFFFFFFFFFFFFFFFFFFFFFFFFFFFFFFFFFFFFFFFFFFFFFFFFFFFFFFFFFFFFF
310
FFFFFFFFFFFFFFFFFFFFFFFFFFFFFFFFFFFFFFFFFFFFFFFFFFFFFFFFFFFFFFFF
310
52006F006F007400200045006E00740072007900000000000000000000000000
310
0000000000000000000000000000000000000000000000000000000000000000
310
16000500FFFFFFFFFFFFFFFF030000001903000000000000C000000000000046
310
000000000000000000000000B01C23556A1FCB0103000000C000000000000000
310
01004F006C006500000000000000000000000000000000000000000000000000
310
0000000000000000000000000000000000000000000000000000000000000000
310
0A000200FFFFFFFFFFFFFFFFFFFFFFFF00000000000000000000000000000000
310
0000000000000000000000000000000000000000000000001400000000000000
310
43004F004E00540045004E005400530000000000000000000000000000000000
310
0000000000000000000000000000000000000000000000000000000000000000
310
12000200FFFFFFFFFFFFFFFFFFFFFFFF00000000000000000000000000000000
310
0000000000000000000000000000000000000000040000000826000000000000
310
010043006F006D0070004F0062006A0000000000000000000000000000000000
310
0000000000000000000000000000000000000000000000000000000000000000
310
120002010100000002000000FFFFFFFF00000000000000000000000000000000
310
0000000000000000000000000000000000000000010000006F00000000000000
310
FEFFFFFF02000000FEFFFFFFFFFFFFFFFFFFFFFFFFFFFFFFFFFFFFFFFFFFFFFF
310
FFFFFFFFFFFFFFFFFFFFFFFFFFFFFFFFFFFFFFFFFFFFFFFFFFFFFFFFFFFFFFFF
310
FFFFFFFFFFFFFFFFFFFFFFFFFFFFFFFFFFFFFFFFFFFFFFFFFFFFFFFFFFFFFFFF
310
FFFFFFFFFFFFFFFFFFFFFFFFFFFFFFFFFFFFFFFFFFFFFFFFFFFFFFFFFFFFFFFF
310
FFFFFFFFFFFFFFFFFFFFFFFFFFFFFFFFFFFFFFFFFFFFFFFFFFFFFFFFFFFFFFFF
310
FFFFFFFFFFFFFFFFFFFFFFFFFFFFFFFFFFFFFFFFFFFFFFFFFFFFFFFFFFFFFFFF
310
FFFFFFFFFFFFFFFFFFFFFFFFFFFFFFFFFFFFFFFFFFFFFFFFFFFFFFFFFFFFFFFF
310
FFFFFFFFFFFFFFFFFFFFFFFFFFFFFFFFFFFFFFFFFFFFFFFFFFFFFFFFFFFFFFFF
310
FFFFFFFFFFFFFFFFFFFFFFFFFFFFFFFFFFFFFFFFFFFFFFFFFFFFFFFFFFFFFFFF
310
FFFFFFFFFFFFFFFFFFFFFFFFFFFFFFFFFFFFFFFFFFFFFFFFFFFFFFFFFFFFFFFF
310
FFFFFFFFFFFFFFFFFFFFFFFFFFFFFFFFFFFFFFFFFFFFFFFFFFFFFFFFFFFFFFFF
310
FFFFFFFFFFFFFFFFFFFFFFFFFFFFFFFFFFFFFFFFFFFFFFFFFFFFFFFFFFFFFFFF
310
FFFFFFFFFFFFFFFFFFFFFFFFFFFFFFFFFFFFFFFFFFFFFFFFFFFFFFFFFFFFFFFF
310
FFFFFFFFFFFFFFFFFFFFFFFFFFFFFFFFFFFFFFFFFFFFFFFFFFFFFFFFFFFFFFFF
310
FFFFFFFFFFFFFFFFFFFFFFFFFFFFFFFFFFFFFFFFFFFFFFFFFFFFFFFFFFFFFFFF
310
FFFFFFFFFFFFFFFFFFFFFFFFFFFFFFFFFFFFFFFFFFFFFFFFFFFFFFFFFFFFFFFF
310
0100000200000000000000000000000000000000650020004E0061006D006500
310
0000000000000000000000000000000000000000000000000000000000000000
310
0100FEFF030A0000FFFFFFFF1903000000000000C0000000000000461C000000
310
506963747572652028456E68616E636564204D65746166696C652900FFFFFFFF
310
0E00000017000000537461746963456E68616E6365644D65746166696C6500F4
310
39B271000000000000000000000000006100720064000000500072006F006700
310
720061006D0020004400650073006300720069007000740069006F006E000000
310
0000000000000000000000000000000000000000000000000000000000000000
310
0000000000000000000000000000000000000000000000000000000000000000
310
0000000000000000000000000000000000000000000000000000000000000000
310
0000000000000000000000000000000000000000000000001E00000000000000
310
6100000000000000000000000000000000000000000000000000000000000000
310
0000000000000000000000000000000000000000000000000000000000000000
310
0000000000000000000000000000000000000000000000000000000000000000
310
0000000000000000000000000000000000000000000000000000000000000000
310
0000000000000000000000000000000000000000000000000000000000000000
310
74000000010000006C000000E4FFFFFFA2FFFFFFD40100001001000095FCFFFF
310
86F4FFFF213900003421000020454D460000010090250000F200000005000000
310
0D0000005800000000000000000400000003000040010000F000000041006400
310
6F00620065002000530079007300740061007200640000000100000074000000
310
E4FFFFFFA2FFFFFFD40100001001000095FCFFFF86F4FFFF2139000034210000
310
20454D460000010090250000F2000000050000000D0000005800000000000000
310
000400000003000040010000F0000000410064006F0062006500200053007900
310
7300740065006D0073000000110000000C00000008000000120000000C000000
310
010000000A0000001000000000000000000000000C0000001000000000000000
310
00000000090000001000000070110000DB0C00000B00000010000000D0050000
310
49040000520000004C01000001000000B8FFFFFF000000000000000000000000
310
90010000000000000702012241007200690061006C0000000000000000000000
310
0000000000000000000000000000000000000000000000000000000000000000
310
0000000000000000000000000000000000000000000000000000000000000000
310
0000000000000000000000000000000000000000000000000000000000000000
310
0000000000000000000000001CD413005A5235000CD7230300000000A8D41300
310
98AE8D0948D413008704AE0144D4130098AE8D09B0D623038438B901F0D62303
310
0000000000000000000000000000000000000000000000000000000000000000
310
000000000000000000000000D800000074B9C6018C67E808584221023CD61300
310
98D413008C67E808B0D413000000000000000000000000000000000000000000
310
00000000010101010101010101010000250000000C0000000100000018000000
310
0C00000000000000120000000C00000001000000160000000C00000018000000
310
24000000240000000000803F00000080000000800000803FA0462344003C2344
310
0200000054000000BC000000DA000000C600000058010000E200000002000000
310
010000000100000000000000000000000C0000004C000000000000008D020000
310
5102000009040000A5020000640000004A006500730073006500200053006100
310
7700790065007200240000002800000024000000240000002800000014000000
310
3000000028000000340000002400000028000000240000002800000024000000
310
2400000028000000140000003000000028000000340000002400000028000000
310
23000000200000000000803F00000000000000000000803F0000000000000000
310
180000000C00000000000000120000000C00000001000000160000000C000000
310
1800000024000000240000000000803F00000080000000800000803F20C82244
310
40A13F440200000054000000B4000000D9000000ED000000410100000A010000
310
02000000010000000100000000000000000000000B0000004C00000000000000
310
8B020000C7020000C30300001F030000640000003100330020004F0063007400
310
2000320030003000360000002800000028000000140000003800000024000000
310
1400000014000000280000002800000028000000280000002800000014000000
310
3800000024000000140000001400000028000000280000002800000023000000
310
200000000000803F00000000000000000000803F000000000000000027000000
310
1800000002000000010000000000000000000000250000000C00000002000000
310
5F00000034000000030000002C000000000000002C0000000000000000220100
310
02000000000000001A1A1B000000000000000000250000000C00000003000000
310
3A0000000C000000040000005B00000038000000EAFFFFFFABFFFFFFCC010000
310
0901000001000000050000000500000062051703C2FF1703C2FF04FF620504FF
310
620517035F00000034000000040000002C000000000000002C00000000000000
310
002201000200000000000000242525000000000000000000250000000C000000
310
04000000280000000C000000030000003A0000000C000000040000005A000000
310
2C000000EAFFFFFFE1000000CD010000E3000000010000000200000002000000
310
C2FFA6026305A6023A0000000C000000040000005A0000002C000000CD000000
310
BB000000CF000000090100000100000002000000020000006B0235026B021703
310
5F00000034000000030000002C000000000000002C0000000000000000220100
310
02000000000000001A1A1B000000000000000000250000000C00000003000000
310
280000000C000000040000003A0000000C000000040000005A0000002C000000
310
EAFFFFFF0D010000ECFFFFFF0F010000010000000200000002000000C1FF2903
310
C1FF29033A0000000C000000040000005A0000002C000000EAFFFFFFC3000000
310
ECFFFFFFC5000000010000000200000002000000C1FF4D02C1FF4D025F000000
310
34000000040000002C000000000000002C000000000000000022010004000000
310
000000001E1E1F000000000000000000250000000C0000000400000028000000
310
0C000000030000003A0000000C000000040000005B00000038000000E3FFFFFF
310
A2FFFFFFD40100001101000001000000050000000500000079052E03ADFF2E03
310
ADFFE9FE7905E9FE79052E03520000004C01000003000000ACFFFFFF00000000
310
00000000000000009001000000000000000002224D0079007200690061006400
310
200052006F006D0061006E000000000000000000000000000000000000000000
310
0000000000000000000000000000000000000000000000000000000000000000
310
0000000000000000000000000000000000000000000000000000000000000000
310
00000000000000000000000000000000000000001CD413005A5235000CD72303
310
00000000A8D4130080A78D0948D413008704AE0144D4130080A78D09B0D62303
310
8438B901F0D62303000000000000000000000000000000000000000000000000
310
0000000000000000000000000000000000000000D800000074B9C6018C67E808
310
584221023CD6130098D413004C723700B0D41300000000000000000000000000
310
000000000000000000000000010101010101010101010000250000000C000000
310
03000000280000000C00000001000000180000000C0000000000000012000000
310
0C00000001000000160000000C0000001800000024000000240000000000803F
310
00000080000000800000803F80329F43803D0044020000005400000058000000
310
6A0000009C0000007E000000B300000002000000010000000100000000000000
310
00000000020000004C000000000000003E010000D50100007A01000019020000
310
50000000770077003F0000003F00000023000000200000000000803F00000000
310
000000000000803F0000000000000000180000000C0000000000000012000000
310
0C00000001000000160000000C0000001800000024000000240000000000803F
310
00000080000000800000803F0007DE43803D0044020000005400000058000000
310
940000009C00000094000000B300000002000000010000000100000000000000
310
00000000010000004C00000000000000BC010000D5010000BC01000019020000
310
50000000770000000F0000000F00000023000000200000000000803F00000000
310
000000000000803F0000000000000000180000000C0000000000000012000000
310
0C00000001000000160000000C0000001800000024000000240000000000803F
310
00000080000000800000803F804DFB43803D0044020000005400000078000000
310
A800000096000000D4000000B700000002000000010000000100000000000000
310
00000000050000004C00000000000000F7010000C10100007B02000025020000
310
580000002E0064006100610063000000110000002F0000002800000028000000
310
110000002F000000280000002800000023000000200000000000803F00000000
310
000000000000803F0000000000000000180000000C0000000000000012000000
310
0C00000001000000160000000C0000001800000024000000240000000000803F
310
00000080000000800000803F407E2B44803D0044020000005400000058000000
310
E50000009C000000E5000000B300000002000000010000000100000000000000
310
00000000010000004C00000000000000AE020000D5010000AE02000019020000
310
5000000073000000110000001100000023000000200000000000803F00000000
310
000000000000803F0000000000000000180000000C0000000000000012000000
310
0C00000001000000160000000C0000001800000024000000240000000000803F
310
00000080000000800000803F40943344803D0044020000005400000058000000
310
EF0000009C000000F5000000B300000002000000010000000100000000000000
310
00000000020000004C00000000000000CE020000D5010000DE02000019020000
310
500000002E006F00110000001100000023000000200000000000803F00000000
310
000000000000803F0000000000000000180000000C0000000000000012000000
310
0C00000001000000160000000C0000001800000024000000240000000000803F
310
00000080000000800000803F40744344803D0044020000005400000058000000
310
050100009C00000005010000B300000002000000010000000100000000000000
310
00000000010000004C000000000000000E030000D50100000E03000019020000
310
5000000072000000110000001100000023000000200000000000803F00000000
310
000000000000803F0000000000000000180000000C0000000000000012000000
310
0C00000001000000160000000C0000001800000024000000240000000000803F
310
00000080000000800000803F40274A44803D0044020000005400000058000000
310
0E0100009B0000000E010000B200000002000000010000000100000000000000
310
00000000010000004C0000000000000029030000D10100002903000015020000
310
5000000067000000120000001200000023000000200000000000803F00000000
310
000000000000803F0000000000000000130000000C0000000200000027000000
310
180000000100000000000000CB9B6C0000000000250000000C00000001000000
310
280000000C000000020000005F00000034000000020000002C00000000000000
310
2C000000000000000022010002000000000000001A1A1B000000000000000000
310
250000000C00000002000000280000000C000000040000003A0000000C000000
310
040000003B000000080000001B0000001000000051000000B400000058000000
310
C400000019000000050000005A000000670000002A0000005300740053007400
310
53007400530068005400560056003F00570030005700250057001F0057001800
310
590014005C001300600011006C00110081001100B0001100D3002000EA003E00
310
00015B000B017D000B01A2000B01BB000601D200FC00E900F300FF00E5001101
310
D4001E01C2002B01AB0032018F0032017C0032016E002F01650029015C002401
310
56001C015300140151000B014F00FC004F00E8004F00E3005000D2005100B400
310
3D000000080000001B0000001000000023000000050000005800000024010000
310
FAFFFFFF000000006B0000006A00000042000000130004000A00030007000300
310
03000300020005000200080002000A0005000C000B000D0014000E001B001100
310
1F001500230019002600210028002F002A003C002B004A002B0058002700D300
310
2700D3002700D3002600FE00230018011E0020011900280110002D0104002F01
310
FAFF3001F5FF3101F3FF3201F1FF3201F0FF3301F0FF3501F0FF3801F2FF3901
310
F8FF3901000038011E00380151003801540038016100380178003A0184003B01
310
8F003C0197003C01BC003C01DA003601F0002A0107011E0119010C012801F500
310
3701DD003E01C2003E01A2003E0175002F01500010013300F1001500C3000600
310
870006005700070057000700570007004400070033000700230005003D000000
310
080000003C000000080000003F000000180000009F8601009F8601006179FEFF
310
6179FEFF130000000C000000020000003A0000000C000000040000003B000000
310
080000001B00000010000000CE01000074000000580000005800000080000000
310
10000000A30000003D0000000F000000D8018F00E001A400E601B400A501B300
310
A501B300A501B3009E01B3009301B4008301B40096017C00A7015100B5013400
310
B9013F00C1015400CE0174003D000000080000001B0000001000000082010000
310
96000000580000006C0100006100000000000000CD0000006A00000054000000
310
6F01CE006001F50056010B014D0120013F012C012E012F0129012F0127013101
310
27013301270137012A0138012E01380137013801490137016301370168013701
310
770138019001390192013801930137019301360193013301900131018A013101
310
820130017A012E01720129016A01250166011D0166011401660108016E01ED00
310
7F01C300BE01C200E201C100EA01C100F801E900F801E900F801E90001020401
310
0602140106021B010602220104022701FF012A01FA012D01F0013001E3013101
310
E0013101DE013301DE013501DE013801E0013901E5013901EF01380104023701
310
260237013C0237014E0238015D02390160023A0160023A0160023A0162023A01
310
640239016402360164023301610231015C0231014C0230014002290139021C01
310
310210012402EE001102B700F2016200DA012500C9010200BE010200BE010200
310
BE010200A901310095016200820196003D000000080000003C00000008000000
310
3F000000180000009F8601009F8601006179FEFF6179FEFF130000000C000000
310
0200000027000000180000000400000000000000B87536000000000025000000
310
0C00000004000000280000000C000000010000003A0000000C00000004000000
310
3B000000080000001B000000100000008C020000290000005800000058000000
310
A5000000E1FFFFFFEB0000003A0000000F000000A1026000B2028C00BE02AC00
310
3802AA003802AA003802AA002A02AA001202AB00F201AC0019023A003B02E3FF
310
5902A6FF6102BDFF7202E9FF8C0229003D000000080000001B00000010000000
310
F10100006E000000580000006C01000066000000BFFFFFFF4101000096000000
310
54000000C801E200AA01320197015F0183018B016701A3014301A8013A01A901
310
3601AD013601B2013601B8013B01BB014501BB015701BA017B01B901B101B901
310
BB01B901DA01BB010D02BE011002BC011202B9011202B7011202B1010C02AE01
310
0102AD01F101AC01E101A601D0019D01C0019301B8018501B8017101B8015A01
310
C8012201E901CA006C02C800B602C700C602C700E2021901E2021901E2021901
310
F60250010003720100037F0100038E01FA029801F0029F01E602A601D302AA01
310
B802AD01B102AE01AD02B001AD02B501AD02BB01B202BE01BC02BE01D002BB01
310
FC02B9014103B9016E03B9019303BB01B003BE01B703BE01B703BE01B703BE01
310
BC03BE01BF03BC01BF03B701BF03B101B903AE01AF03AD018E03AA0176039C01
310
67038201580369013C0324011403B300D6020300A50287FF81023FFF6C023FFF
310
6C023FFF6C023FFF3F029FFF17020400F1016E003D000000080000003C000000
310
080000003F000000180000009F8601009F8601006179FEFF6179FEFF13000000
310
0C0000000200000027000000180000000100000000000000CB9B6C0000000000
310
250000000C00000001000000280000000C000000040000003A0000000C000000
310
040000003B000000080000001B000000100000001D0400001400000058000000
310
780100000F010000FDFFFFFF6D010000690000005700000025040C002A040700
310
2C0405002D0401002F04FFFF3204FFFF3604FFFF37040200380408003D045800
310
3D0458003D0458003D045D003C0460003C0461003C0462003A04620039046200
310
3604620033045F003004580026043F0018042B0006041C00F3030C00DF030400
310
CA030400B7030400A6030A0096031600860323007A03340071034A0069036100
310
64037900640393006403BF007003E3008903FE00A1031A01BC032701DA032701
310
EE0327010104210112041401230407013004F9003804E8003B04E3003D04E100
310
3F04E1004304E1004504E3004504E6004504EB003F04F5003304040127041301
310
18041F0105042901F1033201DD033701C7033701AD033701940330017D032301
310
66031601530304014503ED003803D5003103BA0031039B0031037C0038036100
310
4503480052032F0065031C007D030F0095030100AE03FAFFC703FAFFD503FAFF
310
E303FCFFF1030100FF0305000E040B001D0414003D000000080000003C000000
310
080000003F000000180000009F8601009F8601006179FEFF6179FEFF13000000
310
0C000000020000003A0000000C000000040000003B000000080000001B000000
310
10000000040500001100000058000000E401000073010000FEFFFFFFBC010000
310
680000007200000008050D000B0508000D0504000E0500001005FFFF1205FFFF
310
1305FFFF1405FFFF1605010017050600180512001A05230020054E0020054E00
310
20054E00200551001E0553001B055300190553001705510016054E000E053A00
310
01052900F1041B00E1040E00CF040700BC040700A90407009B040D0091041800
310
8704230083042F0083043C0083044B008804570092045F009D046800B2047100
310
D3047B00EB048300FD048A0008059100140598001E05A2002605AE002E05BB00
310
3205C8003205D7003205EF00280505011405180100052C01E7043601C9043601
310
AF04360194042D017A041D0174042101710426016F042C016E0431016C043301
310
69043301670433016504300164042A0163042401600405015D04D0005D04CE00
310
5F04CD006204CD006404CD006604CF006804D2007F040E01A1042C01CC042C01
310
E1042C01F1042601FD04190109050C010F05FE000F05ED000F05E1000C05D700
310
0605CD00FF04C400F704BC00EC04B600E104B000D104A900B904A2009C049900
310
880490007D04870073047F006B04750066046B00610460005F0456005F044C00
310
5F043700680425007B0415008E040500A504FDFFC004FDFFCB04FDFFD504FFFF
310
E1040200EC040500F8040A00040511003D000000080000003C00000008000000
310
3F000000180000009F8601009F8601006179FEFF6179FEFF2700000018000000
310
04000000010000000000000000000000250000000C0000000400000028000000
310
0C000000010000005F00000034000000010000002C000000000000002C000000
310
0000000000220100020000000000000024252500000000000000000025000000
310
0C00000001000000280000000C000000020000003A0000000C00000004000000
310
5A0000002C000000EAFFFFFFBB000000CC010000BD0000000100000002000000
310
02000000C2FF350262053502520000004C01000002000000B4FFFFFF00000000
310
00000000000000009001000000000000000002224D0079007200690061006400
310
200052006F006D0061006E000000000000000000000000000000000000000000
310
0000000000000000000000000000000000000000000000000000000000000000
310
0000000000000000000000000000000000000000000000000000000000000000
310
0000000000000000000000000000000000000000703F3500D4713700F0D31300
310
8CD41300E0C536000200000048D413008704AE0144D41300B0D62303B0D62303
310
CCEA0809F0D62303000000000000000000000000000000000000000000000000
310
0000000000000000000000000000000000000000D800000074B9C6018C67E808
310
584221023CD6130098D413008C67E808B0D41300000000000000000000000000
310
000000000000000000000000010101010101010101010000250000000C000000
310
02000000280000000C00000003000000180000000C0000000000000012000000
310
0C00000001000000160000000C0000001800000024000000240000000000803F
310
00000080000000800000803F002E6643003C2344020000005400000058000000
310
4D000000C70000004D000000E400000002000000010000000100000000000000
310
00000000010000004C00000000000000E600000055020000E6000000AD020000
310
5000000043000000100000001000000023000000200000000000803F00000000
310
000000000000803F0000000000000000180000000C0000000000000012000000
310
0C00000001000000160000000C0000001800000024000000240000000000803F
310
00000080000000800000803F80EF8843003C2344020000005400000058000000
310
5B000000CC0000005B000000E000000002000000010000000100000000000000
310
00000000010000004C00000000000000120100006502000012010000A1020000
310
50000000720000000F0000000F00000023000000200000000000803F00000000
310
000000000000803F0000000000000000180000000C0000000000000012000000
310
0C00000001000000160000000C0000001800000024000000240000000000803F
310
00000080000000800000803F00F09443003C2344020000005400000058000000
310
63000000CC00000063000000E200000002000000010000000100000000000000
310
00000000010000004C000000000000002A010000650200002A010000A5020000
310
5000000065000000100000001000000023000000200000000000803F00000000
310
000000000000803F0000000000000000180000000C0000000000000012000000
310
0C00000001000000160000000C0000001800000024000000240000000000803F
310
00000080000000800000803F00E8A743003C2344020000005400000058000000
310
70000000CC00000070000000E200000002000000010000000100000000000000
310
00000000010000004C00000000000000500100006502000050010000A5020000
310
5000000061000000100000001000000023000000200000000000803F00000000
310
000000000000803F0000000000000000180000000C0000000000000012000000
310
0C00000001000000160000000C0000001800000024000000240000000000803F
310
00000080000000800000803F0001BA43003C2344020000005400000058000000
310
7C000000C80000007C000000E300000002000000010000000100000000000000
310
00000000010000004C00000000000000740100005902000074010000A9020000
310
5000000074000000100000001000000023000000200000000000803F00000000
310
000000000000803F0000000000000000180000000C0000000000000012000000
310
0C00000001000000160000000C0000001800000024000000240000000000803F
310
00000080000000800000803F004FC643003C2344020000005400000058000000
310
84000000C60000009E000000E400000002000000010000000100000000000000
310
00000000020000004C000000000000008D01000051020000D9010000AD020000
310
5000000065006400260000002600000023000000200000000000803F00000000
310
000000000000803F0000000000000000180000000C0000000000000012000000
310
0C00000001000000160000000C0000001800000024000000240000000000803F
310
00000080000000800000803F00A8F643003C2344020000005400000058000000
310
A4000000C6000000A4000000E400000002000000010000000100000000000000
310
00000000010000004C00000000000000ED01000051020000ED010000AD020000
310
5000000062000000100000001000000023000000200000000000803F00000000
310
000000000000803F0000000000000000180000000C0000000000000012000000
310
0C00000001000000160000000C0000001800000024000000240000000000803F
310
00000080000000800000803F80F70544003C2344020000005400000058000000
310
B3000000CC000000B3000000DF00000002000000010000000100000000000000
310
00000000010000004C000000000000001802000065020000180200009D020000
310
5000000079000000120000001200000023000000200000000000803F00000000
310
000000000000803F0000000000000000180000000C0000000000000012000000
310
0C00000001000000160000000C0000001800000024000000240000000000803F
310
00000080000000800000803F40560F44003C2344020000005400000058000000
310
BF000000CC000000BF000000E000000002000000010000000100000000000000
310
00000000010000004C000000000000003D020000650200003D020000A1020000
310
500000003A000000100000001000000023000000200000000000803F00000000
310
000000000000803F0000000000000000180000000C0000000000000012000000
310
0C00000001000000160000000C0000001800000024000000240000000000803F
310
00000080000000800000803F8016D44340A13F44020000005400000058000000
310
8D000000ED0000008D0000000A01000002000000010000000100000000000000
310
00000000010000004C00000000000000A8010000C7020000A80100001F030000
310
5000000044000000100000001000000023000000200000000000803F00000000
310
000000000000803F0000000000000000180000000C0000000000000012000000
310
0C00000001000000160000000C0000001800000024000000240000000000803F
310
00000080000000800000803F804DED4340A13F44020000005400000058000000
310
9E000000F20000009E0000000801000002000000010000000100000000000000
310
00000000010000004C00000000000000DB010000D7020000DB01000017030000
310
5000000061000000100000001000000023000000200000000000803F00000000
310
000000000000803F0000000000000000180000000C0000000000000012000000
310
0C00000001000000160000000C0000001800000024000000240000000000803F
310
00000080000000800000803F8066FF4340A13F44020000005400000058000000
310
AA000000EE000000AA0000000901000002000000010000000100000000000000
310
00000000010000004C00000000000000FF010000CB020000FF0100001B030000
310
5000000074000000100000001000000023000000200000000000803F00000000
310
000000000000803F0000000000000000180000000C0000000000000012000000
310
0C00000001000000160000000C0000001800000024000000240000000000803F
310
00000080000000800000803F40DA054440A13F44020000005400000058000000
310
B2000000F2000000BE0000000801000002000000010000000100000000000000
310
00000000020000004C0000000000000017020000D70200003B02000017030000
310
5000000065003A00260000002600000023000000200000000000803F00000000
310
000000000000803F0000000000000000280000000C0000000100000028000000
310
0C00000002000000280000000C000000040000000E0000001400000000000000
310
1000000014000000050202065B0108020000000000000000FEFFFFFF00000000
310
74770E0A000000000100001000000000FDFFFFFFFEFFFFFFFFFFFFFFFFFFFFFF
310
FFFFFFFFFFFFFFFFFFFFFFFFFFFFFFFFFFFFFFFFFFFFFFFFFFFFFFFFFFFFFFFF
310
FFFFFFFFFFFFFFFFFFFFFFFFFFFFFFFFFFFFFFFFFFFFFFFFFFFFFFFFFFFFFFFF
310
FFFFFFFFFFFFFFFFFFFFFFFFFFFFFFFFFFFFFFFFFFFFFFFFFFFFFFFFFFFFFFFF
310
FFFFFFFFFFFFFFFFFFFFFFFFFFFFFFFFFFFFFFFFFFFFFFFFFFFFFFFFFFFFFFFF
310
FFFFFFFFFFFFFFFFFFFFFFFFFFFFFFFFFFFFFFFFFFFFFFFFFFFFFFFFFFFFFFFF
310
FFFFFFFFFFFFFFFFFFFFFFFFFFFFFFFFFFFFFFFFFFFFFFFFFFFFFFFFFFFFFFFF
310
FFFFFFFFFFFFFFFFFFFFFFFFFFFFFFFFFFFFFFFFFFFFFFFFFFFFFFFFFFFFFFFF
310
FFFFFFFFFFFFFFFFFFFFFFFFFFFFFFFFFFFFFFFFFFFFFFFFFFFFFFFFFFFFFFFF
310
FFFFFFFFFFFFFFFFFFFFFFFFFFFFFFFFFFFFFFFFFFFFFFFFFFFFFFFFFFFFFFFF
310
FFFFFFFFFFFFFFFFFFFFFFFFFFFFFFFFFFFFFFFFFFFFFFFFFFFFFFFFFFFFFFFF
310
FFFFFFFFFFFFFFFFFFFFFFFFFFFFFFFFFFFFFFFFFFFFFFFFFFFFFFFFFFFFFFFF
310
FFFFFFFFFFFFFFFFFFFFFFFFFFFFFFFFFFFFFFFFFFFFFFFFFFFFFFFFFFFFFFFF
310
FFFFFFFFFFFFFFFFFFFFFFFFFFFFFFFFFFFFFFFFFFFFFFFFFFFFFFFFFFFFFFFF
310
FFFFFFFFFFFFFFFFFFFFFFFFFFFFFFFFFFFFFFFFFFFFFFFFFFFFFFFFFFFFFFFF
  1
OLE
  0
ENDSEC
  0
SECTION
  2
OBJECTS
  0
DICTIONARY
  5
48B
330
0
100
AcDbDictionary
281
     1
  3
ACAD_GROUP
350
489
  3
ACAD_IMAGE_DICT
350
49F
  3
ACAD_IMAGE_VARS
350
4B6
  3
ACAD_LAYOUT
350
48C
  3
ACAD_MLEADERSTYLE
350
D28
  3
ACAD_MLINESTYLE
350
48A
  3
ACAD_PLOTSETTINGS
350
48D
  3
ACAD_PLOTSTYLENAME
350
48E
  3
ACAD_TABLESTYLE
350
13C5
  3
AcadDim
350
49E
  3
DWGPROPS
350
13C6
  3
MicroStation
350
491
  0
IMAGEDEF_REACTOR
  5
4A1
330
F0
100
AcDbRasterImageDefReactor
 90
        2
330
F0
  0
IMAGEDEF_REACTOR
  5
4A3
330
446
100
AcDbRasterImageDefReactor
 90
        2
330
446
  0
DICTIONARY
  5
489
102
{ACAD_REACTORS
330
48B
102
}
330
48B
100
AcDbDictionary
281
     1
  0
DICTIONARY
  5
49F
102
{ACAD_REACTORS
330
48B
102
}
330
48B
100
AcDbDictionary
281
     1
  3
Phase III Features
350
4A0
  3
Phase2withSTPs
350
4A2
  0
RASTERVARIABLES
  5
4B6
102
{ACAD_REACTORS
330
48B
102
}
330
48B
100
AcDbRasterVariables
 90
        0
 70
     0
 71
     0
 72
     0
  0
DICTIONARY
  5
48C
102
{ACAD_REACTORS
330
48B
102
}
330
48B
100
AcDbDictionary
281
     1
  3
Layout1
350
47F
  3
Model
350
47B
  0
DICTIONARY
  5
D28
102
{ACAD_REACTORS
330
48B
102
}
330
48B
100
AcDbDictionary
281
     1
  0
DICTIONARY
  5
48A
102
{ACAD_REACTORS
330
48B
102
}
330
48B
100
AcDbDictionary
281
     1
  3
Standard
350
476
  0
DICTIONARY
  5
48D
102
{ACAD_REACTORS
330
48B
102
}
330
48B
100
AcDbDictionary
281
     1
  0
ACDBDICTIONARYWDFLT
  5
48E
102
{ACAD_REACTORS
330
48B
102
}
330
48B
100
AcDbDictionary
281
     1
  3
Normal
350
471
100
AcDbDictionaryWithDefault
340
471
  0
DICTIONARY
  5
13C5
102
{ACAD_REACTORS
330
48B
102
}
330
48B
100
AcDbDictionary
281
     1
  0
XRECORD
  5
49E
102
{ACAD_REACTORS
330
48B
102
}
330
48B
100
AcDbXrecord
280
     1
 90
   990106
  3
 
 60
     0
 61
     0
 62
     1
 63
     1
 64
     0
 65
     0
 66
     0
 67
     3
 68
     1
 69
     1
 70
     0
 71
     0
 72
     0
 40
0.0
170
     0
  0
XRECORD
  5
13C6
102
{ACAD_REACTORS
330
48B
102
}
330
48B
100
AcDbXrecord
280
     1
  1
DWGPROPS COOKIE
  2

  3

  4
jsawyer
  6

  7

  8

  9

300
=
301
=
302
=
303
=
304
=
305
=
306
=
307
=
308
=
309
=
 40
0.0
 41
2451789.745802
 42
2455387.560141
  1

 90
        0
  0
DICTIONARY
  5
491
102
{ACAD_REACTORS
330
48B
102
}
330
48B
100
AcDbDictionary
281
     1
  3
Header
350
5B
  0
IMAGEDEF
  5
4A0
102
{ACAD_REACTORS
330
49F
330
4A1
102
}
330
49F
100
AcDbRasterImageDef
 90
        0
  1
P:\DAACS\Archaeological Sites\Maryland Sites\18CV344 - Chapline Place\Microstation\Phase III Features.tif
 10
1306.0
 20
868.0
 11
0.0007656967840735069
 21
0.0007656967840735069
280
     1
281
     5
  0
IMAGEDEF
  5
4A2
102
{ACAD_REACTORS
330
49F
330
4A3
102
}
330
49F
100
AcDbRasterImageDef
 90
        0
  1
P:\DAACS\Archaeological Sites\Maryland Sites\18CV344 - Chapline Place\Microstation\Phase2withSTPs.tif
 10
1275.0
 20
1753.0
 11
0.000784313725490196
 21
0.000784313725490196
280
     1
281
     5
  0
LAYOUT
  5
47F
102
{ACAD_REACTORS
330
48C
330
48C
102
}
330
48C
100
AcDbPlotSettings
  1

  2

  4

  6

 40
0.0
 41
0.0
 42
0.0
 43
0.0
 44
0.0
 45
0.0
 46
0.0
 47
0.0
 48
0.0
 49
0.0
140
0.0
141
0.0
142
1.0
143
1.0
 70
   688
 72
     0
 73
     0
 74
     5
  7

 75
    16
147
1.0
148
0.0
149
0.0
100
AcDbLayout
  1
Layout1
 70
     1
 71
     1
 10
0.0
 20
0.0
 11
12.0
 21
9.0
 12
0.0
 22
0.0
 32
0.0
 14
1.000000E+20
 24
1.000000E+20
 34
1.000000E+20
 15
-1.000000E+20
 25
-1.000000E+20
 35
-1.000000E+20
146
0.0
 13
0.0
 23
0.0
 33
0.0
 16
1.0
 26
0.0
 36
0.0
 17
0.0
 27
1.0
 37
0.0
 76
     0
330
47C
  0
LAYOUT
  5
47B
102
{ACAD_REACTORS
330
48C
330
48C
102
}
330
48C
100
AcDbPlotSettings
  1

  2

  4

  6

 40
0.0
 41
0.0
 42
0.0
 43
0.0
 44
0.0
 45
0.0
 46
0.0
 47
0.0
 48
0.0
 49
0.0
140
0.0
141
0.0
142
1.0
143
1.0
 70
  1712
 72
     0
 73
     0
 74
     0
  7

 75
     0
147
1.0
148
0.0
149
0.0
100
AcDbLayout
  1
Model
 70
     1
 71
     0
 10
0.0
 20
0.0
 11
12.0
 21
9.0
 12
0.0
 22
0.0
 32
0.0
 14
0.0
 24
0.0
 34
0.0
 15
0.0
 25
0.0
 35
0.0
146
0.0
 13
0.0
 23
0.0
 33
0.0
 16
1.0
 26
0.0
 36
0.0
 17
0.0
 27
1.0
 37
0.0
 76
     0
330
478
331
4B
  0
MLINESTYLE
  5
476
102
{ACAD_REACTORS
330
48A
102
}
330
48A
100
AcDbMlineStyle
  2
STANDARD
 70
     0
  3

 62
   256
 51
90.0
 52
90.0
 71
     2
 49
0.5
 62
   256
  6
BYLAYER
 49
-0.5
 62
   256
  6
BYLAYER
  0
ACDBPLACEHOLDER
  5
471
102
{ACAD_REACTORS
330
48E
102
}
330
48E
  0
XRECORD
  5
5B
102
{ACAD_REACTORS
330
491
102
}
330
491
100
AcDbXrecord
280
     1
310
0800000000000000000000000600100000066030000000000000000000408F40E80300000A000000000000000000F03F000000000088C3400000000000000000000000000000F03F9A9999999999E93F9A9999999999E93F9A9999999999E93F000000000000F03F0000000000000000000000000000000000000000000000
310
000000000000000000000000000000000000000000698B42C100000000341D1CC1000000000000000000000000ACD2394100000000060F3C41000000000000000004000000FFFFFFFF0000000007000000FFFFFFFF000000000000000000000000000000000000000000000000000000000000000000000000000000000000
310
00
310
0000000000000000000000000000000000000000000000F03F00000000000000000000000000000000000000000000000000000000000000000202000000000000ED9E3C2CD45A7340ED9E3C2CD45A73400000000000000000000000000000F03F000000000000000000000000000000000000000000000000000000000000
310
F03F00000000000000000000000000000000000000000000000000000000000000000000000000000000000000000000000000000000000000000000000000000000000000000000000000000000000000000000000000D400000000000040000000FFFFFFFF00000000000000000000000000000000000000000100000001
310
00
310
0000000000000000000000000000000000000000000000000000000000000000000000000000000000007B040000000000000000000000000000000000000200010001000000000005000500010000000000000000000000000000000000000000000000000000000000000000000000000000000000000000000000000000
310
00000000000000000000000000000000000000000000000000000000000000000000000000000000000000000000000000000000000000000000000000000000000000000000000000000000000000000000000000500043000000000000000000000000000000000000000000000000000000000000000000000000000000
310
00
310
00000000000000000000000000000000000000000000000000000000000000000000000000000000000000000000000000000000000000000000000000000000000000000000000000000000000000000000000000000000000000000000000000000000000000000000000000000000000000000000000000000000000000
310
00000000000000000000000000000000000000000000000000000000000000000000000000000000000000000000000000000000000000000000000000000000000000000000000000000000000000000000000000000000000000000000000000000000000000000000000000000000000000000000000000000000000000
310
00
310
00000000000000000000000000000000000000000000000000000000000000000000000000000000000000000000000000000000000000000000000000000000000000000000000000000000000000000000000000000000000000000000000000000000000000000000000000000000000000000000000000000000000000
310
00000000000000000000000000000000000000000000000000000000000000000000000000000000000000000000000000000000000000000000000000000000000000000000000000000000000000000000000000000000000000000000000000000000000000000000000000000000000000000000000000000000000000
310
00
310
00000000000000000000000000000000000000000000000000000000000000000000000000000000000000000000000000000000000000000000000000000000000000000000000000000000000000000000000000000000000000000000000000000000000000000000000000000000000000000000000000000000000000
310
00000000000000000000000000000000000000000000000000000000000000000000000000000000000000000000000000000000000000000000000000000000000000000000000000000000000000000000000000000000000000000000000000000000000000000000000000000000000000000000000000000000000000
310
00
310
00000000000000000000000000000000000000000000000000000000000000000000000000000000000000000000000000000000000000000000000000000000000000000000000000000000000000000000000000000000000000000000000000000000000000000000000000000000000000000000000000000000000000
310
000000000000000000000000000000000000000000000000000000000000000000000000000000000000000000000000000000000000000000000000000000000000000000000000000000000000000000000000000000000075006E006B000000000000000000000000000000000000000000000000000000000000000000
310
00
310
00000000000000000000000000000000000000000000000000000000000000000000000000000000000000000000000000000000000000000000000000000000000000000000000000000000000000000000000000000000000000000000000000000000000000000000000000000000000000000000000000000000000000
310
00000000000000000000000000000000000000000000000000000000000000000000000000000000000000000000000000000000000000000000000000000000000000000000000000000000000000000000000000000000000000000000000000000000000000000000000000000000000000000000000000000000000000
310
00
310
00000000000000000000000000000000000000000000000000000000000000000000000000000000000000000000000000000000000000000000000000000000000000000000000000000000000000000000000000000000000000000000000000000000000000000000000000000000000000000000000000000000000000
310
00000000000000000000000000000000000000000000000000000000000000000000000000000000000000000000000000000000000000000000000000000000000000000000000000000000000000000000000000000000000000000000000000000000000000000000000000000000000000000000000000000000000000
310
00
310
00000000000000000000000000000000000000000000000000000000000000000000000000000000000000000000000000000000000000000000000000000000000000000000000000000000000000000000000000000000000000000000000000000000000000000000000000000000000000000000000000000000000000
310
00000000000000000000000000000000000000000000000000000000000000000000000000000000000000000000000000000000000000000000000000000000000000000000000000000000000000000000000000000000000000000000000000000000000000000000000000000000000000000000000000000000000000
310
00
310
00000000000000000000000000000000000000000000000000000000000000000000000000000000000000000000000000000000000000000000000000000000000000000000000000000000000000000000000000000000000000000000000000000000000000000000000000000000000000000000000000000000000000
310
00000000000000000000000000000000000000000000000000000000000000000000000000000000000000000000000000000000000000000000000000000000000000000000000000000000000000000000000000000000000000000000000000F03F000075006E006B000000000000000000000000000000000000000000
310
00
310
00000000000000000000000000000000000000000000000000000000000000000000000000000000000000000000000000000000000000000000000000000000000000000000000000000000000000000000000000000000000000000000000000000000000000000000000000000000000000000000000000000000000000
310
00000000000000000000000000000000000000000000000000000000000000000000000000000000000000000000000000000000000000000000000000000000000000000000000000000000000000000000000000000000000000000000000000000000000000000000000000000000000000000000000000000000000000
310
00
310
00000000000000000000000000000000000000000000000000000000000000000000000000000000000000000000000000000000000000000000000000000000000000000000000000000000000000000000000000000000000000000000000000000000000000000000000000000000000000000000000000000000000000
310
00000000000000000000000000000000000000000000000000000000000000000000000000000000000000000000000000000000000000000000000000000000000000000000000000000000000000000000000000000000000000000000000000000000000000000000000000000000000000000000000000000000000000
310
00
310
00000000000000000000000000000000000000000000000000000000000000000000000000000000000000000000000000000000000000000000000000000000000000000000000000000000000000000000000000000000000000000000000000000000000000000000000000000000000000000000000000000000000000
310
00000000000000000000000000000000000000000000000000000000000000000000000000000000000000000000000000000000000000000000000000000000000000000000000000000000000000000000000000000000000000000000000000000000000000000000000000000000000000000000000000000000000000
310
00
310
00000000000000000000000000000000000000000000000000000000000000000000000000000000000000000000000000000000000000000000000000000000000000000000000000000000000000000000000000000000000000000000000000000000000000000000000000000000000000000000000000000000000000
310
00000000000000000000000000000000000000000000000000000000000000000000000000000000000000000000000000000000000000000000000000000000000000000000000000000000000000000000000000000000000000000000000000000000000000000000000000F03F000000000080464000000000008046C0
310
00
310
0000000088C340000000000088C3400000000000000000000000000000000075006E006B00000000000000000000000000000000000000000000000000000000000000000000000000000000000000000000000000000000000000000000000000000000000000000000000000000000000000000000000000000000000000
310
00000000000000000000000000000000000000000000000000000000000000000000000000000000000000000000000000000000000000000000000000000000000000000000000000000000000000000000000000000000000000000000000000000000000000000000000000000000000000000000000000000000000000
310
00
310
00000000000000000000000000000000000000000000000000000000000000000000000000000000000000000000000000000000000000000000000000000000000000000000000000000000000000000000000000000000000000000000000000000000000000000000000000000000000000000000000000000000000000
310
00000000000000000000000000000000000000000000000000000000000000000000000000000000000000000000000000000000000000000000000000000000000000000000000000000000000000000000000000000000000000000000000000000000000000000000000000000000000000000000000000000000000000
310
00
310
00000000000000000000000000000000000000000000000000000000000000000000000000000000000000000000000000000000000000000000000000000000000000000000000000000000000000000000000000000000000000000000000000000000000000000000000000000000000000000000000000000000000000
310
00000000000000000000000000000000000000000000000000000000000000000000000000000000000000000000000000000000000000000000000000000000000000000000000000000000000000000000000000000000000000000000000000000000000000000000000000000000000000000000000000000000000000
310
00
310
00000000000000000000000000000000000000000000000000000000000000000000000000000000000000000000000000000000000000000000000000000000000000000000000000000000000000000000000000000000000000000000000000000000000000000000000000000000000000000000000000000000000000
310
00000000000000000000000000000000000000000000000000000000000000000000000000000000000000000000000000000000000000000000000000000000000000000000000000000000000000000000000000000000000000000000000000000000000000000000000000000000000000000000000000000000000000
310
00
310
00000000000000000000000000000000000000000000000000000000000000000000000000000000000000000000000000000000000000000000000000000000000000000000000000000000000000000000000000000000000000000000000000000000000000000000000000000000000000000000000000000000000000
310
000000000000000000000000000000000000000000000000000000000000000000000000000000000000000000000000000000000000000000408F400000000000409F400000000000000000000000000000000000000000000000000000000000000000000000000000000005000000070000000000000000805640000000
310
00
310
00000000000000000088C340000000000088C3400000000000002440000000000088C340000000000088C3400000000000000000000000000088C340000000000088C34000000000000000000000000000003E40000000000088C340000000000088C340000000000088C340000000000088C340000000000088C340000000
310
0000805640000000000088C34006000300040002000200000301010100000000000000000000000000000000000000000000000000000000000000F03F000000000000000000000000000000000000000000000000000000000000F03F000000000000000000000000000000000000000000000000000000000000F03F0000
310
00
310
00000000000000000000000000000000000000000000000000000000000000000000000000000000000000000000000000000000000000000000000000000000000000000000000000000000000000000000000000000000000000000000000000000000000000000000000000000000000000000000000000000000001521
310
00000002000027003800B5FF0900010A0066D107000000000000000014C000000000000000000000000000000000000000000000000000000000000000000000000000000000000000000000F03F000000000000F03F000000000000F03F000000000000F03F000000000000F03F000000000000F03F000000000000F03F00
310
00
310
00000000F03F333333333333D33F000000000000F03F000000000000F03F000000000000F03F333333333333D33F0000000000000000000000000000E83F0000000000000000000000000000F03F000000000000F03F000000000000F03F7B14AE47E17A943F000000000000E03F00000700D0070000000000000000000000
310
00000000000000000000000000000000000000000000000000000000000000000000000000000000000000000000000000000000000000000000000000000000000000000000000000000000000000000000000000000000000000000000000000000000000000000000000000000000000000000000000000000000000000
310
00
310
000000000000000000000000000000000000000000000000000000000000000000000005000000433A5C50726F6772616D2046696C65735C42656E746C65795C576F726B73706163655C53797374656D5C63656C6C5C73616D706C65322E63656C000000000000000000000000000000000000000000000000000000000000
310
00000000000000000000000000000000000000000000000000000000000000000000000000000000000000000000000000000000000000000000000000000000000000000000000000000000000000000000000000000000000000000000000000000000000000000000000000000000000000000000000000000000000000
310
00
310
00000000000000000000000000000000000000000000000000000000000000000000000000000000000000000000000000000000000000000000000000000000000000000000000000000000000000000000000000000000000000000000000000000000000000000000000000000000000000000000000000000000000000
310
00000000000000000000000000000000000000000000000000000000000000000000000000000000000000000000000000000000000000000000000000000000000000000000000000000000000000000000000000000000000000000000000000000000000000000000000000000000000000000000000000000000000000
310
00
310
00000000000000000000000000000000000000000000000000000000000000000000000000000000000000000000000000000000000000000000000000000000000400000000000000000000000000000000000000000000000000000014000000000000000000000000000000000000000000000000000000000000000000
310
040000000000000000000000000000000000000000000000F03F000000000000F03F000000000000F03F000000000000F03F030000000000000000000000000000000000000006000000000000000000000000000000000000001F020000000000000000000000000000000000000088C34000000000000000000000000000
310
00
310
00000000000000000000000000000000000000000000000000000000000000000000000000000000000000000000000000000000000000000000000000000000000000000000000000000000000000000000000000000000000000000000000000000000000000000000000000000000000000000000000000000000000000
310
00000000000000000000000000000000000000000000000000000000000000000000000000000000000000000000000000000000000000000000000000000000000000000000000000000000000000000000000000000000000000000000000000000000000000000000000000000000000000000000000000000000000000
310
00
310
00000000000000000000000000000000000000000000000000000000000000000000000000000000000000000000000000000000000000000000000000000000000000000000000000000000000000000059400100000004000000010000000400000000000000000000000000000001000000000000000000000000000000
310
000000000000000000000000000000000000E83F000000000000D03F000000000000000000000000000000000000000000000000000000000000000000000000000000000000000000000000000000000000000000000000000000000000000000000000000000000000000000000000000024400000000000000000000000
310
00
310
008066400000000000000000000000000000000000840000000000000000000000000000000000000000000000000000000000000000000000000000000000000000000000000000000000000000000000000000000000000000000000000000000000000000000000000000000000000000E03F0000000000000000000000
310
00000000000000000000000000000000000000000000000000000000000000000000000000000000000000000000000000000000000000000000000000000000000000000000000000000000000000000000000000000000000000000000000000000000000000000000000000000000000000000000000000000000000000
310
00
310
00000000000000000000000000000000000000000000000000000000000000000000000000000000000000000000000000000000000000000000000000000000000000000000000000000000000000000000000000000000000000000000000000000000000000000000000000000000000000000000000000000000000000
310
0000000000000000000000000000000000000000000000000000000000000000000000000000000000000000000000000000000000000000000000000000000000000000000000000000000000000000000000000000000000000000F03F0000000000000000000000000000F03F0000000000000000000000000000000000
310
00
310
00000080564001020000040000000000000004000000000000000400000004000000000000000400000000000000040000000000000001000000000000000000000000000000000000000000000000000000000000000000000000000000000000000000000000000000000000000000000000000000000000000000000000
310
00000000000000000000000000000000000000000000000000000000000000000000000000000000000000000000000000000000000000000000000000000000000000000000000000000000000000000000000088C3400000000000000000000000000088C3400000000000000000000000000088C3400000000000000000
310
00
310
0000000088C340000000000000000000000000000000000000000000000000000000000000000000000000000000000000000000000000000000000000000041000000000000009A9999999999B93F9A9999999999B93F01000000000000009A9999999999B93F9A9999999999B93F40010000000000000000000000000000
310
000000000000000013030000000000000000000000000000000000000000000000000000000000000000000000000000000000000000000000000000000000000100000000000000000000000000000000000000000000000100000000000000FCA9F1D24D6208400100000000000000000000000000E03F01000000000000
310
00
310
000000000000E03F000000000000000000000000000000000000000000000000000000000000000000000000000000000000000000000000000000000000000000000000000000000000000000000000000000000088C3400000000000000000000000000088C3400000000000000000000000000088C34020000000000000
310
000000000000000000000000000088C3400000000000000000000000000088C34000000000000000000000000000000000000000000088C3400000000000000000000000000088C3400000000000000000000000000000000000000000006AE840010000000000000000000000006AE840010000000000000000000000006A
310
F8
310
40000000000000000000000000006AE840000000000000000028000000000000000000000000002440000000000000000000000000006AF84000000000000000000000000000000000000000000000000000000000000024400000000000000000010000000000000000000000000024400000000000000000000000000000
310
2440000000000000000000000000000024408800000014000000000000000000000000000000000000009A9999999999B93F9A9999999999B93F000000000088C340880000001400000014000000000000000000000000000000000000000000000000000000000000000000000000000000000000000000F03F9A99999999
310
99
310
B93F0000000000000000000000000A0000000A0000000000000000000000000000000000000000000000000000000000000000000000000000000000000000000000C00000000000000000000000000000009A9999999999B93F00000000000000000000000000000000000000000000000000000000000000000000000000
310
00000000000000000000000400000000000000000000000088C340000000000088C34000000000008036406F682508B2F9333F000000004000000002000000010000000800000000000000CDCCCCCCCC0C73400000000000000000CDCCCCCCCC0C73401000000000000000CDCCCCCCCC0C73400000000000000000CDCCCCCC
310
CC
310
0C734000000000000000000000000000000000000000000000000000000000000000000000000000000000000000000000000001000000000000000000000000000000000000000100000000000000000000000000000000000000000000000000000000010000000000000000000000000000000000000000244000000000
310
00000000000000000000000000000000000000000000000000000000000000000000000000000000000000000000000000000000000000000000000000000000000000000000000000000000000000000000000000000000000000000000000000000000000000000000000000000000000000000000000000000000000000
310
00
310
00000000000000000000000000000000000000000000000000000000000000000000000000000000000000000000000000000000000000000000000000000000000000000000000000000000000000000000000000000000000000000000000000000000000000000000000000000000000000000000000000000000000000
310
00000000000000000000000000000000000000000000000000000000000000000000000000000000000000000000000000000000000000000000000000000000000000000000000000000000000000000000000000000000000000000000000000000000000000000000000000000000000000000000000000000000000000
310
00
310
00000000000000000000000000000000000000000000000000000000000000000000000000000000000000000000000000000000001400000001000000000000000000000000000000000000000100000000000000020000000000000004000000E80300000010000000000000040000000000000000000000000000000000
310
0000000000000000000000000000000000000000000007000000000000008B040000000000000000000000000000000000000000000000000000036D7364656661756C740000000000000000000000000000000000000000000000000000000000000000000000000000000000000000000000000000000000000100000002
310
00
310
00000000000000000000000000000000000000000000000000000000000000000000000000000000000000000000000000000000000000000000000000000000000000000000000000000000000000000000000000000000000000000000000000000000000000000000000000000000000000000000000000000000000000
310
00000000000000000000000000000000000000000000000000000000000000000000000000000000000000000000000000000000000000000000000000000000000000000000000000000000000000000000000000000000000000000000000000000000000000000000000000000000000000000000000000000000000000
310
00
310
00000000000000000000000000000000000000000000000000000000000000000000000000000000000000000000000000000000000000000000000000000000000000000000000000000000000000000000000000000000000000000000000000000000000000000000000000000000000000000000000000000000000000
310
00000000000000000000000000000000000000000000000000000000000000000000000000000000000000000000000000000000000000000000000000000000000000000000000000000000000000000000000000000000000000000000000000000000000000000000000000000000000000000000000000000000000000
310
00
310
00000000000000000000000000000000000000000000000000000000000000000000000000000000000000000000000000000000000000000000000000000000000000000000000000000000000000000000000000000000000000000000000000000000000000000000000000000000
  0
ENDSEC
  0
SECTION
  2
THUMBNAILIMAGE
 90
    21404
310
28000000B4000000710000000100080000000000744F000000040000000400000001000048000000FFFFFF009090900018101000F0F0F00008080800D0B8B80048000000F8F8F80010101000F8F0F000C0C0C00048484800D8D8D80018181800A0A0A000D0D0D00068282800C8C8C80078404000E0D8D800D8C8C800989898
310
00A8A8A8005810100068383800D8D0D000B8A0A0006060600080484800D0C0C00050080800B090900068303000E0D0D000B898980058181800505050006868680070383800E0E0E000B0B0B000B8B8B800707070008050500058202000E8E0E000E8E8E800F0E8E80070303000E8D8D8006020200058585800601818007878
310
78008858580080808000886060008888880090686800A078780098707000A8808000B08888007838380020202000303030002828280038383800404040004028280090606000B8A8A800FFFFFF00FFFFFF00FFFFFF00FFFFFF00FFFFFF00FFFFFF00FFFFFF00FFFFFF00FFFFFF00FFFFFF00FFFFFF00FFFFFF00FFFFFF00FF
310
FFFF00FFFFFF00FFFFFF00FFFFFF00FFFFFF00FFFFFF00FFFFFF00FFFFFF00FFFFFF00FFFFFF00FFFFFF00FFFFFF00FFFFFF00FFFFFF00FFFFFF00FFFFFF00FFFFFF00FFFFFF00FFFFFF00FFFFFF00FFFFFF00FFFFFF00FFFFFF00FFFFFF00FFFFFF00FFFFFF00FFFFFF00FFFFFF00FFFFFF00FFFFFF00FFFFFF00FFFFFF00
310
FFFFFF00FFFFFF00FFFFFF00FFFFFF00FFFFFF00FFFFFF00FFFFFF00FFFFFF00FFFFFF00FFFFFF00FFFFFF00FFFFFF00FFFFFF00FFFFFF00FFFFFF00FFFFFF00FFFFFF00FFFFFF00FFFFFF00FFFFFF00FFFFFF00FFFFFF00FFFFFF00FFFFFF00FFFFFF00FFFFFF00FFFFFF00FFFFFF00FFFFFF00FFFFFF00FFFFFF00FFFFFF
310
00FFFFFF00FFFFFF00FFFFFF00FFFFFF00FFFFFF00FFFFFF00FFFFFF00FFFFFF00FFFFFF00FFFFFF00FFFFFF00FFFFFF00FFFFFF00FFFFFF00FFFFFF00FFFFFF00FFFFFF00FFFFFF00FFFFFF00FFFFFF00FFFFFF00FFFFFF00FFFFFF00FFFFFF00FFFFFF00FFFFFF00FFFFFF00FFFFFF00FFFFFF00FFFFFF00FFFFFF00FFFF
310
FF00FFFFFF00FFFFFF00FFFFFF00FFFFFF00FFFFFF00FFFFFF00FFFFFF00FFFFFF00FFFFFF00FFFFFF00FFFFFF00FFFFFF00FFFFFF00FFFFFF00FFFFFF00FFFFFF00FFFFFF00FFFFFF00FFFFFF00FFFFFF00FFFFFF00FFFFFF00FFFFFF00FFFFFF00FFFFFF00FFFFFF00FFFFFF00FFFFFF00FFFFFF00FFFFFF00FFFFFF00FF
310
FFFF00FFFFFF00FFFFFF00FFFFFF00FFFFFF00FFFFFF00FFFFFF00FFFFFF00FFFFFF00FFFFFF00FFFFFF00FFFFFF00FFFFFF00FFFFFF00FFFFFF00FFFFFF00FFFFFF00FFFFFF00FFFFFF00FFFFFF00FFFFFF00FFFFFF00FFFFFF00FFFFFF00FFFFFF00FFFFFF00FFFFFF00FFFFFF00FFFFFF00FFFFFF00FFFFFF00FFFFFF00
310
FFFFFF00FFFFFF00FFFFFF00FFFFFF00FFFFFF00FFFFFF00FFFFFF00FFFFFF00FFFFFF00FFFFFF00FFFFFF00FFFFFF0007070707070707070707070707070707070707070707070707070707070707070707070707070707070707070707070707070707070707070707070707070707070707070707070707070707070707
310
07070707070707070707070707070707070707070707070707070707070707070707070707070707070707070707070707070707070707070707070707070707070707070707070707070707070707070707070707070707070707070707070707070707070707070707070707070707070707070707070707070707070707
310
07070707070707070707070707070707070707070707070707070707070707070707070707070707070707070707070707070707070707070707070707070707070707070707070707070707070707070707070707070707070707070707070707070707070707070707070707070707070707070707070707070707070707
310
07070707070707070707070707070707070707070707070707070707070707070707070707070707070707070707070707070707070707070707070707070707070707070707070707070707070707070707070707070707070707070707070707070707070707070707070707070707070707070707070707070707070707
310
07070707070707070707070707070707070707070707070707070707070707070707070707070707070707070707070707070707070707070707070707070707070707070707070707070707070707070707070707070707070707070707070707070707070707070707070707070707070707070707070707070707070707
310
07070707070707070707070707070707070707070707070707070707070707070707070707070707070707070707070707070707070707070707070707070707070707070707070707070707070707070707070707070707070707070707070707070707070707070707070707070707070707070707070707070707070707
310
07070707070707070707070707070707070707070707070707070707070707070707070707070707070707070707070707070707070707070707070707070707070707070707070707070707070707070707070707070707070707070707070707070707070707070707070707070707070707070707070707070707070707
310
07070707070707070707070707070707070707070707070707070707070707070707070707070707070707070707070707070707070707070707070707070707070707070707070707070707070707070707070707070707070707070707070707070707070707070707070707070707070707070707070707070707070707
310
07070707070707070707070707070707070707070707070707070707070707070707070707070707070707070707070707070707070707070707070707070707070707070707070707070707070707070707070707070707070707070707070707070707070707070707070707070707070707070707070707070707070707
310
07070707070707070707070707070707070707070707070707070707070707070707070707070707070707070707070707070707070707070707070707070707070707070707070707070707070707070707070707070707070707070707070707070707070707070707070707070707070707070707070707070707070707
310
07070707070707070707070707070707070707070707070707070707070707070707070707070707070707070707070707070707070707070707070707070707070707070707070707070707070707070707070707070707070707070707070707070707070707070707070707070707070707070707070707070707070707
310
07070707070707070707070707070707070707070707070707070707070707070707070707070707070707070707070707070707070707070707070707070707070707070707070707070707070707070707070707070707070707070707070707070707070707070707070707070707070707070707070707070707070707
310
07070707070707070707070707070707070707070707070707070707070707070707070707070707070707070707070707070707070707070707070707070707070707002D06190707070707070740424242040842424242420707070707070707070707070707070707070707070707070707070707070707070707070707
310
070707070707070707070707070707070707070707070707070707070707070707070707070707070707070707070707070707070707070707070707070707070707070707070707070707070707070707070707070707070707070707070707070707070707070707070707070707070707070707070707072D0619070707
310
0707070740424004040D424242424207070707070707070707070707070707070707070707070707070707070707070707070707070707070707070707070707070707070707070707070707070707070707070707070707070707070707070707070707070707070707070707070707070707070707070707070707070707
310
07070707070707070707070707070707070707070707070707070707070707070707070707070707070707070707070707070707070707070740072E0D0D000D0D0707070707070707070707070707070707070707070707070707070707070707070707070707070707070707070707070707070707070707070707070707
310
0707070707070707070707070707070707070707070707070707070707070707070707070707070707070707070707070707070707070707070707070707070707070707070707070707070707070707070707070707070707070707070707070707070707070707070707070707400D0D0D0D0D0D0D0D0D0D070707070707
310
0707070707070707070707070707070707070707070707070707070707070707070707070707070707070707070707070707070707070707070707070707070707070707070707070707070707070707070707070707070707070707070707070707070707070707070F0F0F0F0F0F0F0F0F0F0F0F0F0F0707070707070700
310
000000000039000025414125420000000707070707070707070707070707070707070707400D070D0D0D0D0D070D0D0707070707070707070707070707070707070707070707070707070707070707070707070707070707070707070707070707070707070707070707070707070707070707070707070707070707070707
310
0707070707070707070707070707070707070707070707070707070707070708151515151515151515151515330F0707070707070007070707070C27072E0F0C2E0C2707070707070707070707070707070707070707070707400D0D070D0D0D0D0D0D0D070707070707070707070707070707070707070707070707070707
310
0707070707070707070707070707070707070707070707070707070707070707070707070707070707070707070707070707070707070707070707070707070707070707070707070707070707070707070707070D000000070707070707070707150F07070707070007070707070707070707070707070707000707070707
310
07070707070707070707070707070740070707070D07070707070707070707070707070707070707070707070707070707070707070707070707070707070707070707070707070707070707070707070707070707070707070707070707070707070707070707070707070707070707070707070707070707070707070707
310
070707070707070707070D000700070707070707070707150F07070707070007070707070707070707071D1D1D07070007070707070707070707070707070707070707074040404040404040404040070707070707070707070707070707070707070707070707070707070707070707070707070707070707070707070707
310
0707070707070707070707070707070707070707070707070707070707070707070707070707070707070707070707070707070707070707070707070707070D000000070707070707070707150F0707070707000707070707070707070707002B460707000707070707070707070707070707070707070707070707070707
310
07070707070707070707070707070707070707070707070707070707070707070707070707070707070707070707070707070707070707070707070707070707070707070707070707070707070707070707070707070707070707070707070707070707070707070707070707070707070707070D00000000070707070707
310
0707150F0707070707000707070707070707070707362B4607070007070707070707070707070707070707070707070707070707070707070707070707070707070707070707070707070707070707070707070707070707070707070707070707070707070707070707070707070707070707070707070707070707070707
310
0707070707070707070707070707070707070707070707070707070707070707070707070707070707070D000000070707070707070707150F07070707070F00070707070707070707070707070727400707070707070707070707070707070707070707070707070707070707070707070707070707070707070707070707
310
070707070707070707070707070707070707070707070707070707070707070707070707070707070707070707070707070707070707070707070707070707070707070707070707070707070707070707070707070707070707070707070708110707070707070707070707150F0707070707030807070707070707070707
310
07070707031B07070707070707070707070707070707070707070707070707070707070707070707070707070707070707070707070707070707070707070707070707070707070707070707070707070707070707070707070707070707070707070707070707070707070707070707070707070707070707070707070707
310
07070707070707070707070707070707070707071100001107070707070707070707150F0707070707071B2E070707070707070707070707070C420707070707070707070707070707070707070707070707070707070707070707070707070707070707070707070707070707070707070707070707070707070707070707
310
070707070707070707070707070707070707070707070707070707070707070707070707070707070707070707070707070707070707070707070707070707070707070707070707071100001107070707070707070707150F0707070707070007070707070707070707070707070F41070707070707070707070707070707
310
07070707070707070707070707070707070707070707070707070707070707070707070707070707070707070707070707070707070707070707070707070707070707070707070707070707070707070707070707070707070707070707070707070707070707070707070707070707070707070707070707070707070707
310
08000000070707070707070707150F07070707070700270707070707070707070707070711430707070707070707070707070707070707070707070707070707070707070707070707070707070707070707070707070707070707070707070707070707070707070707070707070707070707070707070707070707070707
310
07070707070707070707070707070707070707070707070707070707070707070707070707070707070707070707070707070707070D000000070707070707070707150F070707070707390C070707072F2F070707070707070C01070707070707070707070707070707070707070707070707070707070707070707070707
310
0707070707070707070707070707070707070707070707070707070707070707070707070707070707070707070707070707070707070707070707070707070707070707070707070707070707070707070707070707070707070707070707070707070707070707070704414141414141414141414141400F070707070707
310
00070707070700340707070707070737370707070707070707070707070707070707070707070707070707070707070707070707070707070707070707070707070707070707070707070707070707070707070707070707070707070707070707070707070707070707070707070707070707070707070707070707070707
310
07070707070707070707070707070707070707070707070707070707070707070D070707070707070707070707150F070707070707070007070707171707070707070707410F070707070707070707070707070707070707070707070707070707070707070707070707070707070707070707070707070707070707070707
310
07070707070707070707070707070707070707070707070707070707070707070707070707070707070707070707070707070707070707070707070707070707070707070707070707070707070707070707070707070707070707070707070707070707070707070707070700070707070707070707070300150707070707
310
07070707070707070707070707070707070707070707070707070707070707070707070707070707070707070707070707070707070707070707070707070707070707070707070707070707070707070707070707070707070707070707070707070707070707070707070707070707070707070707070707070707070707
310
0707070707070707070707070707070707070707070707070707070707070707070700000025414242400D0B0800070707070707070707070707070707070707070707070707070707070707070707070707070707070707070707070707070707070707070707070707070707070707070707070707070707070707070707
310
0707070707070707070707070707070707070707070707070707070707070707070707070707070707070707070707070707070707070707070707070707070707070707070707070707070707070707070707070707070707072E0F0C0C272707030707072700394300000E28070707070707070707070707070707070707
310
07070707070707070707070707070707070707070707070707070707070707070707070707070707070707070707070707070707070707070707070707070707070707070707070707070707070707070707070707070707070707070707070707070707070707070707070707070707070707070707070707070707070707
310
07070707070707070707070707070707070707070707070707070E40160C11270711244103070706070707070707070707070707070707070707070707070707070707070707070707070707070707070707070707070707070707070707070707070707070707070707070707070707070707070707070707070707070707
310
070707070707070707070707070707070707070707070707070707070707070707070707070707070707070707070707070707070707070707070707070707070707070707070707070707070700001107070707070707070F240019002D070707070707070707070707070707070707070707070707070707070707070707
310
07070707070707070707070707070707070707070707070707070707070707070707070707070707070707070707070707070707070707070707070707070707070707070707070707070707070707070707070707070707070707070707070707111111111107070707070707070707070707070707070707070707070707
310
0707000707070707070707070707070716191C2D0707070707070707070707070707070707070707070707070707070707070707070707070707070707070707070707070707070707070707070707070707070707070707070707070707070707070707070707070707070707070707070707070707070707070707070707
310
0707070707070707070707070707070707070707070700004000000000000000000041070707070707070707070707070707070707070700070707070707070707070707070C000707070707070707070707070707070707070707070707070707070707070707070707070707070707070707070707070707070707070707
310
07070707070707070707070707070707070707070707070707070707070707070707070707070707070707070707070707070707070707070707070707070707070707070707070707070728280728280016161616161600070707070707070707070707070707070707070007070707072222070707070707070700070707
310
07070706070707070707070707070707070707070707070707070707070707070707070707070707070707070707070707070707070707070707070707070707070707070707070707070707070707070707070707070707070707070707070707070707070707070707070707070707070707070707070707070707070707
310
070707070707070707070707070707070707070707070707070707070707070700000707070707001C2107070707070707240307070707001A32070707070707070707070707070707070707070707070707070707070707070707070707070707070707070707070707070707070707070707070707070707070707070707
310
07070707070707070707070707070707070707070707070707070707070707070707070707070707070707070707070707070707070707070707070707070707070707070707070707070707070707070707070707000707070707072B46210707070707070700070707070707063207070707070707070707070707070707
310
07070707070707070707070707070707070707070707070707070707070707070707070707070707070707070707070707070707070707070707070707070707070707070707070707070707070707070707070707070707070707070707070707070707070707070707070707070707070707070707070707070707070707
310
070707070707070707070700070707070707070707070707070707071B0307070707070707070707070707070707070707070707070707070707070707070707070707070707070707070707070707070707070707070707070707070707070707070707070707070707070707070707070707070707070707070707070707
310
07070707070707070707070707070707070707070707070707070707070707070707070707070707070707070707070707070707070707070707070707070707070007070707070707070707070707070740270707070707070707070707070707070707070707070707070707070707070707070707070707070707070707
310
07070707070707070707070707070707070707070707070707070707070707070707070707070707070707070707070707070707070707070707070707070707070707070707070707070707070707070707070707070707070707070707070707070707070707070707070707070707070707070707000707070707070707
310
07070707070707000307070707070707070707070707070707070707070707070707070707070707070707070707070707070707070707070707070707070707070707070707070707070707070707070707070707070707070707070707070707070707070707070707070707070707070707070707070707070707070707
310
07070707070707070707070707070707070707070707070707070707070707070707070707070707070707070007070706070707070707073030070700070707070707070707070707070707070707070707070707070707070707070707070707070707070707070707070707070707070707070707070707070707070707
310
070707070707070707070707070707070707070707070707070707070707070707070707070707070707070707070707070707070707070707070707070707070707070707070707070707070707070707070707070707070707070707070707070007002D062107070707070700320907390C070707070707070707070707
310
07070707070707070707070707070707070707070707070707070707070707070707070707070707070707070707070707070707070707070707070707070707070707070707070707070707070707070707070707070707070707070707070707070707070707070707070707070707070707070707070707000707070707
310
07070707070707070707070707070707070707070707070007072D1C21070707070707101C090733160707070707070707070707070707070707070707070707070707070707070707070707070707070707070707070707070707070707070707070707070707070707070707070707070707070707070707070707070707
310
07070707070707070707070707070707070707070707070707070707070707070707070707070707070707070707070707070707070707070707070707070707070707070707070707070707000707070707070707070707070707073316070707070707070707070707070707070707070707070707070707070707070707
310
07070707070707070707070707070707070707070707070707070707070707070707070707070707070707070707070707070707070707070707070707070707070707070707070707070707070707070707070707070707070707070707070707070707070707070707070707070707070707070707070707070707070707
310
070707000707070707070707070707070707000C0707070707070707070707070707070707070707070707070707070707070707070707070707070707070707070707070707070707070707070707070707070707070707070707070707070707070707070707070707070707070707070707070707070707070707070707
310
07070707070707070707070707070707070707070707070700070707070707000707070707070707070707070707070707070707070707070700070707070707070707070707070006070707070707070707070707070707070707070707070707070707070707070707070707070707070707070707070707070707070707
310
070707070707070707070707070707070707070707070707070707070707070707070707070707070707070707070707070707070707070707070707070707070707070707070707070707070707070707070707070707070707070707070707070707070707070707070707070700000707070707070707070707001D0003
310
07070707070707070707070707070707070707070707070707070707070707070707070707070707070707070707070707070707070707070707070707070707070707070707070707070707070707070707070707070707070707070707070707070707070707070707070707070707070707070707070707070707070707
310
07070707070707070707070707070707070000080D39000707070707070707070707070707070000070707070707070000071D12030707070707070707070707070707070707070707070707070707070707070707070707070707070707070707070707070707070707070707070707070707070707070707070707070707
310
070707070707070707070707070707070707070707070707070707070707070707070707070707070707070707070707070707070707070707070707070707070707070707000007072E0C00441600070707070707070707070707070700000000000000070707070707070707070707070707070707070707070707070707
310
07070707070707070707070707070707070707070707070707070707070707070707070707070707070707070707070707070707070707070707070707070707070707070707070707070707070707070707070707070707070707070707070707070707070707070707070707070707070707070707070707000707070707
310
0707070A000016030707070707070707070707070707070707070707070707070707070707070707070707070707070707070707070707070707070707070707070707070707070707070707070707070707070707070707070707070707070707070707070707070707070707070707070707070707070707070707070707
310
07070707070707070707070707070707070707070707070707070707070707070707070707070707070707070707070007071F1F070707070707070A420F2E07070707070707070707070707070707070707070707070707070707070707070707070707070707070707070707070707070707070707070707070707070707
310
070707070707070707070707070707070707070707070707070707070707070707070707070707070707070707070707070707070707070707070707070707070707070707070707070707070707070707070707070707070707070707070707070707070007001C1C07070700170707072E01421B27070707070707070707
310
07070707070707070707070707070707070707070707070707070707070707070707070707070707070707070707070707070707070707070707070707070707070707070707070707070707070707070707070707070707070707070707070707070707070707070707070707070707070707070707070707070707070707
310
07070707070707070707070707070707070707070707070707000707143A46070707172307070707072E0E402503000707070700000707070707070707070707070707070707070707070707070707070707070707070707070707070707070707070707070707070707070707070707070707070707070707070707070707
310
07070707070707070707070707070707070707070707070707070707070707070707070707070707070707070707070707070707070707070707070707070707070707070707070707070707070700070707070707070726120707070707070707150B00002707000007070707070707070707070707070707070707070707
310
07070707070707070707070707070707070707070707070707070707070707070707070707070707070707070707070707070707070707070707070707070707070707070707070707070707070707070707070707070707070707070707070707070707070707070707070707070707070707070707070707070707070707
310
07070707000707070707070707070707070707070707070707110700000007070707070707070707070707070707070707070707070707070707070707070707070707070707070707070707070707070707070707070707070707070707070707070707070707070707070707070707070707070707070707070707070707
310
07070707070707070707070707070707070707070707070707070707070707070707070707070707070707070707070707070707070707070007070707070707070707070707070707070707070007000727000041010707070707070707070707070707070707070707070707070707070707070707070707070707070707
310
07070707070707070707070707070707070707070707070707070707070707070707070707070707070707070707070707070707070707070707070707070707070707070707070707070707070707070707070707070707070707070707070707070707070707070707070707070007071414070707071414070707071414
310
070707141414000707141D2537370707070707070707070707070707070707070707070707070707070707070707070707070707070707070707070707070707070707070707070707070707070707070707070707070707070707070707070707070707070707070707070707070707070707070707070707070707070707
310
070707070707070707070707070707070707070707070707070707070707070707070707000007001C1D070707001007070700122607070700003600070700122D271B0B0707070707070707070707070707070707070707070707070707070707070707070707070707070707070707070707070707070707070707070707
310
070707070707070707070707070707070707070707070707070707070707070707070707070707070707070707070707070707070707070707070707070707070707070707070707070707070707070707070707070707070707070D181C1D0707073210070707131226000735001C450C070720122D070700070707070707
310
07070707070707070707070707070707070707070707070707070707070707070707070707070707070707070707070707070707070707070707070707070707070707070707070707070707070707070707070707070707070707070707070707070707070707070707070707070707070707070707070707070707070707
310
07070707070707070707070707070707070700000707070707070707070707070700271628370039000007001125070047140707070707070707070707070707070707070707070707070707070707070707070707070707070707070707070707070707070707070707070707070707070707070707070707070707070707
310
070707070707070707070707070707070707070707070707070707070707070707070707070707070707070707070707070707070707070707070707070707070707070707070707070000070707070707070707070707072800000700070000430E2E07070006070707070707070707070707070707070707070707070707
310
07070707070707070707070707070707070707070707070707070707070707070707070707070707070707070707070707070707070707070707070707070707070707070707070707070707070707070707070707070707070707070707070707070707070707070707070707070707070707070707070707070707070707
310
0007070707070707070707070707070700171E07070707070707072F000707070707070707070707070707070707070707070707070707070707070707070707070707070707070707070707070707070707070707070707070707070707070707070707070707070707070707070707070707070707070707070707070707
310
07070707070707070707070707070707070707070707070707070707070707070707070707070707070707070707070707070707070700070707070707073B3B0707360000001710071F00000007073D3D07000000070707070707070707070707070707070707070707070707070707070707070707070707070707070707
310
070707070707070707070707070707070707070707070707070707070707070707070707070707070707070707070707070707070707070707070707070707070707070707070707070707070707070707070707070707070707070707070707070707070707070707070707000007070707001C12070700000000173B0700
310
1C130707070010070707000007070707070707070707070707070707070707070707070707070707070707070707070707070707070707070707070707070707070707070707070707070707070707070707070707070707070707070707070707070707070707070707070707070707070707070707070707070707070707
310
07070707070707070707070707070707070707070707070707070707070707070707030007070707213C462E0E0200001E1007072B46130707073026070707070F0107070707070707070707070707070707070707070707070707070707070707070707070707070707070707070707070707070707070707070707070707
310
07070707070707070707070707070707070707070707070707070707070707070707070707070707070707070707070707070707070707070707070707070707070707070707070707070707070707070707070707070707010F0707070707072511073D2B123B0707070707070707070707070707070E1107070707070707
310
07070707070707070707070707070707070707070707070707070707070707070707070707070707070707070707070707070707070707070707070707070707070707070707070707070707070707070707070707070707070707070707070707070707070707070707070707070707070707070707070707070707070707
310
07070707070707070707070707071143070707070707070707070707070707070707070707070707070707070700070707070707070707070707070707070707070707070707070707070707070707070707070707070707070707070707070707070707070707070707070707070707070707070707070707070707070707
310
070707070707070707070707070707070707070707070707070707070707070707070707070707070707070707070707070707070707070707070707070707070707070743110707072D2D0707070707070707070707070707072F2F070707072F130007070707070707070707070707070707070707070707070707070707
310
070707070707070707070707070707070707070707070707070707070707070707070707070707070707070707070707070707070707070707070707070707070707070707070707070707070707070707070707070707070707070707070707070707070707070707070707070707070707070707070707070F0007070012
310
2607070707070707070707070707072F0017070707003F180D070707070707070707070707070707070707070707070707070707070707070707070707070707070707070707070707070707070707070707070707070707070707070707070707070707070707070707070707070707070707070707070707070707070707
310
07070707070707070707070707070707070707070707070707070707070707070707070707070707070707070707070707000E1D301007070707070707070707070707072F341E0707071D32322507070707070707070707070707070707070707070707070707070707070707070707070707070707070707070707070707
310
07070707070707070707070707070707070707070707070707070707070707070707070707070707070707070707070707070707070707070707070707070707070707070707070707070707070707070707070707070707070707070707070707070707070707110837030707070707070707070707070707070707070707
310
07070700070707070707070707070707070707070707070707070707070707070707070707070707070707070707070707070707070707070707070707070707070707070707070707070707070707070707070707070707070707070707070707070707070707070707070707070707070707070707070707070707070707
310
0707070707070707070707070707070707070707070707070707070707070735240D4225150A2707070707070707070707070707071100000707070707070707070707070707070707070707070707070707070707070707070707070707070707070707070707070707070707070707070707070707070707070707070707
310
0707070707070707070707070707070707070707070707070707070707070707070707070707070707070707070707070707070707070707070707070707070707070707070707070707070707070707070707070707270C152544400B0400430D1B4135442433240043430C07070707070707070707070707070707070707
310
07070707070707070707070707070707070707070707070707070707070707070707070707070707070707070707070707070707070707070707070707070707070707070707070707070707070707070707070707070707070707070707070707070707070707070707070707070707070707070707070707070707070707
310
070707070707070707070707070707070707070707072E2E0F270A28162827070707070707070707070707070707070707070707070707070707070707070707070707070707070707070707070707070707070707070707070707070707070707070707070707070707070707070707070707070707070707070707070707
310
07070707070707070707070707070707070707070707070707070707070707070707070707070707070707070707070707070707070707070707070707070707070707070707070707070707070707070707070707070707070707070707070707070707070707070707070707070707070707070707070707070707070707
310
07070707070707070707070707070707070707070707070707070707070707070707070707070707070707070707070707070707070707070707070707070707070707070707070707070707070707070707070707070707070707070707070707070707070707070707070707070707070707070707070707070707070707
310
07070707070707070707070707070707070707070707070707070707070707070707070707070707070707070707070707070707070707070707070707070707070707070707070707070707070707070707070707070707070707070707070707070707070707070707070707070707070707070707070707070707070707
310
07070707070707070707070707070707070707070707070707070707070707070707070707070707070707070707070707070707070707070707070707070707070707070707070707070707070707070707070707070707070707070707070707070707070707070707070707070707070707070707070707070707070707
310
07070707070707070707070707070707070707070707070707070707070707070707070707070707070707070707070707070707070707070707070707070707070707070707070707070707070707070707070707070707070707070707070707070707070707070707070707070707070707070707070707070707070707
310
07070707070707070707070707070707070707070707070707070707070707070707070707070707070707070707070707070707070707070707070707070707070707070707070707070707070707070707070707070707070707070707070707070707070707070707070707070707070707070707070707070707070707
310
07070707070707070707070707070707070707070707070707070707070707070707070707070707070707070707070707070707070707070707070707070707070707070707070707070707070707070707070707070707070707070707070707070707070707070707070707070707070707070707070707070707070707
310
07070707070707070707070707070707070707070707070707070707070707070707070707070707070707070707070707070707070707070707070707070707070707070707070707070707070707070707070707070707070707070707070707070707070707070707070707070707070707070707070707070707070707
310
07070707070707070707070707070707070707070707070707070707070707070707070707070707070707070707070707070707070707070707070707070707070707070707070707070707070707070707070707070707070707070707070707070707070707070707070707070707070707070707070707070707070707
310
07070707070707070707070707070707070707070707070707070707070707070707070707070707070707070707070707070707070707070707070707070707070707070707070707070707070707070707070707070707070707070707070707070707070707070707070707070707070707070707070707070707070707
310
07070707070707070707070707070707070707070707070707070707070707070707070707070707070707070707070707070707070707070707070707070707070707070707070707070707070707070707070707070707070707070707070707070707070707070707070707070707070707070707070707070707070707
310
07070707070707070707070707070707070707070707070707070707070707070707070707070707070707070707070707070707070707070707070707070707070707070707070707070707070707070707070707070707070707070707070707070707070707070707070707070707070707070707070707070707070707
310
07070707070707070707070707070707070707070707070707070707070707070707070707070707070707070707070707070707070707070707070707070707070707070707070707070707070707070707070707070707070707070707070707070707070707070707070707070707070707070707070707070707070707
310
07070707070707070707070707070707070707070707070707070707070707070707070707070707070707070707070707070707070707070707070707070707070707070707070707070707070707070707070707070707070707070707070707070707070707070707070707070707070707070707070707070707070707
310
07070707070707070707070707070707070707070707070707070707070707070707070707070707070707070707070707070707070707070707070707070707070707070707070707070707070707070707070707070707070707070707070707070707070707070707070707070707070707070707070707070707070707
310
07070707070707070707070707070707070707070707070707070707070707070707070707070707070707070707070707070707070707070707070707070707070707070707070707070707070707070707070707070707070707070707070707070707070707070707070707070707070707070707070707070707070707
310
07070707070707070707070707070707070707070707070707070707070707070707070707070707070707070707070707070707070707070707070707070707070707070707070707070707070707070707070707070707070707070707070707070707070707070707070707070707070707070707070707070707070707
310
07070707070707070707070707070707070707070707070707070707070707070707070707070707070707070707070707070707070707070707070707070707070707070707070707070707070707070707070707070707070707070707070707070707070707070707070707070707070707070707070707070707070707
310
07070707070707070707070707070707070707070707070707070707070707070707070707070707070707070707070707070707070707070707070707070707070707070707070707070707070707070707070707070707070707070707070707070707070707070707070707070707070707070707070707070707070707
310
07070707070707070707070707070707070707070707070707070707070707070707070707070707070707070707070707070707070707070707070707070707070707070707070707070707070707070707070707070707070707070707070707070707070707070707070707070707070707070707070707070707070707
310
07070707070707070707070707070707070707070707070707070707070707070707070707070707070707070707070707070707070707070707070707070707070707070707070707070707070707070707070707070707070707070707070707070707070707070707070707070707070707070707070707070707070707
310
07070707070707070707070707070707070707070707070707070707070707070707070707070707070707070707070707070707070707070707070707070707070707070707070707070707070707070707070707070707070707070707070707070707070707070707070707070707070707070707070707070707070707
310
07070707070707070707070707070707070707070707070707070707070707070707070707070707070707070707070707070707070707070707070707070707070707070707070707070707070707070707070707070707070707070707070707070707070707070707070707070707070707070707070707070707070707
310
07070707070707070707070707070707070707070707070707070707070707070707070707070707070707070707070707070707070707070707070707070707070707070707070707070707070707070707070707070707070707070707070707070707070707070707070707070707070707070707070707070707070707
310
07070707070707070707070707070707070707070707070707070707070707070707070707070707070707070707070707070707070707070707070707070707070707070707070707070707070707070707070707070707070707070707070707070707070707070707070707070707070707070707070707070707070707
310
07070707070707070707070707070707070707070707070707070707070707070707070707070707070707070707070707070707070707070707070707070707070707070707070707070707070707070707070707070707070707070707070707070707070707070707070707070707070707070707070707070707070707
310
07070707070707070707070707070707070707070707070707070707070707070707070707070707070707070707070707070707070707070707070707070707070707070707070707070707070707070707070707070707070707070707070707070707070707070707070707070707070707070707070707070707070707
310
07070707070707070707070707070707070707070707070707070707070707070707070707070707070707070707070707070707070707070707070707070707070707070707070707070707070707070707070707070707070707070707070707070707070707070707070707070707070707070707070707070707070707
310
07070707070707070707070707070707070707070707070707070707070707070707070707070707070707070707070707070707070707070707070707070707070707070707070707070707070707070707070707070707070707070707070707070707070707070707070707070707070707070707070707070707070707
310
07070707070707070707070707070707070707070707070707070707070707070707070707070707070707070707070707070707070707070707070707070707070707070707070707070707070707070707070707070707070707070707070707070707070707070707070707070707070707070707070707070707070707
310
07070707070707070707070707070707070707070707070707070707070707070707070707070707070707070707070707070707070707070707070707070707070707070707070707070707070707070707070707070707070707070707070707070707070707070707070707070707070707070707070707070707070707
310
07070707070707070707070707070707070707070707070707070707070707070707070707070707070707070707070707070707070707070707070707070707070707070707070707070707070707070707070707070707070707070707070707070707070707070707070707070707070707070707070707070707070707
310
07070707070707070707070707070707070707070707070707070707070707070707070707070707070707070707070707070707070707070707070707070707070707070707070707070707070707070707070707070707070707070707070707070707070707070707070707070707070707070707070707070707070707
310
07070707070707070707070707070707070707070707070707070707070707070707070707070707070707070707070707070707070707070707070707070707070707070707070707070707070707070707070707070707070707070707070707070707070707070707070707070707070707070707070707070707070707
310
07070707070707070707070707070707070707070707070707070707070707070707070707070707070707070707070707070707070707070707070707070707070707070707070707070707070707070707070707070707070707070707070707070707070707070707070707070707070707070707070707070707070707
310
07070707070707070707070707070707070707070707070707070707070707070707070707070707070707070707070707070707070707070707070707070707070707070707070707070707070707070707070707070707070707070707070707070707070707070707070707070707070707070707070707070707070707
310
07070707070707070707070707070707070707070707070707070707070707070707070707070707070707070707070707070707070707070707070707070707070707070707070707070707070707070707070707070707070707070707070707070707070707070707070707070707070707070707070707070707070707
310
07070707070707070707070707070707070707070707070707070707070707070707070707070707070707070707070707070707070707070707070707070707070707070707070707070707070707070707070707070707070707070707070707070707070707070707070707070707070707070707070707070707070707
310
07070707070707070707070707070707070707070707070707070707070707070707070707070707070707070707070707070707070707070707070707070707070707070707070707070707070707070707070707070707070707070707070707070707070707070707070707070707070707070707070707070707070707
310
07070707070707070707070707070707070707070707070707070707070707070707070707070707070707070707070707070707070707070707070707070707070707070707070707070707070707070707070707070707070707070707070707070707070707070707070707070707070707070707070707070707070707
310
07070707070707070707070707070707070707070707070707070707070707070707070707070707070707070707070707070707070707070707070707070707070707070707070707070707070707070707070707070707070707070707070707070707070707070707070707070707070707070707070707070707070707
310
07070707070707070707070707070707070707070707070707070707070707070707070707070707070707070707070707070707070707070707070707070707070707070707070707070707070707070707070707070707070707070707070707070707070707070707070707070707070707070707070707070707070707
310
07070707070707070707070707070707070707070707070707070707070707070707070707070707070707070707070707070707070707070707070707070707070707070707070707070707070707070707070707070707070707070707070707070707070707070707070707070707070707070707070707070707070707
310
07070707070707070707070707070707070707070707070707070707070707070707070707070707070707070707070707070707070707070707070707070707070707070707070707070707070707070707070707070707070707070707070707070707070707070707070707070707070707070707070707070707070707
310
07070707070707070707070707070707070707070707070707070707070707070707070707070707070707070707070707070707070707070707070707070707070707070707070707070707070707070707070707070707070707070707070707070707070707070707070707070707070707070707070707070707070707
310
07070707070707070707070707070707070707070707070707070707070707070707070707070707070707070707070707070707070707070707070707070707070707070707070707070707070707070707070707070707070707070707070707070707070707070707070707070707070707070707070707070707070707
310
07070707070707070707070707070707070707070707070707070707070707070707070707070707070707070707070707070707070707070707070707070707070707070707070707070707070707070707070707070707070707070707070707070707070707070707070707070707070707070707070707070707070707
310
07070707070707070707070707070707070707070707070707070707070707070707070707070707070707070707070707070707070707070707070707070707070707070707070707070707070707070707070707070707070707070707070707070707070707070707070707070707070707070707070707070707070707
310
07070707070707070707070707070707070707070707070707070707070707070707070707070707070707070707070707070707070707070707070707070707070707070707070707070707070707070707070707070707070707070707070707070707070707070707070707070707070707070707070707070707070707
310
07070707070707070707070707070707070707070707070707070707070707070707070707070707070707070707070707070707070707070707070707070707070707070707070707070707070707070707070707070707070707070707070707070707070707070707070707070707070707070707070707070707070707
310
07070707070707070707070707070707070707070707070707070707070707070707070707070707070707070707070707070707070707070707070707070707070707070707070707070707070707070707070707070707070707070707070707070707070707070707070707070707070707070707070707070707070707
310
07070707070707070707070707070707070707070707070707070707070707070707070707070707070707070707070707070707070707070707070707070707070707070707070707070707070707070707070707070707070707070707070707070707070707070707070707070707070707070707070707070707070707
310
07070707070707070707070707070707070707070707070707070707070707070707070707070707070707070707070707070707070707070707070707070707070707070707070707070707070707070707070707070707070707070707070707070707070707070707070707070707070707070707070707070707070707
310
07070707070707070707070707070707070707070707070707070707070707070707070707070707070707070707070707070707070707070707070707070707070707070707070707070707070707070707070707070707070707070707070707070707070707070707070707070707070707070707070707070707070707
310
07070707070707070707070707070707070707070707070707070707070707070707070707070707070707070707070707070707070707070707070707070707070707070707070707070707070707070707070707070707070707070707070707070707070707070707070707070707070707070707070707070707070707
310
07070707070707070707070707070707070707070707070707070707070707070707070707070707070707070707070707070707070707070707070707070707070707070707070707070707070707070707070707070707070707070707070707070707070707070707070707070707070707070707070707070707070707
310
0707070707070707070707070707070707070707070707070707070707070707070707070707070707070707070707070707070707070707070707070707070707070707
  0
ENDSEC
  0
EOF
