  0
SECTION
  2
HEADER
  9
$ACADVER
  1
AC1015
  9
$ACADMAINTVER
 70
     6
  9
$DWGCODEPAGE
  3
ANSI_1252
  9
$INSBASE
 10
0.0
 20
0.0
 30
0.0
  9
$EXTMIN
 10
-3740.333629
 20
1013.313488
 30
0.0
  9
$EXTMAX
 10
-3224.888747
 20
1508.695377
 30
0.0
  9
$LIMMIN
 10
-4912.417669
 20
-168.802048
  9
$LIMMAX
 10
-2052.804707
 20
2690.810913
  9
$ORTHOMODE
 70
     0
  9
$REGENMODE
 70
     1
  9
$FILLMODE
 70
     1
  9
$QTEXTMODE
 70
     0
  9
$MIRRTEXT
 70
     1
  9
$LTSCALE
 40
1.0
  9
$ATTMODE
 70
     1
  9
$TEXTSIZE
 40
0.24384
  9
$TRACEWID
 40
0.05
  9
$TEXTSTYLE
  7
Standard
  9
$CLAYER
  8
Feature Numbers
  9
$CELTYPE
  6
ByLayer
  9
$CECOLOR
 62
   250
  9
$CELTSCALE
 40
1.0
  9
$DISPSILH
 70
     0
  9
$DIMSCALE
 40
1.0
  9
$DIMASZ
 40
0.24384
  9
$DIMEXO
 40
0.12192
  9
$DIMDLI
 40
0.0
  9
$DIMRND
 40
0.0
  9
$DIMDLE
 40
0.0
  9
$DIMEXE
 40
0.12192
  9
$DIMTP
 40
0.0
  9
$DIMTM
 40
0.0
  9
$DIMTXT
 40
0.24384
  9
$DIMCEN
 40
0.09
  9
$DIMTSZ
 40
0.0
  9
$DIMTOL
 70
     0
  9
$DIMLIM
 70
     0
  9
$DIMTIH
 70
     0
  9
$DIMTOH
 70
     0
  9
$DIMSE1
 70
     0
  9
$DIMSE2
 70
     0
  9
$DIMTAD
 70
     1
  9
$DIMZIN
 70
    11
  9
$DIMBLK
  1
TerminatorOpen_0.5
  9
$DIMASO
 70
     1
  9
$DIMSHO
 70
     1
  9
$DIMPOST
  1

  9
$DIMAPOST
  1

  9
$DIMALT
 70
     0
  9
$DIMALTD
 70
     4
  9
$DIMALTF
 40
1.0
  9
$DIMLFAC
 40
3.28084
  9
$DIMTOFL
 70
     0
  9
$DIMTVP
 40
0.0
  9
$DIMTIX
 70
     0
  9
$DIMSOXD
 70
     0
  9
$DIMSAH
 70
     0
  9
$DIMBLK1
  1

  9
$DIMBLK2
  1

  9
$DIMSTYLE
  2
Standard
  9
$DIMCLRD
 70
     0
  9
$DIMCLRE
 70
     0
  9
$DIMCLRT
 70
     0
  9
$DIMTFAC
 40
1.0
  9
$DIMGAP
 40
0.12192
  9
$DIMJUST
 70
     0
  9
$DIMSD1
 70
     0
  9
$DIMSD2
 70
     0
  9
$DIMTOLJ
 70
     0
  9
$DIMTZIN
 70
    11
  9
$DIMALTZ
 70
    15
  9
$DIMALTTZ
 70
    15
  9
$DIMUPT
 70
     0
  9
$DIMDEC
 70
     4
  9
$DIMTDEC
 70
     4
  9
$DIMALTU
 70
     2
  9
$DIMALTTD
 70
     4
  9
$DIMTXSTY
  7
Style-Garamond
  9
$DIMAUNIT
 70
     0
  9
$DIMADEC
 70
     4
  9
$DIMALTRND
 40
0.0
  9
$DIMAZIN
 70
     3
  9
$DIMDSEP
 70
    46
  9
$DIMATFIT
 70
     3
  9
$DIMFRAC
 70
     2
  9
$DIMLDRBLK
  1
TerminatorOpen_0.5
  9
$DIMLUNIT
 70
     2
  9
$DIMLWD
 70
    -2
  9
$DIMLWE
 70
    -2
  9
$DIMTMOVE
 70
     0
  9
$LUNITS
 70
     3
  9
$LUPREC
 70
     4
  9
$SKETCHINC
 40
0.1
  9
$FILLETRAD
 40
0.5
  9
$AUNITS
 70
     0
  9
$AUPREC
 70
     4
  9
$MENU
  1
.
  9
$ELEVATION
 40
0.0
  9
$PELEVATION
 40
0.0
  9
$THICKNESS
 40
0.0
  9
$LIMCHECK
 70
     0
  9
$CHAMFERA
 40
0.5
  9
$CHAMFERB
 40
0.5
  9
$CHAMFERC
 40
1.0
  9
$CHAMFERD
 40
0.0
  9
$SKPOLY
 70
     0
  9
$TDCREATE
 40
2451789.537468704
  9
$TDUCREATE
 40
2451789.745802037
  9
$TDUPDATE
 40
2451789.537561297
  9
$TDUUPDATE
 40
2451789.74589463
  9
$TDINDWG
 40
0.0000927662
  9
$TDUSRTIMER
 40
0.0000925926
  9
$USRTIMER
 70
     1
  9
$ANGBASE
 50
0.0
  9
$ANGDIR
 70
     0
  9
$PDMODE
 70
     0
  9
$PDSIZE
 40
0.0
  9
$PLINEWID
 40
0.0
  9
$SPLFRAME
 70
     0
  9
$SPLINETYPE
 70
     6
  9
$SPLINESEGS
 70
     8
  9
$HANDSEED
  5
682
  9
$SURFTAB1
 70
     6
  9
$SURFTAB2
 70
     6
  9
$SURFTYPE
 70
     6
  9
$SURFU
 70
     6
  9
$SURFV
 70
     6
  9
$UCSBASE
  2

  9
$UCSNAME
  2

  9
$UCSORG
 10
0.0
 20
0.0
 30
0.0
  9
$UCSXDIR
 10
1.0
 20
0.0
 30
0.0
  9
$UCSYDIR
 10
0.0
 20
1.0
 30
0.0
  9
$UCSORTHOREF
  2

  9
$UCSORTHOVIEW
 70
     0
  9
$UCSORGTOP
 10
0.0
 20
0.0
 30
0.0
  9
$UCSORGBOTTOM
 10
0.0
 20
0.0
 30
0.0
  9
$UCSORGLEFT
 10
0.0
 20
0.0
 30
0.0
  9
$UCSORGRIGHT
 10
0.0
 20
0.0
 30
0.0
  9
$UCSORGFRONT
 10
0.0
 20
0.0
 30
0.0
  9
$UCSORGBACK
 10
0.0
 20
0.0
 30
0.0
  9
$PUCSBASE
  2

  9
$PUCSNAME
  2

  9
$PUCSORG
 10
0.0
 20
0.0
 30
0.0
  9
$PUCSXDIR
 10
1.0
 20
0.0
 30
0.0
  9
$PUCSYDIR
 10
0.0
 20
1.0
 30
0.0
  9
$PUCSORTHOREF
  2

  9
$PUCSORTHOVIEW
 70
     0
  9
$PUCSORGTOP
 10
0.0
 20
0.0
 30
0.0
  9
$PUCSORGBOTTOM
 10
0.0
 20
0.0
 30
0.0
  9
$PUCSORGLEFT
 10
0.0
 20
0.0
 30
0.0
  9
$PUCSORGRIGHT
 10
0.0
 20
0.0
 30
0.0
  9
$PUCSORGFRONT
 10
0.0
 20
0.0
 30
0.0
  9
$PUCSORGBACK
 10
0.0
 20
0.0
 30
0.0
  9
$USERI1
 70
     0
  9
$USERI2
 70
     0
  9
$USERI3
 70
     0
  9
$USERI4
 70
     0
  9
$USERI5
 70
     0
  9
$USERR1
 40
0.0
  9
$USERR2
 40
0.0
  9
$USERR3
 40
0.0
  9
$USERR4
 40
0.0
  9
$USERR5
 40
0.0
  9
$WORLDVIEW
 70
     1
  9
$SHADEDGE
 70
     3
  9
$SHADEDIF
 70
    70
  9
$TILEMODE
 70
     1
  9
$MAXACTVP
 70
    64
  9
$PINSBASE
 10
0.0
 20
0.0
 30
0.0
  9
$PLIMCHECK
 70
     0
  9
$PEXTMIN
 10
1.000000E+20
 20
1.000000E+20
 30
1.000000E+20
  9
$PEXTMAX
 10
-1.000000E+20
 20
-1.000000E+20
 30
-1.000000E+20
  9
$PLIMMIN
 10
0.0
 20
0.0
  9
$PLIMMAX
 10
12.0
 20
9.0
  9
$UNITMODE
 70
     0
  9
$VISRETAIN
 70
     1
  9
$PLINEGEN
 70
     0
  9
$PSLTSCALE
 70
     0
  9
$TREEDEPTH
 70
  3020
  9
$CMLSTYLE
  2
Standard
  9
$CMLJUST
 70
     0
  9
$CMLSCALE
 40
1.0
  9
$PROXYGRAPHICS
 70
     1
  9
$MEASUREMENT
 70
     0
  9
$CELWEIGHT
370
    13
  9
$ENDCAPS
280
     0
  9
$JOINSTYLE
280
     0
  9
$LWDISPLAY
290
     1
  9
$INSUNITS
 70
     0
  9
$HYPERLINKBASE
  1

  9
$STYLESHEET
  1

  9
$XEDIT
290
     1
  9
$CEPSNTYPE
380
     0
  9
$PSTYLEMODE
290
     1
  9
$FINGERPRINTGUID
  2
{FDEAD576-A652-11D2-9A35-0060089B3A3F}
  9
$VERSIONGUID
  2
{A257D680-BC79-11D2-9A46-0060089B3A3F}
  9
$EXTNAMES
290
     1
  9
$PSVPSCALE
 40
0.0
  9
$OLESTARTUP
290
     0
  0
ENDSEC
  0
SECTION
  2
CLASSES
  0
CLASS
  1
ACDBDICTIONARYWDFLT
  2
AcDbDictionaryWithDefault
  3
ObjectDBX Classes
 90
        0
280
     0
281
     0
  0
CLASS
  1
IMAGE
  2
AcDbRasterImage
  3
ISM
 90
      127
280
     0
281
     1
  0
CLASS
  1
IMAGEDEF
  2
AcDbRasterImageDef
  3
ISM
 90
        0
280
     0
281
     0
  0
CLASS
  1
IMAGEDEF_REACTOR
  2
AcDbRasterImageDefReactor
  3
ISM
 90
        1
280
     0
281
     0
  0
CLASS
  1
ACDBPLACEHOLDER
  2
AcDbPlaceHolder
  3
ObjectDBX Classes
 90
        0
280
     0
281
     0
  0
CLASS
  1
LAYOUT
  2
AcDbLayout
  3
ObjectDBX Classes
 90
        0
280
     0
281
     0
  0
ENDSEC
  0
SECTION
  2
TABLES
  0
TABLE
  2
VPORT
  5
32A
330
0
100
AcDbSymbolTable
 70
     1
  0
VPORT
  5
4B
330
32A
100
AcDbSymbolTableRecord
100
AcDbViewportTableRecord
  2
*ACTIVE
 70
     0
 10
0.0
 20
0.0
 11
1.0
 21
1.0
 12
-3499.844899
 22
1197.725135
 13
0.0
 23
0.0
 14
3.937008
 24
3.937008
 15
3.937008
 25
3.937008
 16
0.0
 26
0.0
 36
1.0
 17
0.0
 27
0.0
 37
0.0
 40
153.400129
 41
1.520997
 42
50.0
 43
0.0
 44
0.0
 50
0.0
 51
0.0
 71
     0
 72
   100
 73
     1
 74
     2
 75
     0
 76
     0
 77
     0
 78
     1
281
     0
 65
     1
110
0.0
120
0.0
130
0.0
111
1.0
121
0.0
131
0.0
112
0.0
122
1.0
132
0.0
 79
     0
146
0.0
  0
ENDTAB
  0
TABLE
  2
LTYPE
  5
326
330
0
100
AcDbSymbolTable
 70
     4
  0
LTYPE
  5
327
330
326
100
AcDbSymbolTableRecord
100
AcDbLinetypeTableRecord
  2
ByBlock
 70
     0
  3

 72
    65
 73
     0
 40
0.0
  0
LTYPE
  5
318
330
326
100
AcDbSymbolTableRecord
100
AcDbLinetypeTableRecord
  2
ByLayer
 70
     0
  3

 72
    65
 73
     0
 40
0.0
  0
LTYPE
  5
316
330
326
100
AcDbSymbolTableRecord
100
AcDbLinetypeTableRecord
  2
Continuous
 70
     0
  3
Solid line
 72
    65
 73
     0
 40
0.0
  0
LTYPE
  5
335
330
326
100
AcDbSymbolTableRecord
100
AcDbLinetypeTableRecord
  2
DGN Style 4
 70
     0
  3
Dgn Style 4
 72
    65
 73
     4
 40
3.742963
 49
1.871482
 74
     0
 49
-0.935741
 74
     0
 49
0.0
 74
     0
 49
-0.935741
 74
     0
  0
LTYPE
  5
336
330
326
100
AcDbSymbolTableRecord
100
AcDbLinetypeTableRecord
  2
DGN Style 2
 70
     0
  3
Dgn Style 2
 72
    65
 73
     2
 40
2.339352
 49
1.403611
 74
     0
 49
-0.935741
 74
     0
  0
LTYPE
  5
3A9
330
326
100
AcDbSymbolTableRecord
100
AcDbLinetypeTableRecord
  2
DGN Style 6
 70
     0
  3
Dgn Style 6
 72
    65
 73
     6
 40
4.444769
 49
0.0
 74
     0
 49
-0.935741
 74
     0
 49
1.637546
 74
     0
 49
-0.935741
 74
     0
 49
0.0
 74
     0
 49
-0.935741
 74
     0
  0
ENDTAB
  0
TABLE
  2
LAYER
  5
324
330
0
100
AcDbSymbolTable
 70
    13
  0
LAYER
  5
314
330
324
100
AcDbSymbolTableRecord
100
AcDbLayerTableRecord
  2
0
 70
     0
 62
     7
  6
Continuous
370
    -3
390
315
  0
LAYER
  5
8E
330
324
100
AcDbSymbolTableRecord
100
AcDbLayerTableRecord
  2
Limits of Excavation
 70
     0
 62
   178
  6
DGN Style 4
370
     0
390
315
  0
LAYER
  5
B3
330
324
100
AcDbSymbolTableRecord
100
AcDbLayerTableRecord
  2
Quadrat Outlines
 70
     0
 62
   178
  6
DGN Style 4
370
     0
390
315
  0
LAYER
  5
BF
330
324
100
AcDbSymbolTableRecord
100
AcDbLayerTableRecord
  2
Building Outline
 70
     0
 62
    92
  6
DGN Style 2
370
    53
390
315
  0
LAYER
  5
D5
330
324
100
AcDbSymbolTableRecord
100
AcDbLayerTableRecord
  2
Key
 70
     0
 62
     7
  6
Continuous
370
     0
390
315
  0
LAYER
  5
D9
330
324
100
AcDbSymbolTableRecord
100
AcDbLayerTableRecord
  2
Base Map 2
 70
     0
 62
     1
  6
Continuous
370
     0
390
315
  0
LAYER
  5
E4
330
324
100
AcDbSymbolTableRecord
100
AcDbLayerTableRecord
  2
Scale
 70
     0
 62
   250
  6
Continuous
370
     0
390
315
  0
LAYER
  5
F9
330
324
100
AcDbSymbolTableRecord
100
AcDbLayerTableRecord
  2
Scale_Legend_Arrow
 70
     0
 62
     7
  6
Continuous
370
     0
390
315
  0
LAYER
  5
111
330
324
100
AcDbSymbolTableRecord
100
AcDbLayerTableRecord
  2
Stone
 70
     0
 62
   250
  6
Continuous
370
    13
390
315
  0
LAYER
  5
276
330
324
100
AcDbSymbolTableRecord
100
AcDbLayerTableRecord
  2
Platform--conjectural
 70
     0
 62
    46
  6
DGN Style 2
370
    13
390
315
  0
LAYER
  5
29F
330
324
100
AcDbSymbolTableRecord
100
AcDbLayerTableRecord
  2
Quadrat IDs
 70
     0
 62
   250
  6
Continuous
370
    13
390
315
  0
LAYER
  5
2DC
330
324
100
AcDbSymbolTableRecord
100
AcDbLayerTableRecord
  2
Bedrock
 70
     0
 62
   250
  6
Continuous
370
     0
390
315
  0
LAYER
  5
301
330
324
100
AcDbSymbolTableRecord
100
AcDbLayerTableRecord
  2
Feature Numbers
 70
     0
 62
   250
  6
Continuous
370
     0
390
315
  0
ENDTAB
  0
TABLE
  2
STYLE
  5
325
330
0
100
AcDbSymbolTable
 70
     3
  0
STYLE
  5
317
330
325
100
AcDbSymbolTableRecord
100
AcDbTextStyleTableRecord
  2
Standard
 70
     0
 40
0.0
 41
1.0
 50
0.0
 71
     0
 42
0.24384
  3
txt
  4

  0
STYLE
  5
DB
330
325
100
AcDbSymbolTableRecord
100
AcDbTextStyleTableRecord
  2
STD
 70
     0
 40
0.0
 41
1.0
 50
0.0
 71
     0
 42
0.2
  3
txt.shx
  4

  0
STYLE
  5
33B
330
325
100
AcDbSymbolTableRecord
100
AcDbTextStyleTableRecord
  2
Style-Garamond
 70
     0
 40
0.0
 41
1.0
 50
0.0
 71
     0
 42
0.2
  3

  4

1001
ACAD
1000
Garamond
1071
       23
  0
ENDTAB
  0
TABLE
  2
VIEW
  5
328
330
0
100
AcDbSymbolTable
 70
     0
  0
ENDTAB
  0
TABLE
  2
UCS
  5
329
330
0
100
AcDbSymbolTable
 70
     0
  0
ENDTAB
  0
TABLE
  2
APPID
  5
32B
330
0
100
AcDbSymbolTable
 70
     1
  0
APPID
  5
333
330
32B
100
AcDbSymbolTableRecord
100
AcDbRegAppTableRecord
  2
ACAD
 70
     0
  0
ENDTAB
  0
TABLE
  2
DIMSTYLE
  5
32C
330
0
100
AcDbSymbolTable
 70
     1
100
AcDbDimStyleTable
  0
DIMSTYLE
105
319
330
32C
100
AcDbSymbolTableRecord
100
AcDbDimStyleTableRecord
  2
Standard
 70
     0
 42
0.0625
340
317
  0
ENDTAB
  0
TABLE
  2
BLOCK_RECORD
  5
31B
330
0
100
AcDbSymbolTable
 70
     2
  0
BLOCK_RECORD
  5
31C
330
31B
100
AcDbSymbolTableRecord
100
AcDbBlockTableRecord
  2
*Model_Space
340
31F
  0
BLOCK_RECORD
  5
320
330
31B
100
AcDbSymbolTableRecord
100
AcDbBlockTableRecord
  2
*Paper_Space
340
323
  0
BLOCK_RECORD
  5
DC
330
31B
100
AcDbSymbolTableRecord
100
AcDbBlockTableRecord
  2
AI9-BLK61
340
0
102
{BLKREFS
331
DF
102
}
  0
BLOCK_RECORD
  5
33C
330
31B
100
AcDbSymbolTableRecord
100
AcDbBlockTableRecord
  2
TerminatorOpen_0.5
340
0
  0
ENDTAB
  0
ENDSEC
  0
SECTION
  2
BLOCKS
  0
BLOCK
  5
31D
330
31C
100
AcDbEntity
  8
0
100
AcDbBlockBegin
  2
*Model_Space
 70
     0
 71
     0
 10
0.0
 20
0.0
 30
0.0
  3
*Model_Space
  1

  0
ENDBLK
  5
31E
330
31C
100
AcDbEntity
  8
0
100
AcDbBlockEnd
  0
BLOCK
  5
321
330
320
100
AcDbEntity
 67
     1
  8
0
100
AcDbBlockBegin
  2
*Paper_Space
 70
     0
 71
     0
 10
0.0
 20
0.0
 30
0.0
  3
*Paper_Space
  1

  0
ENDBLK
  5
322
330
320
100
AcDbEntity
 67
     1
  8
0
100
AcDbBlockEnd
  0
BLOCK
  5
339
330
DC
100
AcDbEntity
  8
0
100
AcDbBlockBegin
  2
AI9-BLK61
 70
     0
 71
     0
 10
0.0
 20
0.0
 30
0.0
  3
AI9-BLK61
  1

  0
MTEXT
  5
DD
330
DC
100
AcDbEntity
  8
0
 62
     0
100
AcDbMText
 10
-8.572092
 20
31.10448
 30
0.0
 40
51.026772
 41
0.0
 71
     1
 72
     1
  1
\fTimes New Roman PS|b0|i0|c0|p39; 
  7
STD
 73
     1
 44
1.0
  0
ENDBLK
  5
33A
330
DC
100
AcDbEntity
  8
0
100
AcDbBlockEnd
  0
BLOCK
  5
340
330
33C
100
AcDbEntity
  8
0
100
AcDbBlockBegin
  2
TerminatorOpen_0.5
 70
     0
 71
     0
 10
0.0
 20
0.0
 30
0.0
  3
TerminatorOpen_0.5
  1

  0
LINE
  5
33D
330
33C
100
AcDbEntity
  8
0
  6
ByBlock
 62
     0
370
    -2
100
AcDbLine
 10
0.0
 20
0.0
 30
0.0
 11
-1.0
 21
0.0
 31
0.0
  0
LINE
  5
33E
330
33C
100
AcDbEntity
  8
0
  6
ByBlock
 62
     0
370
    -2
100
AcDbLine
 10
0.0
 20
0.0
 30
0.0
 11
-1.0
 21
0.25
 31
0.0
  0
LINE
  5
33F
330
33C
100
AcDbEntity
  8
0
  6
ByBlock
 62
     0
370
    -2
100
AcDbLine
 10
0.0
 20
0.0
 30
0.0
 11
-1.0
 21
-0.25
 31
0.0
  0
ENDBLK
  5
341
330
33C
100
AcDbEntity
  8
0
100
AcDbBlockEnd
  0
ENDSEC
  0
SECTION
  2
ENTITIES
  0
IMAGE
  5
70
330
31C
100
AcDbEntity
  8
0
 62
     7
 92
        8
310
0000000000000000
100
AcDbRasterImage
 90
        0
 10
1126.93143
 20
-4430.331926
 30
0.0
 11
0.2910750514257473
 21
0.06988661974939289
 31
0.0
 12
-0.06988661974953969
 22
0.2910750514258959
 32
0.0
 13
3307.0
 23
2338.0
340
344
 70
     6
280
     0
281
    50
282
    50
283
     0
360
345
 71
     1
 91
        2
 14
-0.5
 24
-0.5
 14
3306.5
 24
2337.5
  0
IMAGE
  5
108
330
31C
100
AcDbEntity
  8
0
 62
     5
 92
        8
310
0000000000000000
100
AcDbRasterImage
 90
        0
 10
-3730.058413
 20
1071.08191
 30
0.0
 11
0.06010081884753469
 21
-7.528216308557838E-5
 31
0.0
 12
7.528216308557840E-5
 22
0.06010081884753471
 32
0.0
 13
8800.0
 23
6728.0
340
346
 70
    14
280
     0
281
    50
282
    50
283
     0
360
347
 71
     1
 91
        2
 14
-0.5
 24
-0.5
 14
8799.5
 24
6727.5
  0
IMAGE
  5
14F
330
31C
100
AcDbEntity
  8
0
 62
     5
 92
        8
310
0000000000000000
100
AcDbRasterImage
 90
        0
 10
-3712.350232
 20
1063.832332
 30
0.0
 11
0.06235584729804451
 21
0.0
 31
0.0
 12
0.0
 22
0.06235584729804451
 32
0.0
 13
8800.0
 23
6726.0
340
348
 70
    14
280
     0
281
    50
282
    50
283
     0
360
349
 71
     1
 91
        2
 14
-0.5
 24
-0.5
 14
8799.5
 24
6725.5
  0
IMAGE
  5
158
330
31C
100
AcDbEntity
  8
0
 62
     7
 92
        8
310
0000000000000000
100
AcDbRasterImage
 90
        0
 10
-3362.861697
 20
1202.636905
 30
0.0
 11
0.001218129963700088
 21
0.1600803805729842
 31
0.0
 12
-0.1600803805731027
 22
0.00121812996370099
 32
0.0
 13
1275.0
 23
1753.0
340
34A
 70
     6
280
     0
281
    50
282
    50
283
     0
360
34B
 71
     1
 91
        2
 14
-0.5
 24
-0.5
 14
1274.5
 24
1752.5
  0
IMAGE
  5
20B
330
31C
100
AcDbEntity
  8
0
 62
     7
 92
        8
310
0000000000000000
100
AcDbRasterImage
 90
        0
 10
-3997.660401
 20
-399.24163
 30
0.0
 11
1.0
 21
0.0
 31
0.0
 12
0.0
 22
1.0
 32
0.0
 13
1275.0
 23
1753.0
340
34C
 70
     6
280
     0
281
    50
282
    50
283
     0
360
34D
 71
     1
 91
        2
 14
-0.5
 24
-0.5
 14
1274.5
 24
1752.5
  0
IMAGE
  5
214
330
31C
100
AcDbEntity
  8
0
 62
     7
 92
        8
310
0000000000000000
100
AcDbRasterImage
 90
        0
 10
-3623.47451
 20
1281.67553
 30
0.0
 11
0.0004698147470342573
 21
-0.1608675845531145
 31
0.0
 12
0.1608675845531145
 22
0.0004698147470342572
 32
0.0
 13
1275.0
 23
1753.0
340
34E
 70
     6
280
     0
281
    50
282
    50
283
     0
360
34F
 71
     1
 91
        2
 14
-0.5
 24
-0.5
 14
1274.5
 24
1752.5
  0
LINE
  5
A1
330
31C
100
AcDbEntity
  8
Limits of Excavation
100
AcDbLine
 10
-3719.998156
 20
1499.985386
 30
0.0
 11
-3239.998156
 21
1499.985386
 31
0.0
  0
LINE
  5
A2
330
31C
100
AcDbEntity
  8
Limits of Excavation
100
AcDbLine
 10
-3719.998156
 20
1499.985386
 30
0.0
 11
-3719.998156
 21
1019.985386
 31
0.0
  0
LINE
  5
A3
330
31C
100
AcDbEntity
  8
Limits of Excavation
100
AcDbLine
 10
-3719.998156
 20
1439.985386
 30
0.0
 11
-3239.998156
 21
1439.985386
 31
0.0
  0
LINE
  5
A4
330
31C
100
AcDbEntity
  8
Limits of Excavation
100
AcDbLine
 10
-3719.998156
 20
1379.985386
 30
0.0
 11
-3239.998156
 21
1379.985386
 31
0.0
  0
LINE
  5
A5
330
31C
100
AcDbEntity
  8
Limits of Excavation
100
AcDbLine
 10
-3719.998156
 20
1319.985386
 30
0.0
 11
-3239.998156
 21
1319.985386
 31
0.0
  0
LINE
  5
A6
330
31C
100
AcDbEntity
  8
Limits of Excavation
100
AcDbLine
 10
-3719.998156
 20
1259.985386
 30
0.0
 11
-3239.998156
 21
1259.985386
 31
0.0
  0
LINE
  5
A7
330
31C
100
AcDbEntity
  8
Limits of Excavation
100
AcDbLine
 10
-3719.998156
 20
1199.985386
 30
0.0
 11
-3239.998156
 21
1199.985386
 31
0.0
  0
LINE
  5
A8
330
31C
100
AcDbEntity
  8
Limits of Excavation
100
AcDbLine
 10
-3719.998156
 20
1139.985386
 30
0.0
 11
-3239.998156
 21
1139.985386
 31
0.0
  0
LINE
  5
A9
330
31C
100
AcDbEntity
  8
Limits of Excavation
100
AcDbLine
 10
-3719.998156
 20
1079.985386
 30
0.0
 11
-3239.998156
 21
1079.985386
 31
0.0
  0
LINE
  5
AA
330
31C
100
AcDbEntity
  8
Limits of Excavation
100
AcDbLine
 10
-3719.998156
 20
1019.985386
 30
0.0
 11
-3239.998156
 21
1019.985386
 31
0.0
  0
LINE
  5
AB
330
31C
100
AcDbEntity
  8
Limits of Excavation
100
AcDbLine
 10
-3659.998156
 20
1499.985386
 30
0.0
 11
-3659.998156
 21
1019.985386
 31
0.0
  0
LINE
  5
AC
330
31C
100
AcDbEntity
  8
Limits of Excavation
100
AcDbLine
 10
-3599.998156
 20
1499.985386
 30
0.0
 11
-3599.998156
 21
1019.985386
 31
0.0
  0
LINE
  5
AD
330
31C
100
AcDbEntity
  8
Limits of Excavation
100
AcDbLine
 10
-3539.998156
 20
1499.985386
 30
0.0
 11
-3539.998156
 21
1019.985386
 31
0.0
  0
LINE
  5
AE
330
31C
100
AcDbEntity
  8
Limits of Excavation
100
AcDbLine
 10
-3479.998156
 20
1499.985386
 30
0.0
 11
-3479.998156
 21
1019.985386
 31
0.0
  0
LINE
  5
AF
330
31C
100
AcDbEntity
  8
Limits of Excavation
100
AcDbLine
 10
-3419.998156
 20
1499.985386
 30
0.0
 11
-3419.998156
 21
1019.985386
 31
0.0
  0
LINE
  5
B0
330
31C
100
AcDbEntity
  8
Limits of Excavation
100
AcDbLine
 10
-3359.998156
 20
1499.985386
 30
0.0
 11
-3359.998156
 21
1019.985386
 31
0.0
  0
LINE
  5
B1
330
31C
100
AcDbEntity
  8
Limits of Excavation
100
AcDbLine
 10
-3299.998156
 20
1499.985386
 30
0.0
 11
-3299.998156
 21
1019.985386
 31
0.0
  0
LINE
  5
B2
330
31C
100
AcDbEntity
  8
Limits of Excavation
100
AcDbLine
 10
-3239.998156
 20
1499.985386
 30
0.0
 11
-3239.998156
 21
1019.985386
 31
0.0
  0
LWPOLYLINE
  5
B4
330
31C
100
AcDbEntity
  8
Quadrat Outlines
100
AcDbPolyline
 90
        4
 70
   129
 43
0.0
 10
-3599.992231
 20
1440.023229
 10
-3539.992231
 20
1440.023229
 10
-3539.992231
 20
1380.023229
 10
-3599.992231
 20
1380.023229
  0
LWPOLYLINE
  5
B5
330
31C
100
AcDbEntity
  8
Quadrat Outlines
100
AcDbPolyline
 90
        4
 70
   128
 43
0.0
 10
-3599.992231
 20
1380.023229
 10
-3599.992231
 20
1320.023229
 10
-3539.992231
 20
1320.023229
 10
-3539.992231
 20
1380.023229
  0
LWPOLYLINE
  5
B7
330
31C
100
AcDbEntity
  8
Quadrat Outlines
100
AcDbPolyline
 90
        3
 70
   128
 43
0.0
 10
-3479.998156
 20
1319.985386
 10
-3539.998156
 20
1320.023229
 10
-3539.992231
 20
1320.023229
  0
LWPOLYLINE
  5
BA
330
31C
100
AcDbEntity
  8
Quadrat Outlines
100
AcDbPolyline
 90
        4
 70
   129
 43
0.0
 10
-3479.998156
 20
1199.985386
 10
-3539.998156
 20
1199.985386
 10
-3539.998156
 20
1139.985386
 10
-3479.998156
 20
1139.985386
  0
LWPOLYLINE
  5
BE
330
31C
100
AcDbEntity
  8
Quadrat Outlines
100
AcDbPolyline
 90
        4
 70
   129
 43
0.0
 10
-3539.998156
 20
1139.985386
 10
-3539.998156
 20
1079.985386
 10
-3599.998156
 20
1079.985386
 10
-3600.201452
 20
1139.932211
  0
LWPOLYLINE
  5
C0
330
31C
100
AcDbEntity
  8
Building Outline
370
    13
100
AcDbPolyline
 90
        4
 70
   129
 43
0.0
 10
-3588.924863
 20
1425.058664
 10
-3397.810321
 20
1410.482131
 10
-3435.06146
 20
1073.60226
 10
-3595.474219
 20
1091.340209
  0
TEXT
  5
C1
330
31C
100
AcDbEntity
  8
Limits of Excavation
  6
Continuous
 62
     7
370
     0
100
AcDbText
 10
-3725.936849
 20
1504.191691
 30
0.0
 40
3.0
  1
W310
  7
Style-Garamond
 11
-3725.936849
 21
1507.191691
 31
0.0
100
AcDbText
 73
     3
  0
TEXT
  5
C2
330
31C
100
AcDbEntity
  8
Limits of Excavation
  6
Continuous
 62
     7
370
     0
100
AcDbText
 10
-3665.924723
 20
1504.191691
 30
0.0
 40
3.0
  1
W305
  7
Style-Garamond
 11
-3665.924723
 21
1507.191691
 31
0.0
100
AcDbText
 73
     3
  0
TEXT
  5
C3
330
31C
100
AcDbEntity
  8
Limits of Excavation
  6
Continuous
 62
     7
370
     0
100
AcDbText
 10
-3605.924723
 20
1504.191691
 30
0.0
 40
3.0
  1
W300
  7
Style-Garamond
 11
-3605.924723
 21
1507.191691
 31
0.0
100
AcDbText
 73
     3
  0
TEXT
  5
C4
330
31C
100
AcDbEntity
  8
Limits of Excavation
  6
Continuous
 62
     7
370
     0
100
AcDbText
 10
-3545.924723
 20
1504.191691
 30
0.0
 40
3.0
  1
W295
  7
Style-Garamond
 11
-3545.924723
 21
1507.191691
 31
0.0
100
AcDbText
 73
     3
  0
TEXT
  5
C5
330
31C
100
AcDbEntity
  8
Limits of Excavation
  6
Continuous
 62
     7
370
     0
100
AcDbText
 10
-3485.924723
 20
1504.191691
 30
0.0
 40
3.0
  1
W290
  7
Style-Garamond
 11
-3485.924723
 21
1507.191691
 31
0.0
100
AcDbText
 73
     3
  0
TEXT
  5
C6
330
31C
100
AcDbEntity
  8
Limits of Excavation
  6
Continuous
 62
     7
370
     0
100
AcDbText
 10
-3425.924723
 20
1504.191691
 30
0.0
 40
3.0
  1
W285
  7
Style-Garamond
 11
-3425.924723
 21
1507.191691
 31
0.0
100
AcDbText
 73
     3
  0
TEXT
  5
C7
330
31C
100
AcDbEntity
  8
Limits of Excavation
  6
Continuous
 62
     7
370
     0
100
AcDbText
 10
-3365.924723
 20
1504.191691
 30
0.0
 40
3.0
  1
W280
  7
Style-Garamond
 11
-3365.924723
 21
1507.191691
 31
0.0
100
AcDbText
 73
     3
  0
TEXT
  5
C8
330
31C
100
AcDbEntity
  8
Limits of Excavation
  6
Continuous
 62
     7
370
     0
100
AcDbText
 10
-3305.924723
 20
1504.191691
 30
0.0
 40
3.0
  1
W275
  7
Style-Garamond
 11
-3305.924723
 21
1507.191691
 31
0.0
100
AcDbText
 73
     3
  0
TEXT
  5
C9
330
31C
100
AcDbEntity
  8
Limits of Excavation
  6
Continuous
 62
     7
370
     0
100
AcDbText
 10
-3245.924723
 20
1504.191691
 30
0.0
 40
3.0
  1
W270
  7
Style-Garamond
 11
-3245.924723
 21
1507.191691
 31
0.0
100
AcDbText
 73
     3
  0
LWPOLYLINE
  5
E9
330
31C
100
AcDbEntity
  8
Scale
 62
   250
370
    13
100
AcDbPolyline
 90
        5
 70
   128
 43
0.0
 10
-3679.168061
 20
1085.39733
 10
-3739.168061
 20
1085.39733
 10
-3739.168061
 20
1091.39733
 10
-3679.168061
 20
1091.39733
 10
-3679.168061
 20
1085.39733
  0
LWPOLYLINE
  5
ED
330
31C
100
AcDbEntity
  8
Scale
 62
   250
370
    13
100
AcDbPolyline
 90
        5
 70
   128
 43
0.0
 10
-3679.168061
 20
1079.39733
 10
-3739.168061
 20
1079.39733
 10
-3739.168061
 20
1085.39733
 10
-3679.168061
 20
1085.39733
 10
-3679.168061
 20
1079.39733
  0
LWPOLYLINE
  5
F1
330
31C
100
AcDbEntity
  8
Scale
 62
   250
370
    13
100
AcDbPolyline
 90
        5
 70
   128
 43
0.0
 10
-3619.033846
 20
1085.39733
 10
-3679.033846
 20
1085.39733
 10
-3679.033846
 20
1091.39733
 10
-3619.033846
 20
1091.39733
 10
-3619.033846
 20
1085.39733
  0
LWPOLYLINE
  5
F5
330
31C
100
AcDbEntity
  8
Scale
 62
   250
370
    13
100
AcDbPolyline
 90
        5
 70
   128
 43
0.0
 10
-3619.033846
 20
1079.39733
 10
-3679.033846
 20
1079.39733
 10
-3679.033846
 20
1085.39733
 10
-3619.033846
 20
1085.39733
 10
-3619.033846
 20
1079.39733
  0
CIRCLE
  5
FA
330
31C
100
AcDbEntity
  8
Scale_Legend_Arrow
 62
   250
370
    13
100
AcDbCircle
 10
-3678.508534
 20
1124.241964
 30
0.0
 40
19.40084608404031
  0
LWPOLYLINE
  5
FB
330
31C
100
AcDbEntity
  8
Scale_Legend_Arrow
 62
   250
370
    13
100
AcDbPolyline
 90
        3
 70
   129
 43
0.0
 10
-3678.508534
 20
1143.64281
 10
-3697.90938
 20
1124.241964
 10
-3659.107688
 20
1124.241964
  0
LINE
  5
FC
330
31C
100
AcDbEntity
  8
Scale_Legend_Arrow
 62
   250
370
    13
100
AcDbLine
 10
-3678.508534
 20
1124.241964
 30
0.0
 11
-3678.508534
 21
1104.841118
 31
0.0
  0
LINE
  5
FE
330
31C
100
AcDbEntity
  8
0
  6
Continuous
 62
     7
370
     0
100
AcDbLine
 10
-3739.168061
 20
1085.39733
 30
0.0
 11
-3679.168061
 21
1085.39733
 31
0.0
  0
TEXT
  5
CC
330
31C
100
AcDbEntity
  8
Limits of Excavation
  6
Continuous
 62
     7
370
     0
100
AcDbText
 10
-3234.85548
 20
1494.814796
 30
0.0
 40
3.0
  1
N125
  7
Style-Garamond
 11
-3234.85548
 21
1497.814796
 31
0.0
100
AcDbText
 73
     3
  0
TEXT
  5
CD
330
31C
100
AcDbEntity
  8
Limits of Excavation
  6
Continuous
 62
     7
370
     0
100
AcDbText
 10
-3234.85548
 20
1434.814796
 30
0.0
 40
3.0
  1
N120
  7
Style-Garamond
 11
-3234.85548
 21
1437.814796
 31
0.0
100
AcDbText
 73
     3
  0
TEXT
  5
CE
330
31C
100
AcDbEntity
  8
Limits of Excavation
  6
Continuous
 62
     7
370
     0
100
AcDbText
 10
-3234.85548
 20
1374.814796
 30
0.0
 40
3.0
  1
N115
  7
Style-Garamond
 11
-3234.85548
 21
1377.814796
 31
0.0
100
AcDbText
 73
     3
  0
TEXT
  5
CF
330
31C
100
AcDbEntity
  8
Limits of Excavation
  6
Continuous
 62
     7
370
     0
100
AcDbText
 10
-3234.85548
 20
1314.814796
 30
0.0
 40
3.0
  1
N110
  7
Style-Garamond
 11
-3234.85548
 21
1317.814796
 31
0.0
100
AcDbText
 73
     3
  0
TEXT
  5
D0
330
31C
100
AcDbEntity
  8
Limits of Excavation
  6
Continuous
 62
     7
370
     0
100
AcDbText
 10
-3234.85548
 20
1254.814796
 30
0.0
 40
3.0
  1
N105
  7
Style-Garamond
 11
-3234.85548
 21
1257.814796
 31
0.0
100
AcDbText
 73
     3
  0
TEXT
  5
D1
330
31C
100
AcDbEntity
  8
Limits of Excavation
  6
Continuous
 62
     7
370
     0
100
AcDbText
 10
-3234.85548
 20
1194.814796
 30
0.0
 40
3.0
  1
N100
  7
Style-Garamond
 11
-3234.85548
 21
1197.814796
 31
0.0
100
AcDbText
 73
     3
  0
TEXT
  5
D2
330
31C
100
AcDbEntity
  8
Limits of Excavation
  6
Continuous
 62
     7
370
     0
100
AcDbText
 10
-3234.85548
 20
1134.814796
 30
0.0
 40
3.0
  1
N95
  7
Style-Garamond
 11
-3234.85548
 21
1137.814796
 31
0.0
100
AcDbText
 73
     3
  0
TEXT
  5
D3
330
31C
100
AcDbEntity
  8
Limits of Excavation
  6
Continuous
 62
     7
370
     0
100
AcDbText
 10
-3234.85548
 20
1074.814796
 30
0.0
 40
3.0
  1
N90
  7
Style-Garamond
 11
-3234.85548
 21
1077.814796
 31
0.0
100
AcDbText
 73
     3
  0
TEXT
  5
D4
330
31C
100
AcDbEntity
  8
Limits of Excavation
  6
Continuous
 62
     7
370
     0
100
AcDbText
 10
-3234.85548
 20
1014.814796
 30
0.0
 40
3.0
  1
N85
  7
Style-Garamond
 11
-3234.85548
 21
1017.814796
 31
0.0
100
AcDbText
 73
     3
  0
TEXT
  5
E5
330
31C
100
AcDbEntity
  8
Scale
  6
Continuous
 62
   250
370
    13
100
AcDbText
 10
-3740.219299
 20
1094.004354
 30
0.0
 40
3.6576
  1
0
 50
1.0
  7
Style-Garamond
 11
-3740.283133
 21
1097.661397
 31
0.0
100
AcDbText
 73
     3
  0
TEXT
  5
E6
330
31C
100
AcDbEntity
  8
Scale
  6
Continuous
 62
   250
370
    13
100
AcDbText
 10
-3620.588665
 20
1093.464787
 30
0.0
 40
3.6576
  1
10
 50
1.0
  7
Style-Garamond
 11
-3620.652499
 21
1097.12183
 31
0.0
100
AcDbText
 73
     3
  0
TEXT
  5
E7
330
31C
100
AcDbEntity
  8
Scale
  6
Continuous
 62
   250
370
    13
100
AcDbText
 10
-3740.328047
 20
1073.646207
 30
0.0
 40
3.6576
  1
Feet
  7
Style-Garamond
 11
-3740.328047
 21
1077.303807
 31
0.0
100
AcDbText
 73
     3
  0
TEXT
  5
E8
330
31C
100
AcDbEntity
  8
Scale
  6
Continuous
 62
   250
370
    13
100
AcDbText
 10
-3681.260269
 20
1093.645711
 30
0.0
 40
3.6576
  1
5
 50
1.0
  7
Style-Garamond
 11
-3681.324103
 21
1097.302754
 31
0.0
100
AcDbText
 73
     3
  0
HATCH
  5
350
330
31C
100
AcDbEntity
  8
Stone
  6
Continuous
 62
   253
370
     0
100
AcDbHatch
 10
0.0
 20
0.0
 30
0.0
210
0.0
220
0.0
230
1.0
  2
SOLID
 70
     1
 71
     1
 91
        1
 92
        1
 93
        1
 72
     4
 94
        3
 73
     0
 74
     0
 95
       15
 96
       11
 40
0.0
 40
0.0
 40
0.0
 40
0.0
 40
0.127372706031849
 40
0.2856877888589057
 40
0.4614825446878428
 40
0.5661489307399942
 40
0.6364668330715693
 40
0.740289971660818
 40
0.8293593146141488
 40
1.0
 40
1.0
 40
1.0
 40
1.0
 10
-3527.502256782634
 20
1372.201977801754
 10
-3527.136382754021
 20
1372.406870031568
 10
-3526.907645333803
 20
1374.308881437765
 10
-3527.853600424391
 20
1376.57625123037
 10
-3530.28800987961
 20
1376.317886698596
 10
-3532.066523482072
 20
1375.47981473376
 10
-3531.908897489462
 20
1374.056411565719
 10
-3531.38946667235
 20
1372.530287716603
 10
-3529.459276364531
 20
1373.266443495106
 10
-3527.992416699561
 20
1371.927484532239
 10
-3527.502256782634
 20
1372.201977801754
 97
        1
330
134
 75
     0
 76
     1
 98
        0
  0
SPLINE
  5
134
102
{ACAD_REACTORS
330
350
102
}
330
31C
100
AcDbEntity
  8
Stone
  6
Continuous
370
     0
100
AcDbSpline
210
0.0
220
0.0
230
1.0
 70
    11
 71
     3
 72
    15
 73
    11
 74
     0
 42
0.0000000001
 43
0.00000001
 40
0.0
 40
0.0
 40
0.0
 40
0.0
 40
0.127372706031849
 40
0.2856877888589057
 40
0.4614825446878428
 40
0.5661489307399942
 40
0.6364668330715693
 40
0.740289971660818
 40
0.8293593146141488
 40
1.0
 40
1.0
 40
1.0
 40
1.0
 10
-3527.502256782634
 20
1372.201977801754
 30
0.0
 10
-3527.136382754021
 20
1372.406870031568
 30
0.0
 10
-3526.907645333803
 20
1374.308881437765
 30
0.0
 10
-3527.853600424391
 20
1376.57625123037
 30
0.0
 10
-3530.28800987961
 20
1376.317886698596
 30
0.0
 10
-3532.066523482072
 20
1375.47981473376
 30
0.0
 10
-3531.908897489462
 20
1374.056411565719
 30
0.0
 10
-3531.38946667235
 20
1372.530287716603
 30
0.0
 10
-3529.459276364531
 20
1373.266443495106
 30
0.0
 10
-3527.992416699561
 20
1371.927484532239
 30
0.0
 10
-3527.502256782634
 20
1372.201977801754
 30
0.0
  0
HATCH
  5
351
330
31C
100
AcDbEntity
  8
Stone
  6
Continuous
 62
   253
370
     0
100
AcDbHatch
 10
0.0
 20
0.0
 30
0.0
210
0.0
220
0.0
230
1.0
  2
SOLID
 70
     1
 71
     1
 91
        1
 92
        1
 93
        1
 72
     4
 94
        3
 73
     0
 74
     0
 95
       35
 96
       31
 40
0.0
 40
0.0
 40
0.0
 40
0.0
 40
0.0261215694035788
 40
0.0686602407186821
 40
0.0882103974644218
 40
0.1409370306373659
 40
0.1797558986249957
 40
0.2248749730493582
 40
0.2581582789540914
 40
0.2783392474562905
 40
0.3052523795690686
 40
0.3402426747257359
 40
0.4217428876765621
 40
0.4475143023437994
 40
0.4771530147766675
 40
0.5154109692016223
 40
0.5405672256365737
 40
0.5646416655760691
 40
0.6024465547180735
 40
0.6496757260048776
 40
0.6974981690360725
 40
0.727242395196861
 40
0.7595513437505258
 40
0.7978092981754805
 40
0.8207646167422616
 40
0.8579680640746318
 40
0.8888390097334066
 40
0.919146663092324
 40
0.9469416750074081
 40
1.0
 40
1.0
 40
1.0
 40
1.0
 10
-3537.871314828786
 20
1374.037811029597
 10
-3538.259832745054
 20
1374.057386381888
 10
-3539.316629691658
 20
1374.255124533063
 10
-3540.046524693046
 20
1372.999920609154
 10
-3541.187051110721
 20
1371.6542208333
 10
-3539.550377327988
 20
1370.119471391467
 10
-3537.787632928474
 20
1369.441241537451
 10
-3536.069492496623
 20
1369.810880618102
 10
-3534.637749580049
 20
1369.248531139122
 10
-3534.091669279866
 20
1368.140173645748
 10
-3534.447452141978
 20
1366.926012341765
 10
-3532.877683274737
 20
1365.086205167814
 10
-3530.358345368467
 20
1365.909254825516
 10
-3529.0627656906
 20
1364.417175465766
 10
-3527.916575065258
 20
1363.328840649587
 10
-3526.70717045713
 20
1364.461105521864
 10
-3525.492220525652
 20
1364.753006267056
 10
-3524.644030251536
 20
1365.734216043615
 10
-3524.031118307264
 20
1367.280580032095
 10
-3524.774751854537
 20
1369.079931612505
 10
-3525.351359376144
 20
1370.963483294645
 10
-3526.975255706248
 20
1371.406062342704
 10
-3528.126847139718
 20
1372.220396620919
 10
-3529.337395140728
 20
1372.953562830415
 10
-3530.778390969772
 20
1372.796504077603
 10
-3532.030227548605
 20
1372.949257590782
 10
-3533.588925715996
 20
1372.572579009846
 10
-3534.358077320085
 20
1373.816884873369
 10
-3535.964695775899
 20
1374.287359585369
 10
-3537.082154363413
 20
1373.998049429227
 10
-3537.871314828786
 20
1374.037811029597
 97
        1
330
137
 75
     0
 76
     1
 98
        0
  0
SPLINE
  5
137
102
{ACAD_REACTORS
330
351
102
}
330
31C
100
AcDbEntity
  8
Stone
  6
Continuous
370
     0
100
AcDbSpline
210
0.0
220
0.0
230
1.0
 70
    11
 71
     3
 72
    35
 73
    31
 74
     0
 42
0.0000000001
 43
0.00000001
 40
0.0
 40
0.0
 40
0.0
 40
0.0
 40
0.0261215694035788
 40
0.0686602407186821
 40
0.0882103974644218
 40
0.1409370306373659
 40
0.1797558986249957
 40
0.2248749730493582
 40
0.2581582789540914
 40
0.2783392474562905
 40
0.3052523795690686
 40
0.3402426747257359
 40
0.4217428876765621
 40
0.4475143023437994
 40
0.4771530147766675
 40
0.5154109692016223
 40
0.5405672256365737
 40
0.5646416655760691
 40
0.6024465547180735
 40
0.6496757260048776
 40
0.6974981690360725
 40
0.727242395196861
 40
0.7595513437505258
 40
0.7978092981754805
 40
0.8207646167422616
 40
0.8579680640746318
 40
0.8888390097334066
 40
0.919146663092324
 40
0.9469416750074081
 40
1.0
 40
1.0
 40
1.0
 40
1.0
 10
-3537.871314828786
 20
1374.037811029597
 30
0.0
 10
-3538.259832745054
 20
1374.057386381888
 30
0.0
 10
-3539.316629691658
 20
1374.255124533063
 30
0.0
 10
-3540.046524693046
 20
1372.999920609154
 30
0.0
 10
-3541.187051110721
 20
1371.6542208333
 30
0.0
 10
-3539.550377327988
 20
1370.119471391467
 30
0.0
 10
-3537.787632928474
 20
1369.441241537451
 30
0.0
 10
-3536.069492496623
 20
1369.810880618102
 30
0.0
 10
-3534.637749580049
 20
1369.248531139122
 30
0.0
 10
-3534.091669279866
 20
1368.140173645748
 30
0.0
 10
-3534.447452141978
 20
1366.926012341765
 30
0.0
 10
-3532.877683274737
 20
1365.086205167814
 30
0.0
 10
-3530.358345368467
 20
1365.909254825516
 30
0.0
 10
-3529.0627656906
 20
1364.417175465766
 30
0.0
 10
-3527.916575065258
 20
1363.328840649587
 30
0.0
 10
-3526.70717045713
 20
1364.461105521864
 30
0.0
 10
-3525.492220525652
 20
1364.753006267056
 30
0.0
 10
-3524.644030251536
 20
1365.734216043615
 30
0.0
 10
-3524.031118307264
 20
1367.280580032095
 30
0.0
 10
-3524.774751854537
 20
1369.079931612505
 30
0.0
 10
-3525.351359376144
 20
1370.963483294645
 30
0.0
 10
-3526.975255706248
 20
1371.406062342704
 30
0.0
 10
-3528.126847139718
 20
1372.220396620919
 30
0.0
 10
-3529.337395140728
 20
1372.953562830415
 30
0.0
 10
-3530.778390969772
 20
1372.796504077603
 30
0.0
 10
-3532.030227548605
 20
1372.949257590782
 30
0.0
 10
-3533.588925715996
 20
1372.572579009846
 30
0.0
 10
-3534.358077320085
 20
1373.816884873369
 30
0.0
 10
-3535.964695775899
 20
1374.287359585369
 30
0.0
 10
-3537.082154363413
 20
1373.998049429227
 30
0.0
 10
-3537.871314828786
 20
1374.037811029597
 30
0.0
  0
HATCH
  5
352
330
31C
100
AcDbEntity
  8
Stone
  6
Continuous
 62
   253
370
     0
100
AcDbHatch
 10
0.0
 20
0.0
 30
0.0
210
0.0
220
0.0
230
1.0
  2
SOLID
 70
     1
 71
     1
 91
        1
 92
        1
 93
        1
 72
     4
 94
        3
 73
     0
 74
     0
 95
       14
 96
       10
 40
0.0
 40
0.0
 40
0.0
 40
0.0
 40
0.2423622140240594
 40
0.4517625343853183
 40
0.6148798733189087
 40
0.7489614999820443
 40
0.8829777050132456
 40
0.9916239871855456
 40
1.0
 40
1.0
 40
1.0
 40
1.0
 10
-3527.570250605887
 20
1375.873644257441
 10
-3526.933856919396
 20
1375.916687531031
 10
-3527.677083986348
 20
1378.197643779655
 10
-3529.534724522303
 20
1378.688925291312
 10
-3530.495057747928
 20
1377.206542066938
 10
-3529.568462032113
 20
1375.992672037903
 10
-3528.420431591851
 20
1376.556483232996
 10
-3527.916793939686
 20
1375.871075016367
 10
-3527.592244305254
 20
1375.872156686399
 10
-3527.570250605887
 20
1375.873644257441
 97
        1
330
13A
 75
     0
 76
     1
 98
        0
  0
SPLINE
  5
13A
102
{ACAD_REACTORS
330
352
102
}
330
31C
100
AcDbEntity
  8
Stone
  6
Continuous
370
     0
100
AcDbSpline
210
0.0
220
0.0
230
1.0
 70
    11
 71
     3
 72
    14
 73
    10
 74
     0
 42
0.0000000001
 43
0.00000001
 40
0.0
 40
0.0
 40
0.0
 40
0.0
 40
0.2423622140240594
 40
0.4517625343853183
 40
0.6148798733189087
 40
0.7489614999820443
 40
0.8829777050132456
 40
0.9916239871855456
 40
1.0
 40
1.0
 40
1.0
 40
1.0
 10
-3527.570250605887
 20
1375.873644257441
 30
0.0
 10
-3526.933856919396
 20
1375.916687531031
 30
0.0
 10
-3527.677083986348
 20
1378.197643779655
 30
0.0
 10
-3529.534724522303
 20
1378.688925291312
 30
0.0
 10
-3530.495057747928
 20
1377.206542066938
 30
0.0
 10
-3529.568462032113
 20
1375.992672037903
 30
0.0
 10
-3528.420431591851
 20
1376.556483232996
 30
0.0
 10
-3527.916793939686
 20
1375.871075016367
 30
0.0
 10
-3527.592244305254
 20
1375.872156686399
 30
0.0
 10
-3527.570250605887
 20
1375.873644257441
 30
0.0
  0
HATCH
  5
353
330
31C
100
AcDbEntity
  8
Stone
  6
Continuous
 62
   253
370
     0
100
AcDbHatch
 10
0.0
 20
0.0
 30
0.0
210
0.0
220
0.0
230
1.0
  2
SOLID
 70
     1
 71
     1
 91
        1
 92
        1
 93
        1
 72
     4
 94
        3
 73
     0
 74
     0
 95
       13
 96
        9
 40
0.0
 40
0.0
 40
0.0
 40
0.0
 40
0.1619244269310652
 40
0.3266887667289474
 40
0.5512375452097459
 40
0.6941747928649907
 40
0.9011985374684489
 40
1.0
 40
1.0
 40
1.0
 40
1.0
 10
-3530.120018977892
 20
1377.13152998763
 10
-3530.282377189999
 20
1377.479969663393
 10
-3531.117145397702
 20
1377.737326979576
 10
-3532.731996317784
 20
1378.696167181812
 10
-3532.558258410317
 20
1376.517366918009
 10
-3531.525760709978
 20
1375.431361090381
 10
-3530.00402467028
 20
1376.006280839813
 10
-3530.020952832565
 20
1376.918922475459
 10
-3530.120018977892
 20
1377.13152998763
 97
        1
330
13D
 75
     0
 76
     1
 98
        0
  0
SPLINE
  5
13D
102
{ACAD_REACTORS
330
353
102
}
330
31C
100
AcDbEntity
  8
Stone
  6
Continuous
370
     0
100
AcDbSpline
210
0.0
220
0.0
230
1.0
 70
    11
 71
     3
 72
    13
 73
     9
 74
     0
 42
0.0000000001
 43
0.00000001
 40
0.0
 40
0.0
 40
0.0
 40
0.0
 40
0.1619244269310652
 40
0.3266887667289474
 40
0.5512375452097459
 40
0.6941747928649907
 40
0.9011985374684489
 40
1.0
 40
1.0
 40
1.0
 40
1.0
 10
-3530.120018977892
 20
1377.13152998763
 30
0.0
 10
-3530.282377189999
 20
1377.479969663393
 30
0.0
 10
-3531.117145397702
 20
1377.737326979576
 30
0.0
 10
-3532.731996317784
 20
1378.696167181812
 30
0.0
 10
-3532.558258410317
 20
1376.517366918009
 30
0.0
 10
-3531.525760709978
 20
1375.431361090381
 30
0.0
 10
-3530.00402467028
 20
1376.006280839813
 30
0.0
 10
-3530.020952832565
 20
1376.918922475459
 30
0.0
 10
-3530.120018977892
 20
1377.13152998763
 30
0.0
  0
HATCH
  5
354
330
31C
100
AcDbEntity
  8
Stone
  6
Continuous
 62
   253
370
     0
100
AcDbHatch
 10
0.0
 20
0.0
 30
0.0
210
0.0
220
0.0
230
1.0
  2
SOLID
 70
     1
 71
     1
 91
        1
 92
        1
 93
        1
 72
     4
 94
        3
 73
     0
 74
     0
 95
       15
 96
       11
 40
0.0
 40
0.0
 40
0.0
 40
0.0
 40
0.2230430820436528
 40
0.3955151132810577
 40
0.538448545167473
 40
0.6607943252523096
 40
0.7263336971225217
 40
0.795322509617483
 40
0.9644858351343
 40
1.0
 40
1.0
 40
1.0
 40
1.0
 10
-3530.527981917413
 20
1377.913458955044
 10
-3530.056693490507
 20
1378.413670323467
 10
-3531.486964118821
 20
1380.081634923979
 10
-3533.494202485249
 20
1380.162236829399
 10
-3534.102168024702
 20
1378.448352113324
 10
-3533.397158565586
 20
1377.538285023308
 10
-3532.210201413929
 20
1377.33939730556
 10
-3532.763092049282
 20
1378.982034028484
 10
-3531.222219666763
 20
1377.439138721305
 10
-3530.603023092145
 20
1377.833812508075
 10
-3530.527981917413
 20
1377.913458955044
 97
        1
330
140
 75
     0
 76
     1
 98
        0
  0
SPLINE
  5
140
102
{ACAD_REACTORS
330
354
102
}
330
31C
100
AcDbEntity
  8
Stone
  6
Continuous
370
     0
100
AcDbSpline
210
0.0
220
0.0
230
1.0
 70
    11
 71
     3
 72
    15
 73
    11
 74
     0
 42
0.0000000001
 43
0.00000001
 40
0.0
 40
0.0
 40
0.0
 40
0.0
 40
0.2230430820436528
 40
0.3955151132810577
 40
0.538448545167473
 40
0.6607943252523096
 40
0.7263336971225217
 40
0.795322509617483
 40
0.9644858351343
 40
1.0
 40
1.0
 40
1.0
 40
1.0
 10
-3530.527981917413
 20
1377.913458955044
 30
0.0
 10
-3530.056693490507
 20
1378.413670323467
 30
0.0
 10
-3531.486964118821
 20
1380.081634923979
 30
0.0
 10
-3533.494202485249
 20
1380.162236829399
 30
0.0
 10
-3534.102168024702
 20
1378.448352113324
 30
0.0
 10
-3533.397158565586
 20
1377.538285023308
 30
0.0
 10
-3532.210201413929
 20
1377.33939730556
 30
0.0
 10
-3532.763092049282
 20
1378.982034028484
 30
0.0
 10
-3531.222219666763
 20
1377.439138721305
 30
0.0
 10
-3530.603023092145
 20
1377.833812508075
 30
0.0
 10
-3530.527981917413
 20
1377.913458955044
 30
0.0
  0
HATCH
  5
355
330
31C
100
AcDbEntity
  8
Stone
  6
Continuous
 62
   253
370
     0
100
AcDbHatch
 10
0.0
 20
0.0
 30
0.0
210
0.0
220
0.0
230
1.0
  2
SOLID
 70
     1
 71
     1
 91
        1
 92
        1
 93
        1
 72
     4
 94
        3
 73
     0
 74
     0
 95
       14
 96
       10
 40
0.0
 40
0.0
 40
0.0
 40
0.0
 40
0.2148076251579232
 40
0.4598698454085025
 40
0.5808882257791597
 40
0.7588510930803195
 40
0.9161749875621732
 40
0.9878981619629383
 40
1.0
 40
1.0
 40
1.0
 40
1.0
 10
-3528.845134791889
 20
1379.664299903821
 10
-3529.251493551485
 20
1379.662324676408
 10
-3530.359580076331
 20
1380.177550978984
 10
-3530.400776608864
 20
1378.053222330064
 10
-3529.253611279779
 20
1378.344724408125
 10
-3528.276573620379
 20
1378.339675771544
 10
-3528.214255631086
 20
1379.429407166393
 10
-3528.666112245451
 20
1379.670516415653
 10
-3528.822241340645
 20
1379.664411184238
 10
-3528.845134791889
 20
1379.664299903821
 97
        1
330
143
 75
     0
 76
     1
 98
        0
  0
SPLINE
  5
143
102
{ACAD_REACTORS
330
355
102
}
330
31C
100
AcDbEntity
  8
Stone
  6
Continuous
370
     0
100
AcDbSpline
210
0.0
220
0.0
230
1.0
 70
    11
 71
     3
 72
    14
 73
    10
 74
     0
 42
0.0000000001
 43
0.00000001
 40
0.0
 40
0.0
 40
0.0
 40
0.0
 40
0.2148076251579232
 40
0.4598698454085025
 40
0.5808882257791597
 40
0.7588510930803195
 40
0.9161749875621732
 40
0.9878981619629383
 40
1.0
 40
1.0
 40
1.0
 40
1.0
 10
-3528.845134791889
 20
1379.664299903821
 30
0.0
 10
-3529.251493551485
 20
1379.662324676408
 30
0.0
 10
-3530.359580076331
 20
1380.177550978984
 30
0.0
 10
-3530.400776608864
 20
1378.053222330064
 30
0.0
 10
-3529.253611279779
 20
1378.344724408125
 30
0.0
 10
-3528.276573620379
 20
1378.339675771544
 30
0.0
 10
-3528.214255631086
 20
1379.429407166393
 30
0.0
 10
-3528.666112245451
 20
1379.670516415653
 30
0.0
 10
-3528.822241340645
 20
1379.664411184238
 30
0.0
 10
-3528.845134791889
 20
1379.664299903821
 30
0.0
  0
HATCH
  5
356
330
31C
100
AcDbEntity
  8
Stone
  6
Continuous
 62
   253
370
     0
100
AcDbHatch
 10
0.0
 20
0.0
 30
0.0
210
0.0
220
0.0
230
1.0
  2
SOLID
 70
     1
 71
     1
 91
        1
 92
        1
 93
        1
 72
     4
 94
        3
 73
     0
 74
     0
 95
       27
 96
       23
 40
0.0
 40
0.0
 40
0.0
 40
0.0
 40
0.0527623149588493
 40
0.0935634791412065
 40
0.115387357657351
 40
0.1920107189443497
 40
0.2090902760439402
 40
0.2381973742483682
 40
0.275973614580169
 40
0.3556782143782619
 40
0.378450957177717
 40
0.4325362213264229
 40
0.4704907926588481
 40
0.5583671010882481
 40
0.5901929766718109
 40
0.6643562964634914
 40
0.7124591301671985
 40
0.7438864549129102
 40
0.8065114976114117
 40
0.8726671429049252
 40
0.9390876427366692
 40
1.0
 40
1.0
 40
1.0
 40
1.0
 10
-3527.808228987275
 20
1363.260790043925
 10
-3528.041968716739
 20
1363.782222854711
 10
-3528.936912995217
 20
1364.427652143717
 10
-3531.020869334518
 20
1364.861110966015
 10
-3530.4050849816
 20
1362.682717251022
 10
-3532.724884226578
 20
1363.138205419898
 10
-3534.338665173498
 20
1363.402533919992
 10
-3534.339118772675
 20
1362.043070848869
 10
-3535.480413108029
 20
1360.727852388408
 10
-3534.974426618749
 20
1358.856913613251
 10
-3535.032237320244
 20
1357.015386468406
 10
-3534.987836359995
 20
1355.590616382793
 10
-3535.110594311376
 20
1353.646979298582
 10
-3534.378698167108
 20
1350.502507175593
 10
-3532.190126603219
 20
1352.169156092537
 10
-3530.478104971297
 20
1352.375704693344
 10
-3528.536329829212
 20
1352.831576593445
 10
-3527.700496945458
 20
1354.468237406071
 10
-3528.196890807919
 20
1356.412958239307
 10
-3527.470172680131
 20
1358.713968845753
 10
-3527.729153972858
 20
1360.961716420245
 10
-3527.538384157326
 20
1362.658813013838
 10
-3527.808228987275
 20
1363.260790043925
 97
        1
330
146
 75
     0
 76
     1
 98
        0
  0
SPLINE
  5
146
102
{ACAD_REACTORS
330
356
102
}
330
31C
100
AcDbEntity
  8
Stone
  6
Continuous
370
     0
100
AcDbSpline
210
0.0
220
0.0
230
1.0
 70
    11
 71
     3
 72
    27
 73
    23
 74
     0
 42
0.0000000001
 43
0.00000001
 40
0.0
 40
0.0
 40
0.0
 40
0.0
 40
0.0527623149588493
 40
0.0935634791412065
 40
0.115387357657351
 40
0.1920107189443497
 40
0.2090902760439402
 40
0.2381973742483682
 40
0.275973614580169
 40
0.3556782143782619
 40
0.378450957177717
 40
0.4325362213264229
 40
0.4704907926588481
 40
0.5583671010882481
 40
0.5901929766718109
 40
0.6643562964634914
 40
0.7124591301671985
 40
0.7438864549129102
 40
0.8065114976114117
 40
0.8726671429049252
 40
0.9390876427366692
 40
1.0
 40
1.0
 40
1.0
 40
1.0
 10
-3527.808228987275
 20
1363.260790043925
 30
0.0
 10
-3528.041968716739
 20
1363.782222854711
 30
0.0
 10
-3528.936912995217
 20
1364.427652143717
 30
0.0
 10
-3531.020869334518
 20
1364.861110966015
 30
0.0
 10
-3530.4050849816
 20
1362.682717251022
 30
0.0
 10
-3532.724884226578
 20
1363.138205419898
 30
0.0
 10
-3534.338665173498
 20
1363.402533919992
 30
0.0
 10
-3534.339118772675
 20
1362.043070848869
 30
0.0
 10
-3535.480413108029
 20
1360.727852388408
 30
0.0
 10
-3534.974426618749
 20
1358.856913613251
 30
0.0
 10
-3535.032237320244
 20
1357.015386468406
 30
0.0
 10
-3534.987836359995
 20
1355.590616382793
 30
0.0
 10
-3535.110594311376
 20
1353.646979298582
 30
0.0
 10
-3534.378698167108
 20
1350.502507175593
 30
0.0
 10
-3532.190126603219
 20
1352.169156092537
 30
0.0
 10
-3530.478104971297
 20
1352.375704693344
 30
0.0
 10
-3528.536329829212
 20
1352.831576593445
 30
0.0
 10
-3527.700496945458
 20
1354.468237406071
 30
0.0
 10
-3528.196890807919
 20
1356.412958239307
 30
0.0
 10
-3527.470172680131
 20
1358.713968845753
 30
0.0
 10
-3527.729153972858
 20
1360.961716420245
 30
0.0
 10
-3527.538384157326
 20
1362.658813013838
 30
0.0
 10
-3527.808228987275
 20
1363.260790043925
 30
0.0
  0
HATCH
  5
357
330
31C
100
AcDbEntity
  8
Stone
  6
Continuous
 62
   253
370
     0
100
AcDbHatch
 10
0.0
 20
0.0
 30
0.0
210
0.0
220
0.0
230
1.0
  2
SOLID
 70
     1
 71
     1
 91
        1
 92
        1
 93
        1
 72
     4
 94
        3
 73
     0
 74
     0
 95
       19
 96
       15
 40
0.0
 40
0.0
 40
0.0
 40
0.0
 40
0.2809666172132405
 40
0.3339702143816364
 40
0.3761932941800033
 40
0.4331963614219336
 40
0.5659256592541733
 40
0.683669391202124
 40
0.7157813180970201
 40
0.7436116547392633
 40
0.8035539182764023
 40
0.8420882305502775
 40
0.9288366725830104
 40
1.0
 40
1.0
 40
1.0
 40
1.0
 10
-3528.522164131436
 20
1352.993722732653
 10
-3526.978893059817
 20
1353.130735356361
 10
-3531.487319748198
 20
1352.630017180149
 10
-3533.712277602576
 20
1351.024528992059
 10
-3532.588288254853
 20
1350.774123384377
 10
-3532.274568185087
 20
1349.327416595608
 10
-3530.401455842678
 20
1350.430885592935
 10
-3528.189206723591
 20
1349.369213015757
 10
-3528.333460352784
 20
1350.469621571577
 10
-3528.300095775277
 20
1351.085328513479
 10
-3528.39591256331
 20
1351.726921812095
 10
-3528.059383807308
 20
1352.851355677103
 10
-3530.540020994713
 20
1352.802545426227
 10
-3528.913044392059
 20
1352.959020125283
 10
-3528.522164131436
 20
1352.993722732653
 97
        1
330
149
 75
     0
 76
     1
 98
        0
  0
SPLINE
  5
149
102
{ACAD_REACTORS
330
357
102
}
330
31C
100
AcDbEntity
  8
Stone
  6
Continuous
370
     0
100
AcDbSpline
210
0.0
220
0.0
230
1.0
 70
    11
 71
     3
 72
    19
 73
    15
 74
     0
 42
0.0000000001
 43
0.00000001
 40
0.0
 40
0.0
 40
0.0
 40
0.0
 40
0.2809666172132405
 40
0.3339702143816364
 40
0.3761932941800033
 40
0.4331963614219336
 40
0.5659256592541733
 40
0.683669391202124
 40
0.7157813180970201
 40
0.7436116547392633
 40
0.8035539182764023
 40
0.8420882305502775
 40
0.9288366725830104
 40
1.0
 40
1.0
 40
1.0
 40
1.0
 10
-3528.522164131436
 20
1352.993722732653
 30
0.0
 10
-3526.978893059817
 20
1353.130735356361
 30
0.0
 10
-3531.487319748198
 20
1352.630017180149
 30
0.0
 10
-3533.712277602576
 20
1351.024528992059
 30
0.0
 10
-3532.588288254853
 20
1350.774123384377
 30
0.0
 10
-3532.274568185087
 20
1349.327416595608
 30
0.0
 10
-3530.401455842678
 20
1350.430885592935
 30
0.0
 10
-3528.189206723591
 20
1349.369213015757
 30
0.0
 10
-3528.333460352784
 20
1350.469621571577
 30
0.0
 10
-3528.300095775277
 20
1351.085328513479
 30
0.0
 10
-3528.39591256331
 20
1351.726921812095
 30
0.0
 10
-3528.059383807308
 20
1352.851355677103
 30
0.0
 10
-3530.540020994713
 20
1352.802545426227
 30
0.0
 10
-3528.913044392059
 20
1352.959020125283
 30
0.0
 10
-3528.522164131436
 20
1352.993722732653
 30
0.0
  0
HATCH
  5
358
330
31C
100
AcDbEntity
  8
Stone
  6
Continuous
 62
   253
370
     0
100
AcDbHatch
 10
0.0
 20
0.0
 30
0.0
210
0.0
220
0.0
230
1.0
  2
SOLID
 70
     1
 71
     1
 91
        1
 92
        1
 93
        1
 72
     4
 94
        3
 73
     0
 74
     0
 95
       23
 96
       19
 40
0.0
 40
0.0
 40
0.0
 40
0.0
 40
0.0800802228799255
 40
0.1864881902683202
 40
0.280503441981325
 40
0.4154331325872265
 40
0.4387554461743467
 40
0.5200955609414318
 40
0.5508112628679776
 40
0.6077068460196549
 40
0.6444846309417578
 40
0.6828792583499405
 40
0.7278558218852409
 40
0.7958691618654515
 40
0.846521093643588
 40
0.913437444269279
 40
0.9526385088887189
 40
1.0
 40
1.0
 40
1.0
 40
1.0
 10
-3528.284185750048
 20
1349.662025393234
 10
-3528.356238545585
 20
1350.160674805746
 10
-3531.366855224601
 20
1349.156343905792
 10
-3534.460656868659
 20
1350.614032792906
 10
-3534.991429670003
 20
1346.323246432188
 10
-3535.971601521903
 20
1343.497615386578
 10
-3534.008387937002
 20
1341.811833061881
 10
-3532.582313592904
 20
1341.657701053957
 10
-3530.633218776323
 20
1342.062459035915
 10
-3530.384444446787
 20
1340.154198049851
 10
-3529.003671656081
 20
1340.043960255246
 10
-3527.370561211756
 20
1339.687210065515
 10
-3528.003007531332
 20
1341.807480857184
 10
-3527.475261923811
 20
1343.331135303086
 10
-3528.566620516999
 20
1345.134281326372
 10
-3527.902449467406
 20
1346.860033847622
 10
-3528.944106889005
 20
1348.233598606234
 10
-3528.241571884694
 20
1349.367111382396
 10
-3528.284185750048
 20
1349.662025393234
 97
        1
330
14C
 75
     0
 76
     1
 98
        0
  0
SPLINE
  5
14C
102
{ACAD_REACTORS
330
358
102
}
330
31C
100
AcDbEntity
  8
Stone
  6
Continuous
370
     0
100
AcDbSpline
210
0.0
220
0.0
230
1.0
 70
    11
 71
     3
 72
    23
 73
    19
 74
     0
 42
0.0000000001
 43
0.00000001
 40
0.0
 40
0.0
 40
0.0
 40
0.0
 40
0.0800802228799255
 40
0.1864881902683202
 40
0.280503441981325
 40
0.4154331325872265
 40
0.4387554461743467
 40
0.5200955609414318
 40
0.5508112628679776
 40
0.6077068460196549
 40
0.6444846309417578
 40
0.6828792583499405
 40
0.7278558218852409
 40
0.7958691618654515
 40
0.846521093643588
 40
0.913437444269279
 40
0.9526385088887189
 40
1.0
 40
1.0
 40
1.0
 40
1.0
 10
-3528.284185750048
 20
1349.662025393234
 30
0.0
 10
-3528.356238545585
 20
1350.160674805746
 30
0.0
 10
-3531.366855224601
 20
1349.156343905792
 30
0.0
 10
-3534.460656868659
 20
1350.614032792906
 30
0.0
 10
-3534.991429670003
 20
1346.323246432188
 30
0.0
 10
-3535.971601521903
 20
1343.497615386578
 30
0.0
 10
-3534.008387937002
 20
1341.811833061881
 30
0.0
 10
-3532.582313592904
 20
1341.657701053957
 30
0.0
 10
-3530.633218776323
 20
1342.062459035915
 30
0.0
 10
-3530.384444446787
 20
1340.154198049851
 30
0.0
 10
-3529.003671656081
 20
1340.043960255246
 30
0.0
 10
-3527.370561211756
 20
1339.687210065515
 30
0.0
 10
-3528.003007531332
 20
1341.807480857184
 30
0.0
 10
-3527.475261923811
 20
1343.331135303086
 30
0.0
 10
-3528.566620516999
 20
1345.134281326372
 30
0.0
 10
-3527.902449467406
 20
1346.860033847622
 30
0.0
 10
-3528.944106889005
 20
1348.233598606234
 30
0.0
 10
-3528.241571884694
 20
1349.367111382396
 30
0.0
 10
-3528.284185750048
 20
1349.662025393234
 30
0.0
  0
HATCH
  5
359
330
31C
100
AcDbEntity
  8
Stone
  6
Continuous
 62
   253
370
     0
100
AcDbHatch
 10
0.0
 20
0.0
 30
0.0
210
0.0
220
0.0
230
1.0
  2
SOLID
 70
     1
 71
     1
 91
        1
 92
        1
 93
        1
 72
     4
 94
        3
 73
     0
 74
     0
 95
       15
 96
       11
 40
0.0
 40
0.0
 40
0.0
 40
0.0
 40
0.0769401361823237
 40
0.3019301037639712
 40
0.4069254219687429
 40
0.5326427257763181
 40
0.6676367063253073
 40
0.7286795616283727
 40
0.8852771764938582
 40
1.0
 40
1.0
 40
1.0
 40
1.0
 10
-3528.325917793976
 20
1320.090224216685
 10
-3527.983535986956
 20
1320.286288962947
 10
-3526.76183781725
 20
1321.450537772231
 10
-3529.02012879184
 20
1323.910972652363
 10
-3531.13524503894
 20
1323.546256690991
 10
-3533.302879310771
 20
1323.432370462916
 10
-3533.237422987723
 20
1321.18806374743
 10
-3531.852625873491
 20
1320.099103498208
 10
-3530.207113515325
 20
1319.635535959856
 10
-3528.836431676164
 20
1319.797878733594
 10
-3528.325917793976
 20
1320.090224216685
 97
        1
330
161
 75
     0
 76
     1
 98
        0
  0
SPLINE
  5
161
102
{ACAD_REACTORS
330
359
102
}
330
31C
100
AcDbEntity
  8
Stone
  6
Continuous
370
     0
100
AcDbSpline
210
0.0
220
0.0
230
1.0
 70
    11
 71
     3
 72
    15
 73
    11
 74
     0
 42
0.0000000001
 43
0.00000001
 40
0.0
 40
0.0
 40
0.0
 40
0.0
 40
0.0769401361823237
 40
0.3019301037639712
 40
0.4069254219687429
 40
0.5326427257763181
 40
0.6676367063253073
 40
0.7286795616283727
 40
0.8852771764938582
 40
1.0
 40
1.0
 40
1.0
 40
1.0
 10
-3528.325917793976
 20
1320.090224216685
 30
0.0
 10
-3527.983535986956
 20
1320.286288962947
 30
0.0
 10
-3526.76183781725
 20
1321.450537772231
 30
0.0
 10
-3529.02012879184
 20
1323.910972652363
 30
0.0
 10
-3531.13524503894
 20
1323.546256690991
 30
0.0
 10
-3533.302879310771
 20
1323.432370462916
 30
0.0
 10
-3533.237422987723
 20
1321.18806374743
 30
0.0
 10
-3531.852625873491
 20
1320.099103498208
 30
0.0
 10
-3530.207113515325
 20
1319.635535959856
 30
0.0
 10
-3528.836431676164
 20
1319.797878733594
 30
0.0
 10
-3528.325917793976
 20
1320.090224216685
 30
0.0
  0
HATCH
  5
35A
330
31C
100
AcDbEntity
  8
Stone
  6
Continuous
 62
   253
370
     0
100
AcDbHatch
 10
0.0
 20
0.0
 30
0.0
210
0.0
220
0.0
230
1.0
  2
SOLID
 70
     1
 71
     1
 91
        1
 92
        1
 93
        1
 72
     4
 94
        3
 73
     0
 74
     0
 95
       15
 96
       11
 40
0.0
 40
0.0
 40
0.0
 40
0.0
 40
0.1161868552077094
 40
0.2860245437043526
 40
0.4637627479351487
 40
0.5502299824258051
 40
0.6991457751597152
 40
0.8480615678936259
 40
0.9346621366724103
 40
1.0
 40
1.0
 40
1.0
 40
1.0
 10
-3535.65082623486
 20
1320.700633253425
 10
-3535.171057168109
 20
1320.917184388985
 10
-3533.750225518787
 20
1321.29826665877
 10
-3536.052630543031
 20
1323.289352936346
 10
-3537.472054484736
 20
1322.529366290793
 10
-3539.360167790448
 20
1323.133700820408
 10
-3539.302741970381
 20
1320.205128926562
 10
-3537.294149156145
 20
1321.552919773124
 10
-3536.476402232925
 20
1320.250258945579
 10
-3535.920625134711
 20
1320.578855376974
 10
-3535.65082623486
 20
1320.700633253425
 97
        1
330
164
 75
     0
 76
     1
 98
        0
  0
SPLINE
  5
164
102
{ACAD_REACTORS
330
35A
102
}
330
31C
100
AcDbEntity
  8
Stone
  6
Continuous
370
     0
100
AcDbSpline
210
0.0
220
0.0
230
1.0
 70
    11
 71
     3
 72
    15
 73
    11
 74
     0
 42
0.0000000001
 43
0.00000001
 40
0.0
 40
0.0
 40
0.0
 40
0.0
 40
0.1161868552077094
 40
0.2860245437043526
 40
0.4637627479351487
 40
0.5502299824258051
 40
0.6991457751597152
 40
0.8480615678936259
 40
0.9346621366724103
 40
1.0
 40
1.0
 40
1.0
 40
1.0
 10
-3535.65082623486
 20
1320.700633253425
 30
0.0
 10
-3535.171057168109
 20
1320.917184388985
 30
0.0
 10
-3533.750225518787
 20
1321.29826665877
 30
0.0
 10
-3536.052630543031
 20
1323.289352936346
 30
0.0
 10
-3537.472054484736
 20
1322.529366290793
 30
0.0
 10
-3539.360167790448
 20
1323.133700820408
 30
0.0
 10
-3539.302741970381
 20
1320.205128926562
 30
0.0
 10
-3537.294149156145
 20
1321.552919773124
 30
0.0
 10
-3536.476402232925
 20
1320.250258945579
 30
0.0
 10
-3535.920625134711
 20
1320.578855376974
 30
0.0
 10
-3535.65082623486
 20
1320.700633253425
 30
0.0
  0
HATCH
  5
35B
330
31C
100
AcDbEntity
  8
Stone
  6
Continuous
 62
   253
370
     0
100
AcDbHatch
 10
0.0
 20
0.0
 30
0.0
210
0.0
220
0.0
230
1.0
  2
SOLID
 70
     1
 71
     1
 91
        1
 92
        1
 93
        1
 72
     4
 94
        3
 73
     0
 74
     0
 95
       14
 96
       10
 40
0.0
 40
0.0
 40
0.0
 40
0.0
 40
0.0878159141015035
 40
0.2488117566209289
 40
0.4256590445045528
 40
0.6554486808314819
 40
0.7432645949329868
 40
0.9554863873449574
 40
1.0
 40
1.0
 40
1.0
 40
1.0
 10
-3535.817301426699
 20
1323.086777669774
 10
-3535.590760059712
 20
1323.038752075989
 10
-3534.814748171453
 20
1322.907838995754
 10
-3534.97608924506
 20
1324.61256141328
 10
-3536.532767232442
 20
1325.099229238407
 10
-3537.790013812744
 20
1324.293148884206
 10
-3537.889559474343
 20
1322.621448652437
 10
-3536.524279653598
 20
1323.254226157005
 10
-3535.932134538255
 20
1323.111121693304
 10
-3535.817301426699
 20
1323.086777669774
 97
        1
330
167
 75
     0
 76
     1
 98
        0
  0
SPLINE
  5
167
102
{ACAD_REACTORS
330
35B
102
}
330
31C
100
AcDbEntity
  8
Stone
  6
Continuous
370
     0
100
AcDbSpline
210
0.0
220
0.0
230
1.0
 70
    11
 71
     3
 72
    14
 73
    10
 74
     0
 42
0.0000000001
 43
0.00000001
 40
0.0
 40
0.0
 40
0.0
 40
0.0
 40
0.0878159141015035
 40
0.2488117566209289
 40
0.4256590445045528
 40
0.6554486808314819
 40
0.7432645949329868
 40
0.9554863873449574
 40
1.0
 40
1.0
 40
1.0
 40
1.0
 10
-3535.817301426699
 20
1323.086777669774
 30
0.0
 10
-3535.590760059712
 20
1323.038752075989
 30
0.0
 10
-3534.814748171453
 20
1322.907838995754
 30
0.0
 10
-3534.97608924506
 20
1324.61256141328
 30
0.0
 10
-3536.532767232442
 20
1325.099229238407
 30
0.0
 10
-3537.790013812744
 20
1324.293148884206
 30
0.0
 10
-3537.889559474343
 20
1322.621448652437
 30
0.0
 10
-3536.524279653598
 20
1323.254226157005
 30
0.0
 10
-3535.932134538255
 20
1323.111121693304
 30
0.0
 10
-3535.817301426699
 20
1323.086777669774
 30
0.0
  0
HATCH
  5
35C
330
31C
100
AcDbEntity
  8
Stone
  6
Continuous
 62
   253
370
     0
100
AcDbHatch
 10
0.0
 20
0.0
 30
0.0
210
0.0
220
0.0
230
1.0
  2
SOLID
 70
     1
 71
     1
 91
        1
 92
        1
 93
        1
 72
     4
 94
        3
 73
     0
 74
     0
 95
       13
 96
        9
 40
0.0
 40
0.0
 40
0.0
 40
0.0
 40
0.1812667127569133
 40
0.4098537049932788
 40
0.5667820073165228
 40
0.7668271262618291
 40
0.9352968033872403
 40
1.0
 40
1.0
 40
1.0
 40
1.0
 10
-3533.597632202188
 20
1322.920302477935
 10
-3533.156233681073
 20
1323.04365000499
 10
-3531.747187423525
 20
1323.157417058257
 10
-3533.210369044212
 20
1324.820662901351
 10
-3534.636940837802
 20
1324.852373998532
 10
-3535.563661691916
 20
1323.285213820754
 10
-3534.239515470998
 20
1322.68407170394
 10
-3533.755189510212
 20
1322.876273548557
 10
-3533.597632202188
 20
1322.920302477935
 97
        1
330
16A
 75
     0
 76
     1
 98
        0
  0
SPLINE
  5
16A
102
{ACAD_REACTORS
330
35C
102
}
330
31C
100
AcDbEntity
  8
Stone
  6
Continuous
370
     0
100
AcDbSpline
210
0.0
220
0.0
230
1.0
 70
    11
 71
     3
 72
    13
 73
     9
 74
     0
 42
0.0000000001
 43
0.00000001
 40
0.0
 40
0.0
 40
0.0
 40
0.0
 40
0.1812667127569133
 40
0.4098537049932788
 40
0.5667820073165228
 40
0.7668271262618291
 40
0.9352968033872403
 40
1.0
 40
1.0
 40
1.0
 40
1.0
 10
-3533.597632202188
 20
1322.920302477935
 30
0.0
 10
-3533.156233681073
 20
1323.04365000499
 30
0.0
 10
-3531.747187423525
 20
1323.157417058257
 30
0.0
 10
-3533.210369044212
 20
1324.820662901351
 30
0.0
 10
-3534.636940837802
 20
1324.852373998532
 30
0.0
 10
-3535.563661691916
 20
1323.285213820754
 30
0.0
 10
-3534.239515470998
 20
1322.68407170394
 30
0.0
 10
-3533.755189510212
 20
1322.876273548557
 30
0.0
 10
-3533.597632202188
 20
1322.920302477935
 30
0.0
  0
HATCH
  5
35D
330
31C
100
AcDbEntity
  8
Stone
  6
Continuous
 62
   253
370
     0
100
AcDbHatch
 10
0.0
 20
0.0
 30
0.0
210
0.0
220
0.0
230
1.0
  2
SOLID
 70
     1
 71
     1
 91
        1
 92
        1
 93
        1
 72
     4
 94
        3
 73
     0
 74
     0
 95
       15
 96
       11
 40
0.0
 40
0.0
 40
0.0
 40
0.0
 40
0.1091625372856961
 40
0.3226172949293901
 40
0.4884877328880382
 40
0.6224535785803004
 40
0.7232193002770971
 40
0.7649579174745709
 40
0.8859875580139609
 40
1.0
 40
1.0
 40
1.0
 40
1.0
 10
-3528.048459140912
 20
1322.781573151404
 10
-3527.741649992021
 20
1322.653179360552
 10
-3526.463880540893
 20
1322.640239289629
 10
-3527.546507058211
 20
1324.434457944305
 10
-3528.481370532819
 20
1326.097879793481
 10
-3529.368821974707
 20
1324.821967298554
 10
-3529.857025582629
 20
1324.269733926624
 10
-3529.918060938587
 20
1323.395863529254
 10
-3528.747179062434
 20
1323.471006415671
 10
-3528.368899295187
 20
1322.915671258637
 10
-3528.048459140912
 20
1322.781573151404
 97
        1
330
16D
 75
     0
 76
     1
 98
        0
  0
SPLINE
  5
16D
102
{ACAD_REACTORS
330
35D
102
}
330
31C
100
AcDbEntity
  8
Stone
  6
Continuous
370
     0
100
AcDbSpline
210
0.0
220
0.0
230
1.0
 70
    11
 71
     3
 72
    15
 73
    11
 74
     0
 42
0.0000000001
 43
0.00000001
 40
0.0
 40
0.0
 40
0.0
 40
0.0
 40
0.1091625372856961
 40
0.3226172949293901
 40
0.4884877328880382
 40
0.6224535785803004
 40
0.7232193002770971
 40
0.7649579174745709
 40
0.8859875580139609
 40
1.0
 40
1.0
 40
1.0
 40
1.0
 10
-3528.048459140912
 20
1322.781573151404
 30
0.0
 10
-3527.741649992021
 20
1322.653179360552
 30
0.0
 10
-3526.463880540893
 20
1322.640239289629
 30
0.0
 10
-3527.546507058211
 20
1324.434457944305
 30
0.0
 10
-3528.481370532819
 20
1326.097879793481
 30
0.0
 10
-3529.368821974707
 20
1324.821967298554
 30
0.0
 10
-3529.857025582629
 20
1324.269733926624
 30
0.0
 10
-3529.918060938587
 20
1323.395863529254
 30
0.0
 10
-3528.747179062434
 20
1323.471006415671
 30
0.0
 10
-3528.368899295187
 20
1322.915671258637
 30
0.0
 10
-3528.048459140912
 20
1322.781573151404
 30
0.0
  0
HATCH
  5
35E
330
31C
100
AcDbEntity
  8
Stone
  6
Continuous
 62
   253
370
     0
100
AcDbHatch
 10
0.0
 20
0.0
 30
0.0
210
0.0
220
0.0
230
1.0
  2
SOLID
 70
     1
 71
     1
 91
        1
 92
        1
 93
        1
 72
     4
 94
        3
 73
     0
 74
     0
 95
       15
 96
       11
 40
0.0
 40
0.0
 40
0.0
 40
0.0
 40
0.1772060662893956
 40
0.2902454384251555
 40
0.4865058932764231
 40
0.5850599723910507
 40
0.6554320854101688
 40
0.7996126395594808
 40
0.8790761750038328
 40
1.0
 40
1.0
 40
1.0
 40
1.0
 10
-3530.184890769504
 20
1323.919153628965
 10
-3529.479511396344
 20
1324.268004401956
 10
-3528.327215256193
 20
1325.14160501025
 10
-3530.280283067884
 20
1326.353939476683
 10
-3531.534931836035
 20
1325.376466739719
 10
-3532.930519738608
 20
1325.968239838364
 10
-3533.698288914071
 20
1324.587301578842
 10
-3531.908192657848
 20
1324.770204010022
 10
-3531.46532296042
 20
1323.428998598515
 10
-3530.666235306189
 20
1323.68110100071
 10
-3530.184890769504
 20
1323.919153628965
 97
        1
330
170
 75
     0
 76
     1
 98
        0
  0
SPLINE
  5
170
102
{ACAD_REACTORS
330
35E
102
}
330
31C
100
AcDbEntity
  8
Stone
  6
Continuous
370
     0
100
AcDbSpline
210
0.0
220
0.0
230
1.0
 70
    11
 71
     3
 72
    15
 73
    11
 74
     0
 42
0.0000000001
 43
0.00000001
 40
0.0
 40
0.0
 40
0.0
 40
0.0
 40
0.1772060662893956
 40
0.2902454384251555
 40
0.4865058932764231
 40
0.5850599723910507
 40
0.6554320854101688
 40
0.7996126395594808
 40
0.8790761750038328
 40
1.0
 40
1.0
 40
1.0
 40
1.0
 10
-3530.184890769504
 20
1323.919153628965
 30
0.0
 10
-3529.479511396344
 20
1324.268004401956
 30
0.0
 10
-3528.327215256193
 20
1325.14160501025
 30
0.0
 10
-3530.280283067884
 20
1326.353939476683
 30
0.0
 10
-3531.534931836035
 20
1325.376466739719
 30
0.0
 10
-3532.930519738608
 20
1325.968239838364
 30
0.0
 10
-3533.698288914071
 20
1324.587301578842
 30
0.0
 10
-3531.908192657848
 20
1324.770204010022
 30
0.0
 10
-3531.46532296042
 20
1323.428998598515
 30
0.0
 10
-3530.666235306189
 20
1323.68110100071
 30
0.0
 10
-3530.184890769504
 20
1323.919153628965
 30
0.0
  0
HATCH
  5
35F
330
31C
100
AcDbEntity
  8
Stone
  6
Continuous
 62
   253
370
     0
100
AcDbHatch
 10
0.0
 20
0.0
 30
0.0
210
0.0
220
0.0
230
1.0
  2
SOLID
 70
     1
 71
     1
 91
        1
 92
        1
 93
        1
 72
     4
 94
        3
 73
     0
 74
     0
 95
       15
 96
       11
 40
0.0
 40
0.0
 40
0.0
 40
0.0
 40
0.1117059505145088
 40
0.2170553098415449
 40
0.3321994308882497
 40
0.5211576589992903
 40
0.622458672086746
 40
0.6437816574657653
 40
0.8350002175330581
 40
1.0
 40
1.0
 40
1.0
 40
1.0
 10
-3528.597561851949
 20
1325.607468505202
 10
-3528.212657842682
 20
1325.805418799396
 10
-3527.571247941539
 20
1326.922302387085
 10
-3528.654049726786
 20
1328.24422515687
 10
-3530.73895620053
 20
1328.186017281001
 10
-3531.404143080777
 20
1326.280588899677
 10
-3533.241739272595
 20
1326.133117762882
 10
-3533.201680105906
 20
1324.587124694056
 10
-3530.651674247598
 20
1326.458886158347
 10
-3529.166099852898
 20
1325.315078034231
 10
-3528.597561851949
 20
1325.607468505202
 97
        1
330
173
 75
     0
 76
     1
 98
        0
  0
SPLINE
  5
173
102
{ACAD_REACTORS
330
35F
102
}
330
31C
100
AcDbEntity
  8
Stone
  6
Continuous
370
     0
100
AcDbSpline
210
0.0
220
0.0
230
1.0
 70
    11
 71
     3
 72
    15
 73
    11
 74
     0
 42
0.0000000001
 43
0.00000001
 40
0.0
 40
0.0
 40
0.0
 40
0.0
 40
0.1117059505145088
 40
0.2170553098415449
 40
0.3321994308882497
 40
0.5211576589992903
 40
0.622458672086746
 40
0.6437816574657653
 40
0.8350002175330581
 40
1.0
 40
1.0
 40
1.0
 40
1.0
 10
-3528.597561851949
 20
1325.607468505202
 30
0.0
 10
-3528.212657842682
 20
1325.805418799396
 30
0.0
 10
-3527.571247941539
 20
1326.922302387085
 30
0.0
 10
-3528.654049726786
 20
1328.24422515687
 30
0.0
 10
-3530.73895620053
 20
1328.186017281001
 30
0.0
 10
-3531.404143080777
 20
1326.280588899677
 30
0.0
 10
-3533.241739272595
 20
1326.133117762882
 30
0.0
 10
-3533.201680105906
 20
1324.587124694056
 30
0.0
 10
-3530.651674247598
 20
1326.458886158347
 30
0.0
 10
-3529.166099852898
 20
1325.315078034231
 30
0.0
 10
-3528.597561851949
 20
1325.607468505202
 30
0.0
  0
HATCH
  5
360
330
31C
100
AcDbEntity
  8
Stone
  6
Continuous
 62
   253
370
     0
100
AcDbHatch
 10
0.0
 20
0.0
 30
0.0
210
0.0
220
0.0
230
1.0
  2
SOLID
 70
     1
 71
     1
 91
        1
 92
        1
 93
        1
 72
     4
 94
        3
 73
     0
 74
     0
 95
       16
 96
       12
 40
0.0
 40
0.0
 40
0.0
 40
0.0
 40
0.1437434584645995
 40
0.3445330308853487
 40
0.450335275590827
 40
0.5248323335844883
 40
0.625132955522579
 40
0.7205080024224297
 40
0.802146311666328
 40
0.8523437047715147
 40
1.0
 40
1.0
 40
1.0
 40
1.0
 10
-3531.239233651146
 20
1327.109928139199
 10
-3531.125968331025
 20
1327.313176764922
 10
-3533.16857476144
 20
1327.919161137816
 10
-3534.724451610474
 20
1328.388371211679
 10
-3535.60366159932
 20
1326.723445086564
 10
-3534.758400164618
 20
1325.981415569991
 10
-3534.50241402417
 20
1324.845251262779
 10
-3533.275654379469
 20
1324.931495837205
 10
-3532.490703577328
 20
1325.537004909952
 10
-3532.876561050304
 20
1326.691483250231
 10
-3531.355582163459
 20
1326.901146888175
 10
-3531.239233651146
 20
1327.109928139199
 97
        1
330
176
 75
     0
 76
     1
 98
        0
  0
SPLINE
  5
176
102
{ACAD_REACTORS
330
360
102
}
330
31C
100
AcDbEntity
  8
Stone
  6
Continuous
370
     0
100
AcDbSpline
210
0.0
220
0.0
230
1.0
 70
    11
 71
     3
 72
    16
 73
    12
 74
     0
 42
0.0000000001
 43
0.00000001
 40
0.0
 40
0.0
 40
0.0
 40
0.0
 40
0.1437434584645995
 40
0.3445330308853487
 40
0.450335275590827
 40
0.5248323335844883
 40
0.625132955522579
 40
0.7205080024224297
 40
0.802146311666328
 40
0.8523437047715147
 40
1.0
 40
1.0
 40
1.0
 40
1.0
 10
-3531.239233651146
 20
1327.109928139199
 30
0.0
 10
-3531.125968331025
 20
1327.313176764922
 30
0.0
 10
-3533.16857476144
 20
1327.919161137816
 30
0.0
 10
-3534.724451610474
 20
1328.388371211679
 30
0.0
 10
-3535.60366159932
 20
1326.723445086564
 30
0.0
 10
-3534.758400164618
 20
1325.981415569991
 30
0.0
 10
-3534.50241402417
 20
1324.845251262779
 30
0.0
 10
-3533.275654379469
 20
1324.931495837205
 30
0.0
 10
-3532.490703577328
 20
1325.537004909952
 30
0.0
 10
-3532.876561050304
 20
1326.691483250231
 30
0.0
 10
-3531.355582163459
 20
1326.901146888175
 30
0.0
 10
-3531.239233651146
 20
1327.109928139199
 30
0.0
  0
HATCH
  5
361
330
31C
100
AcDbEntity
  8
Stone
  6
Continuous
 62
   253
370
     0
100
AcDbHatch
 10
0.0
 20
0.0
 30
0.0
210
0.0
220
0.0
230
1.0
  2
SOLID
 70
     1
 71
     1
 91
        1
 92
        1
 93
        1
 72
     4
 94
        3
 73
     0
 74
     0
 95
       17
 96
       13
 40
0.0
 40
0.0
 40
0.0
 40
0.0
 40
0.1382114500546075
 40
0.3119487923882392
 40
0.3987585628784889
 40
0.4823260700554706
 40
0.5658935772324537
 40
0.6223886269992022
 40
0.7214874998973523
 40
0.8245005545065044
 40
0.9289599384777316
 40
1.0
 40
1.0
 40
1.0
 40
1.0
 10
-3536.788406712422
 20
1325.72263487388
 10
-3536.379449324087
 20
1325.984221695662
 10
-3535.825069355545
 20
1327.380623648243
 10
-3537.36486536955
 20
1328.257774947887
 10
-3538.374354363408
 20
1328.663504004032
 10
-3539.517156682266
 20
1328.942075864615
 10
-3539.580872604728
 20
1327.697484546105
 10
-3538.461555816168
 20
1327.464953122404
 10
-3539.528707938261
 20
1326.413003349696
 10
-3538.6611894536
 20
1325.261231110828
 10
-3537.624501856988
 20
1325.489087559989
 10
-3536.998608964231
 20
1325.588180428134
 10
-3536.788406712422
 20
1325.72263487388
 97
        1
330
179
 75
     0
 76
     1
 98
        0
  0
SPLINE
  5
179
102
{ACAD_REACTORS
330
361
102
}
330
31C
100
AcDbEntity
  8
Stone
  6
Continuous
370
     0
100
AcDbSpline
210
0.0
220
0.0
230
1.0
 70
    11
 71
     3
 72
    17
 73
    13
 74
     0
 42
0.0000000001
 43
0.00000001
 40
0.0
 40
0.0
 40
0.0
 40
0.0
 40
0.1382114500546075
 40
0.3119487923882392
 40
0.3987585628784889
 40
0.4823260700554706
 40
0.5658935772324537
 40
0.6223886269992022
 40
0.7214874998973523
 40
0.8245005545065044
 40
0.9289599384777316
 40
1.0
 40
1.0
 40
1.0
 40
1.0
 10
-3536.788406712422
 20
1325.72263487388
 30
0.0
 10
-3536.379449324087
 20
1325.984221695662
 30
0.0
 10
-3535.825069355545
 20
1327.380623648243
 30
0.0
 10
-3537.36486536955
 20
1328.257774947887
 30
0.0
 10
-3538.374354363408
 20
1328.663504004032
 30
0.0
 10
-3539.517156682266
 20
1328.942075864615
 30
0.0
 10
-3539.580872604728
 20
1327.697484546105
 30
0.0
 10
-3538.461555816168
 20
1327.464953122404
 30
0.0
 10
-3539.528707938261
 20
1326.413003349696
 30
0.0
 10
-3538.6611894536
 20
1325.261231110828
 30
0.0
 10
-3537.624501856988
 20
1325.489087559989
 30
0.0
 10
-3536.998608964231
 20
1325.588180428134
 30
0.0
 10
-3536.788406712422
 20
1325.72263487388
 30
0.0
  0
HATCH
  5
362
330
31C
100
AcDbEntity
  8
Stone
  6
Continuous
 62
   253
370
     0
100
AcDbHatch
 10
0.0
 20
0.0
 30
0.0
210
0.0
220
0.0
230
1.0
  2
SOLID
 70
     1
 71
     1
 91
        1
 92
        1
 93
        1
 72
     4
 94
        3
 73
     0
 74
     0
 95
       12
 96
        8
 40
0.0
 40
0.0
 40
0.0
 40
0.0
 40
0.2414740853609974
 40
0.3947553138380694
 40
0.5964981719006806
 40
0.6640070559800992
 40
1.0
 40
1.0
 40
1.0
 40
1.0
 10
-3531.239233651146
 20
1327.109928139199
 10
-3530.600575623369
 20
1327.717561668508
 10
-3530.658413256154
 20
1330.001806816107
 10
-3533.039141625017
 20
1330.134617733854
 10
-3534.743236756703
 20
1329.409349340416
 10
-3534.762251523725
 20
1327.085090657228
 10
-3532.127878039855
 20
1326.264451995899
 10
-3531.239233651146
 20
1327.109928139199
 97
        1
330
17C
 75
     0
 76
     1
 98
        0
  0
SPLINE
  5
17C
102
{ACAD_REACTORS
330
362
102
}
330
31C
100
AcDbEntity
  8
Stone
  6
Continuous
370
     0
100
AcDbSpline
210
0.0
220
0.0
230
1.0
 70
    11
 71
     3
 72
    12
 73
     8
 74
     0
 42
0.0000000001
 43
0.00000001
 40
0.0
 40
0.0
 40
0.0
 40
0.0
 40
0.2414740853609974
 40
0.3947553138380694
 40
0.5964981719006806
 40
0.6640070559800992
 40
1.0
 40
1.0
 40
1.0
 40
1.0
 10
-3531.239233651146
 20
1327.109928139199
 30
0.0
 10
-3530.600575623369
 20
1327.717561668508
 30
0.0
 10
-3530.658413256154
 20
1330.001806816107
 30
0.0
 10
-3533.039141625017
 20
1330.134617733854
 30
0.0
 10
-3534.743236756703
 20
1329.409349340416
 30
0.0
 10
-3534.762251523725
 20
1327.085090657228
 30
0.0
 10
-3532.127878039855
 20
1326.264451995899
 30
0.0
 10
-3531.239233651146
 20
1327.109928139199
 30
0.0
  0
HATCH
  5
363
330
31C
100
AcDbEntity
  8
Stone
  6
Continuous
 62
   253
370
     0
100
AcDbHatch
 10
0.0
 20
0.0
 30
0.0
210
0.0
220
0.0
230
1.0
  2
SOLID
 70
     1
 71
     1
 91
        1
 92
        1
 93
        1
 72
     4
 94
        3
 73
     0
 74
     0
 95
       13
 96
        9
 40
0.0
 40
0.0
 40
0.0
 40
0.0
 40
0.0892536476867376
 40
0.3335777996225227
 40
0.5268780310791469
 40
0.6522999444817853
 40
0.7425113214306048
 40
1.0
 40
1.0
 40
1.0
 40
1.0
 10
-3528.464647120508
 20
1327.775828906552
 10
-3528.169182163704
 20
1327.959726915854
 10
-3527.388770349023
 20
1328.881280558125
 10
-3529.03359239787
 20
1330.703049408201
 10
-3532.022895441855
 20
1330.489915000297
 10
-3530.880844244986
 20
1328.99047385343
 10
-3531.441931869226
 20
1327.23330164906
 10
-3529.317036723205
 20
1327.245299828647
 10
-3528.464647120508
 20
1327.775828906552
 97
        1
330
17F
 75
     0
 76
     1
 98
        0
  0
SPLINE
  5
17F
102
{ACAD_REACTORS
330
363
102
}
330
31C
100
AcDbEntity
  8
Stone
  6
Continuous
370
     0
100
AcDbSpline
210
0.0
220
0.0
230
1.0
 70
    11
 71
     3
 72
    13
 73
     9
 74
     0
 42
0.0000000001
 43
0.00000001
 40
0.0
 40
0.0
 40
0.0
 40
0.0
 40
0.0892536476867376
 40
0.3335777996225227
 40
0.5268780310791469
 40
0.6522999444817853
 40
0.7425113214306048
 40
1.0
 40
1.0
 40
1.0
 40
1.0
 10
-3528.464647120508
 20
1327.775828906552
 30
0.0
 10
-3528.169182163704
 20
1327.959726915854
 30
0.0
 10
-3527.388770349023
 20
1328.881280558125
 30
0.0
 10
-3529.03359239787
 20
1330.703049408201
 30
0.0
 10
-3532.022895441855
 20
1330.489915000297
 30
0.0
 10
-3530.880844244986
 20
1328.99047385343
 30
0.0
 10
-3531.441931869226
 20
1327.23330164906
 30
0.0
 10
-3529.317036723205
 20
1327.245299828647
 30
0.0
 10
-3528.464647120508
 20
1327.775828906552
 30
0.0
  0
HATCH
  5
364
330
31C
100
AcDbEntity
  8
Stone
  6
Continuous
 62
   253
370
     0
100
AcDbHatch
 10
0.0
 20
0.0
 30
0.0
210
0.0
220
0.0
230
1.0
  2
SOLID
 70
     1
 71
     1
 91
        1
 92
        1
 93
        1
 72
     4
 94
        3
 73
     0
 74
     0
 95
       14
 96
       10
 40
0.0
 40
0.0
 40
0.0
 40
0.0
 40
0.1801041930148165
 40
0.3742231481839138
 40
0.4796076653274731
 40
0.5949521969778555
 40
0.713965965073455
 40
0.8159469256903019
 40
1.0
 40
1.0
 40
1.0
 40
1.0
 10
-3534.059748350629
 20
1329.5890898444
 10
-3534.166950751215
 20
1330.001429386619
 10
-3535.713548645818
 20
1330.488394889196
 10
-3537.669112712151
 20
1330.328400899028
 10
-3537.550858384333
 20
1328.732513639769
 10
-3536.970245160503
 20
1327.826254295341
 10
-3535.774119921928
 20
1327.229871764221
 10
-3534.81400043947
 20
1328.223998602969
 10
-3533.950195479755
 20
1329.167709535954
 10
-3534.059748350629
 20
1329.5890898444
 97
        1
330
182
 75
     0
 76
     1
 98
        0
  0
SPLINE
  5
182
102
{ACAD_REACTORS
330
364
102
}
330
31C
100
AcDbEntity
  8
Stone
  6
Continuous
370
     0
100
AcDbSpline
210
0.0
220
0.0
230
1.0
 70
    11
 71
     3
 72
    14
 73
    10
 74
     0
 42
0.0000000001
 43
0.00000001
 40
0.0
 40
0.0
 40
0.0
 40
0.0
 40
0.1801041930148165
 40
0.3742231481839138
 40
0.4796076653274731
 40
0.5949521969778555
 40
0.713965965073455
 40
0.8159469256903019
 40
1.0
 40
1.0
 40
1.0
 40
1.0
 10
-3534.059748350629
 20
1329.5890898444
 30
0.0
 10
-3534.166950751215
 20
1330.001429386619
 30
0.0
 10
-3535.713548645818
 20
1330.488394889196
 30
0.0
 10
-3537.669112712151
 20
1330.328400899028
 30
0.0
 10
-3537.550858384333
 20
1328.732513639769
 30
0.0
 10
-3536.970245160503
 20
1327.826254295341
 30
0.0
 10
-3535.774119921928
 20
1327.229871764221
 30
0.0
 10
-3534.81400043947
 20
1328.223998602969
 30
0.0
 10
-3533.950195479755
 20
1329.167709535954
 30
0.0
 10
-3534.059748350629
 20
1329.5890898444
 30
0.0
  0
HATCH
  5
365
330
31C
100
AcDbEntity
  8
Stone
  6
Continuous
 62
   253
370
     0
100
AcDbHatch
 10
0.0
 20
0.0
 30
0.0
210
0.0
220
0.0
230
1.0
  2
SOLID
 70
     1
 71
     1
 91
        1
 92
        1
 93
        1
 72
     4
 94
        3
 73
     0
 74
     0
 95
       19
 96
       15
 40
0.0
 40
0.0
 40
0.0
 40
0.0
 40
0.0859733099484412
 40
0.2039497946143985
 40
0.2983390234190617
 40
0.3496739207648252
 40
0.4687708826069975
 40
0.5551356496051167
 40
0.6292003614491308
 40
0.7072564191056369
 40
0.7706461837845734
 40
0.846204456524674
 40
0.9198123269285085
 40
1.0
 40
1.0
 40
1.0
 40
1.0
 10
-3535.539842773635
 20
1330.494923706577
 10
-3535.158159335318
 20
1330.606731359173
 10
-3534.263824383708
 20
1331.703258533787
 10
-3536.137618687486
 20
1332.08560604802
 10
-3537.24862166674
 20
1332.823225012392
 10
-3536.787028887901
 20
1334.254330364902
 10
-3539.008723263248
 20
1334.123123154743
 10
-3538.929686396414
 20
1332.726243330367
 10
-3540.42076491494
 20
1332.074634989525
 10
-3538.946651392115
 20
1331.265583305674
 10
-3538.137380867865
 20
1332.297235092023
 10
-3537.496734518069
 20
1331.09041773963
 10
-3536.586440073211
 20
1330.775309989471
 10
-3535.89584054535
 20
1330.390640231873
 10
-3535.539842773635
 20
1330.494923706577
 97
        1
330
185
 75
     0
 76
     1
 98
        0
  0
SPLINE
  5
185
102
{ACAD_REACTORS
330
365
102
}
330
31C
100
AcDbEntity
  8
Stone
  6
Continuous
370
     0
100
AcDbSpline
210
0.0
220
0.0
230
1.0
 70
    11
 71
     3
 72
    19
 73
    15
 74
     0
 42
0.0000000001
 43
0.00000001
 40
0.0
 40
0.0
 40
0.0
 40
0.0
 40
0.0859733099484412
 40
0.2039497946143985
 40
0.2983390234190617
 40
0.3496739207648252
 40
0.4687708826069975
 40
0.5551356496051167
 40
0.6292003614491308
 40
0.7072564191056369
 40
0.7706461837845734
 40
0.846204456524674
 40
0.9198123269285085
 40
1.0
 40
1.0
 40
1.0
 40
1.0
 10
-3535.539842773635
 20
1330.494923706577
 30
0.0
 10
-3535.158159335318
 20
1330.606731359173
 30
0.0
 10
-3534.263824383708
 20
1331.703258533787
 30
0.0
 10
-3536.137618687486
 20
1332.08560604802
 30
0.0
 10
-3537.24862166674
 20
1332.823225012392
 30
0.0
 10
-3536.787028887901
 20
1334.254330364902
 30
0.0
 10
-3539.008723263248
 20
1334.123123154743
 30
0.0
 10
-3538.929686396414
 20
1332.726243330367
 30
0.0
 10
-3540.42076491494
 20
1332.074634989525
 30
0.0
 10
-3538.946651392115
 20
1331.265583305674
 30
0.0
 10
-3538.137380867865
 20
1332.297235092023
 30
0.0
 10
-3537.496734518069
 20
1331.09041773963
 30
0.0
 10
-3536.586440073211
 20
1330.775309989471
 30
0.0
 10
-3535.89584054535
 20
1330.390640231873
 30
0.0
 10
-3535.539842773635
 20
1330.494923706577
 30
0.0
  0
HATCH
  5
366
330
31C
100
AcDbEntity
  8
Stone
  6
Continuous
 62
   253
370
     0
100
AcDbHatch
 10
0.0
 20
0.0
 30
0.0
210
0.0
220
0.0
230
1.0
  2
SOLID
 70
     1
 71
     1
 91
        1
 92
        1
 93
        1
 72
     4
 94
        3
 73
     0
 74
     0
 95
       14
 96
       10
 40
0.0
 40
0.0
 40
0.0
 40
0.0
 40
0.1405282531349814
 40
0.289194491178433
 40
0.5310222069843653
 40
0.6579055286847605
 40
0.7733540778061891
 40
0.7973150974351652
 40
1.0
 40
1.0
 40
1.0
 40
1.0
 10
-3529.463498271537
 20
1330.522669571883
 10
-3528.720116955341
 20
1330.681004942222
 10
-3527.540533073307
 20
1330.642083437203
 10
-3526.908635797236
 20
1334.164483687199
 10
-3529.865393182394
 20
1332.274305811594
 10
-3532.449348143752
 20
1332.623183922258
 10
-3532.000628485523
 20
1331.146587369258
 10
-3532.130500789818
 20
1329.62662518395
 10
-3530.535682450025
 20
1330.294301337072
 10
-3529.463498271537
 20
1330.522669571883
 97
        1
330
188
 75
     0
 76
     1
 98
        0
  0
SPLINE
  5
188
102
{ACAD_REACTORS
330
366
102
}
330
31C
100
AcDbEntity
  8
Stone
  6
Continuous
370
     0
100
AcDbSpline
210
0.0
220
0.0
230
1.0
 70
    11
 71
     3
 72
    14
 73
    10
 74
     0
 42
0.0000000001
 43
0.00000001
 40
0.0
 40
0.0
 40
0.0
 40
0.0
 40
0.1405282531349814
 40
0.289194491178433
 40
0.5310222069843653
 40
0.6579055286847605
 40
0.7733540778061891
 40
0.7973150974351652
 40
1.0
 40
1.0
 40
1.0
 40
1.0
 10
-3529.463498271537
 20
1330.522669571883
 30
0.0
 10
-3528.720116955341
 20
1330.681004942222
 30
0.0
 10
-3527.540533073307
 20
1330.642083437203
 30
0.0
 10
-3526.908635797236
 20
1334.164483687199
 30
0.0
 10
-3529.865393182394
 20
1332.274305811594
 30
0.0
 10
-3532.449348143752
 20
1332.623183922258
 30
0.0
 10
-3532.000628485523
 20
1331.146587369258
 30
0.0
 10
-3532.130500789818
 20
1329.62662518395
 30
0.0
 10
-3530.535682450025
 20
1330.294301337072
 30
0.0
 10
-3529.463498271537
 20
1330.522669571883
 30
0.0
  0
HATCH
  5
367
330
31C
100
AcDbEntity
  8
Stone
  6
Continuous
 62
   253
370
     0
100
AcDbHatch
 10
0.0
 20
0.0
 30
0.0
210
0.0
220
0.0
230
1.0
  2
SOLID
 70
     1
 71
     1
 91
        1
 92
        1
 93
        1
 72
     4
 94
        3
 73
     0
 74
     0
 95
       12
 96
        8
 40
0.0
 40
0.0
 40
0.0
 40
0.0
 40
0.1605736814800095
 40
0.4191399768893929
 40
0.5292926136291746
 40
0.7056228681605818
 40
1.0
 40
1.0
 40
1.0
 40
1.0
 10
-3532.210338936869
 20
1331.798979375977
 10
-3532.192863381528
 20
1332.331724457157
 10
-3532.989430268402
 20
1333.662583007439
 10
-3535.339990792767
 20
1332.72847534879
 10
-3535.212387051366
 20
1331.010902165266
 10
-3534.02752025998
 20
1329.13760125085
 10
-3532.242376589686
 20
1330.82230643958
 10
-3532.210338936869
 20
1331.798979375977
 97
        1
330
18B
 75
     0
 76
     1
 98
        0
  0
SPLINE
  5
18B
102
{ACAD_REACTORS
330
367
102
}
330
31C
100
AcDbEntity
  8
Stone
  6
Continuous
370
     0
100
AcDbSpline
210
0.0
220
0.0
230
1.0
 70
    11
 71
     3
 72
    12
 73
     8
 74
     0
 42
0.0000000001
 43
0.00000001
 40
0.0
 40
0.0
 40
0.0
 40
0.0
 40
0.1605736814800095
 40
0.4191399768893929
 40
0.5292926136291746
 40
0.7056228681605818
 40
1.0
 40
1.0
 40
1.0
 40
1.0
 10
-3532.210338936869
 20
1331.798979375977
 30
0.0
 10
-3532.192863381528
 20
1332.331724457157
 30
0.0
 10
-3532.989430268402
 20
1333.662583007439
 30
0.0
 10
-3535.339990792767
 20
1332.72847534879
 30
0.0
 10
-3535.212387051366
 20
1331.010902165266
 30
0.0
 10
-3534.02752025998
 20
1329.13760125085
 30
0.0
 10
-3532.242376589686
 20
1330.82230643958
 30
0.0
 10
-3532.210338936869
 20
1331.798979375977
 30
0.0
  0
HATCH
  5
368
330
31C
100
AcDbEntity
  8
Stone
  6
Continuous
 62
   253
370
     0
100
AcDbHatch
 10
0.0
 20
0.0
 30
0.0
210
0.0
220
0.0
230
1.0
  2
SOLID
 70
     1
 71
     1
 91
        1
 92
        1
 93
        1
 72
     4
 94
        3
 73
     0
 74
     0
 95
       12
 96
        8
 40
0.0
 40
0.0
 40
0.0
 40
0.0
 40
0.3028919575171237
 40
0.4109581106216819
 40
0.59313898825261
 40
0.8404219073466989
 40
1.0
 40
1.0
 40
1.0
 40
1.0
 10
-3533.542140471576
 20
1341.648761559742
 10
-3533.821950072583
 20
1342.319207765296
 10
-3536.178605077176
 20
1340.497327303223
 10
-3539.337548837244
 20
1341.305193231522
 10
-3536.770591899328
 20
1338.338351805044
 10
-3534.050070166847
 20
1338.970204156205
 10
-3533.394723277666
 20
1341.295538160923
 10
-3533.542140471576
 20
1341.648761559742
 97
        1
330
18E
 75
     0
 76
     1
 98
        0
  0
SPLINE
  5
18E
102
{ACAD_REACTORS
330
368
102
}
330
31C
100
AcDbEntity
  8
Stone
  6
Continuous
370
     0
100
AcDbSpline
210
0.0
220
0.0
230
1.0
 70
    11
 71
     3
 72
    12
 73
     8
 74
     0
 42
0.0000000001
 43
0.00000001
 40
0.0
 40
0.0
 40
0.0
 40
0.0
 40
0.3028919575171237
 40
0.4109581106216819
 40
0.59313898825261
 40
0.8404219073466989
 40
1.0
 40
1.0
 40
1.0
 40
1.0
 10
-3533.542140471576
 20
1341.648761559742
 30
0.0
 10
-3533.821950072583
 20
1342.319207765296
 30
0.0
 10
-3536.178605077176
 20
1340.497327303223
 30
0.0
 10
-3539.337548837244
 20
1341.305193231522
 30
0.0
 10
-3536.770591899328
 20
1338.338351805044
 30
0.0
 10
-3534.050070166847
 20
1338.970204156205
 30
0.0
 10
-3533.394723277666
 20
1341.295538160923
 30
0.0
 10
-3533.542140471576
 20
1341.648761559742
 30
0.0
  0
HATCH
  5
369
330
31C
100
AcDbEntity
  8
Stone
  6
Continuous
 62
   253
370
     0
100
AcDbHatch
 10
0.0
 20
0.0
 30
0.0
210
0.0
220
0.0
230
1.0
  2
SOLID
 70
     1
 71
     1
 91
        1
 92
        1
 93
        1
 72
     4
 94
        3
 73
     0
 74
     0
 95
       13
 96
        9
 40
0.0
 40
0.0
 40
0.0
 40
0.0
 40
0.1993837412933489
 40
0.4664042187160338
 40
0.6546351880777734
 40
0.780806009210179
 40
0.955432822067032
 40
1.0
 40
1.0
 40
1.0
 40
1.0
 10
-3532.265830667482
 20
1337.098439649496
 10
-3531.58165923684
 20
1337.110681424063
 10
-3530.648915801953
 20
1339.101447012575
 10
-3532.19542396647
 20
1341.941203651464
 10
-3534.99341974779
 20
1339.84279906144
 10
-3532.88346091372
 20
1338.940174258765
 10
-3533.24104888776
 20
1337.28836477559
 10
-3532.418759836573
 20
1337.095703311308
 10
-3532.265830667482
 20
1337.098439649496
 97
        1
330
191
 75
     0
 76
     1
 98
        0
  0
SPLINE
  5
191
102
{ACAD_REACTORS
330
369
102
}
330
31C
100
AcDbEntity
  8
Stone
  6
Continuous
370
     0
100
AcDbSpline
210
0.0
220
0.0
230
1.0
 70
    11
 71
     3
 72
    13
 73
     9
 74
     0
 42
0.0000000001
 43
0.00000001
 40
0.0
 40
0.0
 40
0.0
 40
0.0
 40
0.1993837412933489
 40
0.4664042187160338
 40
0.6546351880777734
 40
0.780806009210179
 40
0.955432822067032
 40
1.0
 40
1.0
 40
1.0
 40
1.0
 10
-3532.265830667482
 20
1337.098439649496
 30
0.0
 10
-3531.58165923684
 20
1337.110681424063
 30
0.0
 10
-3530.648915801953
 20
1339.101447012575
 30
0.0
 10
-3532.19542396647
 20
1341.941203651464
 30
0.0
 10
-3534.99341974779
 20
1339.84279906144
 30
0.0
 10
-3532.88346091372
 20
1338.940174258765
 30
0.0
 10
-3533.24104888776
 20
1337.28836477559
 30
0.0
 10
-3532.418759836573
 20
1337.095703311308
 30
0.0
 10
-3532.265830667482
 20
1337.098439649496
 30
0.0
  0
HATCH
  5
36A
330
31C
100
AcDbEntity
  8
Stone
  6
Continuous
 62
   253
370
     0
100
AcDbHatch
 10
0.0
 20
0.0
 30
0.0
210
0.0
220
0.0
230
1.0
  2
SOLID
 70
     1
 71
     1
 91
        1
 92
        1
 93
        1
 72
     4
 94
        3
 73
     0
 74
     0
 95
       13
 96
        9
 40
0.0
 40
0.0
 40
0.0
 40
0.0
 40
0.2204972422691855
 40
0.3095348163356922
 40
0.5064392523667778
 40
0.7280571994018581
 40
0.8330545486252989
 40
1.0
 40
1.0
 40
1.0
 40
1.0
 10
-3538.536396226724
 20
1334.878770424985
 10
-3537.866973942933
 20
1334.981344654964
 10
-3537.645739129493
 20
1336.737391739892
 10
-3535.269751654636
 20
1336.044029326421
 10
-3537.711564501855
 20
1338.742128215496
 10
-3538.977847673088
 20
1337.055399337336
 10
-3540.34678022536
 20
1335.746907954199
 10
-3539.04323705692
 20
1334.801108224102
 10
-3538.536396226724
 20
1334.878770424985
 97
        1
330
194
 75
     0
 76
     1
 98
        0
  0
SPLINE
  5
194
102
{ACAD_REACTORS
330
36A
102
}
330
31C
100
AcDbEntity
  8
Stone
  6
Continuous
370
     0
100
AcDbSpline
210
0.0
220
0.0
230
1.0
 70
    11
 71
     3
 72
    13
 73
     9
 74
     0
 42
0.0000000001
 43
0.00000001
 40
0.0
 40
0.0
 40
0.0
 40
0.0
 40
0.2204972422691855
 40
0.3095348163356922
 40
0.5064392523667778
 40
0.7280571994018581
 40
0.8330545486252989
 40
1.0
 40
1.0
 40
1.0
 40
1.0
 10
-3538.536396226724
 20
1334.878770424985
 30
0.0
 10
-3537.866973942933
 20
1334.981344654964
 30
0.0
 10
-3537.645739129493
 20
1336.737391739892
 30
0.0
 10
-3535.269751654636
 20
1336.044029326421
 30
0.0
 10
-3537.711564501855
 20
1338.742128215496
 30
0.0
 10
-3538.977847673088
 20
1337.055399337336
 30
0.0
 10
-3540.34678022536
 20
1335.746907954199
 30
0.0
 10
-3539.04323705692
 20
1334.801108224102
 30
0.0
 10
-3538.536396226724
 20
1334.878770424985
 30
0.0
  0
HATCH
  5
36B
330
31C
100
AcDbEntity
  8
Stone
  6
Continuous
 62
   253
370
     0
100
AcDbHatch
 10
0.0
 20
0.0
 30
0.0
210
0.0
220
0.0
230
1.0
  2
SOLID
 70
     1
 71
     1
 91
        1
 92
        1
 93
        1
 72
     4
 94
        3
 73
     0
 74
     0
 95
       12
 96
        8
 40
0.0
 40
0.0
 40
0.0
 40
0.0
 40
0.1608432640079991
 40
0.3118466192848475
 40
0.4863056337763586
 40
0.6949521872194138
 40
1.0
 40
1.0
 40
1.0
 40
1.0
 10
-3536.705169116503
 20
1333.325001967828
 10
-3535.908831724002
 20
1333.607520906556
 10
-3534.545910041128
 20
1334.316356293396
 10
-3536.872572373985
 20
1335.659868114292
 10
-3538.58420916019
 20
1335.05907091766
 10
-3541.324352083909
 20
1332.390130981543
 10
-3538.215465374889
 20
1332.789189760461
 10
-3536.705169116503
 20
1333.325001967828
 97
        1
330
197
 75
     0
 76
     1
 98
        0
  0
SPLINE
  5
197
102
{ACAD_REACTORS
330
36B
102
}
330
31C
100
AcDbEntity
  8
Stone
  6
Continuous
370
     0
100
AcDbSpline
210
0.0
220
0.0
230
1.0
 70
    11
 71
     3
 72
    12
 73
     8
 74
     0
 42
0.0000000001
 43
0.00000001
 40
0.0
 40
0.0
 40
0.0
 40
0.0
 40
0.1608432640079991
 40
0.3118466192848475
 40
0.4863056337763586
 40
0.6949521872194138
 40
1.0
 40
1.0
 40
1.0
 40
1.0
 10
-3536.705169116503
 20
1333.325001967828
 30
0.0
 10
-3535.908831724002
 20
1333.607520906556
 30
0.0
 10
-3534.545910041128
 20
1334.316356293396
 30
0.0
 10
-3536.872572373985
 20
1335.659868114292
 30
0.0
 10
-3538.58420916019
 20
1335.05907091766
 30
0.0
 10
-3541.324352083909
 20
1332.390130981543
 30
0.0
 10
-3538.215465374889
 20
1332.789189760461
 30
0.0
 10
-3536.705169116503
 20
1333.325001967828
 30
0.0
  0
HATCH
  5
36C
330
31C
100
AcDbEntity
  8
Stone
  6
Continuous
 62
   253
370
     0
100
AcDbHatch
 10
0.0
 20
0.0
 30
0.0
210
0.0
220
0.0
230
1.0
  2
SOLID
 70
     1
 71
     1
 91
        1
 92
        1
 93
        1
 72
     4
 94
        3
 73
     0
 74
     0
 95
       15
 96
       11
 40
0.0
 40
0.0
 40
0.0
 40
0.0
 40
0.0629476675423247
 40
0.1814201651041023
 40
0.3503264814837387
 40
0.5095728837467765
 40
0.6224894509140584
 40
0.7503281585262435
 40
0.8930095382888442
 40
1.0
 40
1.0
 40
1.0
 40
1.0
 10
-3533.042714896061
 20
1333.824427543343
 10
-3532.990456796182
 20
1333.909903993474
 10
-3533.2571897824
 20
1335.075192004348
 10
-3531.641536690618
 20
1336.335020111693
 10
-3534.686043000337
 20
1337.446763434635
 10
-3536.059662849579
 20
1336.655533420913
 10
-3538.265979363136
 20
1335.337465537143
 10
-3535.702798601788
 20
1334.414646417434
 10
-3534.315023021754
 20
1335.489608149111
 10
-3533.131536586402
 20
1333.679145514286
 10
-3533.042714896061
 20
1333.824427543343
 97
        1
330
19A
 75
     0
 76
     1
 98
        0
  0
SPLINE
  5
19A
102
{ACAD_REACTORS
330
36C
102
}
330
31C
100
AcDbEntity
  8
Stone
  6
Continuous
370
     0
100
AcDbSpline
210
0.0
220
0.0
230
1.0
 70
    11
 71
     3
 72
    15
 73
    11
 74
     0
 42
0.0000000001
 43
0.00000001
 40
0.0
 40
0.0
 40
0.0
 40
0.0
 40
0.0629476675423247
 40
0.1814201651041023
 40
0.3503264814837387
 40
0.5095728837467765
 40
0.6224894509140584
 40
0.7503281585262435
 40
0.8930095382888442
 40
1.0
 40
1.0
 40
1.0
 40
1.0
 10
-3533.042714896061
 20
1333.824427543343
 30
0.0
 10
-3532.990456796182
 20
1333.909903993474
 30
0.0
 10
-3533.2571897824
 20
1335.075192004348
 30
0.0
 10
-3531.641536690618
 20
1336.335020111693
 30
0.0
 10
-3534.686043000337
 20
1337.446763434635
 30
0.0
 10
-3536.059662849579
 20
1336.655533420913
 30
0.0
 10
-3538.265979363136
 20
1335.337465537143
 30
0.0
 10
-3535.702798601788
 20
1334.414646417434
 30
0.0
 10
-3534.315023021754
 20
1335.489608149111
 30
0.0
 10
-3533.131536586402
 20
1333.679145514286
 30
0.0
 10
-3533.042714896061
 20
1333.824427543343
 30
0.0
  0
HATCH
  5
36D
330
31C
100
AcDbEntity
  8
Stone
  6
Continuous
 62
   253
370
     0
100
AcDbHatch
 10
0.0
 20
0.0
 30
0.0
210
0.0
220
0.0
230
1.0
  2
SOLID
 70
     1
 71
     1
 91
        1
 92
        1
 93
        1
 72
     4
 94
        3
 73
     0
 74
     0
 95
       13
 96
        9
 40
0.0
 40
0.0
 40
0.0
 40
0.0
 40
0.233470229026416
 40
0.4107818806165876
 40
0.6355113311957584
 40
0.7876593725557878
 40
0.8952442843457166
 40
1.0
 40
1.0
 40
1.0
 40
1.0
 10
-3531.21148778584
 20
1332.714592931088
 10
-3530.575669964064
 20
1332.526724811438
 10
-3528.776501569439
 20
1333.563795582293
 10
-3530.594169586887
 20
1335.737444064923
 10
-3531.616298000924
 20
1334.270066944565
 10
-3533.571624642882
 20
1332.873459468976
 10
-3531.917221822328
 20
1333.286952698847
 10
-3531.496772771526
 20
1332.798887444373
 10
-3531.21148778584
 20
1332.714592931088
 97
        1
330
19D
 75
     0
 76
     1
 98
        0
  0
SPLINE
  5
19D
102
{ACAD_REACTORS
330
36D
102
}
330
31C
100
AcDbEntity
  8
Stone
  6
Continuous
370
     0
100
AcDbSpline
210
0.0
220
0.0
230
1.0
 70
    11
 71
     3
 72
    13
 73
     9
 74
     0
 42
0.0000000001
 43
0.00000001
 40
0.0
 40
0.0
 40
0.0
 40
0.0
 40
0.233470229026416
 40
0.4107818806165876
 40
0.6355113311957584
 40
0.7876593725557878
 40
0.8952442843457166
 40
1.0
 40
1.0
 40
1.0
 40
1.0
 10
-3531.21148778584
 20
1332.714592931088
 30
0.0
 10
-3530.575669964064
 20
1332.526724811438
 30
0.0
 10
-3528.776501569439
 20
1333.563795582293
 30
0.0
 10
-3530.594169586887
 20
1335.737444064923
 30
0.0
 10
-3531.616298000924
 20
1334.270066944565
 30
0.0
 10
-3533.571624642882
 20
1332.873459468976
 30
0.0
 10
-3531.917221822328
 20
1333.286952698847
 30
0.0
 10
-3531.496772771526
 20
1332.798887444373
 30
0.0
 10
-3531.21148778584
 20
1332.714592931088
 30
0.0
  0
HATCH
  5
36E
330
31C
100
AcDbEntity
  8
Stone
  6
Continuous
 62
   253
370
     0
100
AcDbHatch
 10
0.0
 20
0.0
 30
0.0
210
0.0
220
0.0
230
1.0
  2
SOLID
 70
     1
 71
     1
 91
        1
 92
        1
 93
        1
 72
     4
 94
        3
 73
     0
 74
     0
 95
       14
 96
       10
 40
0.0
 40
0.0
 40
0.0
 40
0.0
 40
0.1972286541924616
 40
0.2996001050218137
 40
0.4541611266015571
 40
0.5991873486097998
 40
0.7601490712073586
 40
0.871051476272487
 40
1.0
 40
1.0
 40
1.0
 40
1.0
 10
-3531.032515812864
 20
1334.957645621504
 10
-3530.168165621576
 20
1335.358433878953
 10
-3529.619838815777
 20
1336.61142086031
 10
-3526.616807702897
 20
1335.915103309962
 10
-3529.198127989587
 20
1337.968885784296
 10
-3530.930991652078
 20
1337.577281597105
 10
-3532.881660796425
 20
1336.928900726416
 10
-3533.049007486289
 20
1334.545376253255
 10
-3531.597629850713
 20
1334.695609385761
 10
-3531.032515812864
 20
1334.957645621504
 97
        1
330
1A0
 75
     0
 76
     1
 98
        0
  0
SPLINE
  5
1A0
102
{ACAD_REACTORS
330
36E
102
}
330
31C
100
AcDbEntity
  8
Stone
  6
Continuous
370
     0
100
AcDbSpline
210
0.0
220
0.0
230
1.0
 70
    11
 71
     3
 72
    14
 73
    10
 74
     0
 42
0.0000000001
 43
0.00000001
 40
0.0
 40
0.0
 40
0.0
 40
0.0
 40
0.1972286541924616
 40
0.2996001050218137
 40
0.4541611266015571
 40
0.5991873486097998
 40
0.7601490712073586
 40
0.871051476272487
 40
1.0
 40
1.0
 40
1.0
 40
1.0
 10
-3531.032515812864
 20
1334.957645621504
 30
0.0
 10
-3530.168165621576
 20
1335.358433878953
 30
0.0
 10
-3529.619838815777
 20
1336.61142086031
 30
0.0
 10
-3526.616807702897
 20
1335.915103309962
 30
0.0
 10
-3529.198127989587
 20
1337.968885784296
 30
0.0
 10
-3530.930991652078
 20
1337.577281597105
 30
0.0
 10
-3532.881660796425
 20
1336.928900726416
 30
0.0
 10
-3533.049007486289
 20
1334.545376253255
 30
0.0
 10
-3531.597629850713
 20
1334.695609385761
 30
0.0
 10
-3531.032515812864
 20
1334.957645621504
 30
0.0
  0
HATCH
  5
36F
330
31C
100
AcDbEntity
  8
Stone
  6
Continuous
 62
   253
370
     0
100
AcDbHatch
 10
0.0
 20
0.0
 30
0.0
210
0.0
220
0.0
230
1.0
  2
SOLID
 70
     1
 71
     1
 91
        1
 92
        1
 93
        1
 72
     4
 94
        3
 73
     0
 74
     0
 95
       17
 96
       13
 40
0.0
 40
0.0
 40
0.0
 40
0.0
 40
0.0845708135395723
 40
0.1721957027901865
 40
0.2596125938565774
 40
0.3344647413572688
 40
0.4186760344358323
 40
0.5446361854635538
 40
0.6782030320598389
 40
0.7735018580945147
 40
0.9192213554128351
 40
1.0
 40
1.0
 40
1.0
 40
1.0
 10
-3537.441602794082
 20
1354.491884517455
 10
-3537.070370424784
 20
1354.807311996933
 10
-3536.372745823541
 20
1355.76113638969
 10
-3538.737077972515
 20
1356.100391008426
 10
-3536.688347367317
 20
1357.106882409975
 10
-3536.035417391372
 20
1355.713660824572
 10
-3534.30859434619
 20
1357.313308048327
 10
-3537.034705423955
 20
1357.706882143078
 10
-3538.285396355275
 20
1357.097562035697
 10
-3539.939852174083
 20
1355.956546684945
 10
-3538.863605229984
 20
1353.737279429572
 10
-3537.796189043921
 20
1354.190600857155
 10
-3537.441602794082
 20
1354.491884517455
 97
        1
330
1A3
 75
     0
 76
     1
 98
        0
  0
SPLINE
  5
1A3
102
{ACAD_REACTORS
330
36F
102
}
330
31C
100
AcDbEntity
  8
Stone
  6
Continuous
370
     0
100
AcDbSpline
210
0.0
220
0.0
230
1.0
 70
    11
 71
     3
 72
    17
 73
    13
 74
     0
 42
0.0000000001
 43
0.00000001
 40
0.0
 40
0.0
 40
0.0
 40
0.0
 40
0.0845708135395723
 40
0.1721957027901865
 40
0.2596125938565774
 40
0.3344647413572688
 40
0.4186760344358323
 40
0.5446361854635538
 40
0.6782030320598389
 40
0.7735018580945147
 40
0.9192213554128351
 40
1.0
 40
1.0
 40
1.0
 40
1.0
 10
-3537.441602794082
 20
1354.491884517455
 30
0.0
 10
-3537.070370424784
 20
1354.807311996933
 30
0.0
 10
-3536.372745823541
 20
1355.76113638969
 30
0.0
 10
-3538.737077972515
 20
1356.100391008426
 30
0.0
 10
-3536.688347367317
 20
1357.106882409975
 30
0.0
 10
-3536.035417391372
 20
1355.713660824572
 30
0.0
 10
-3534.30859434619
 20
1357.313308048327
 30
0.0
 10
-3537.034705423955
 20
1357.706882143078
 30
0.0
 10
-3538.285396355275
 20
1357.097562035697
 30
0.0
 10
-3539.939852174083
 20
1355.956546684945
 30
0.0
 10
-3538.863605229984
 20
1353.737279429572
 30
0.0
 10
-3537.796189043921
 20
1354.190600857155
 30
0.0
 10
-3537.441602794082
 20
1354.491884517455
 30
0.0
  0
HATCH
  5
370
330
31C
100
AcDbEntity
  8
Stone
  6
Continuous
 62
   253
370
     0
100
AcDbHatch
 10
0.0
 20
0.0
 30
0.0
210
0.0
220
0.0
230
1.0
  2
SOLID
 70
     1
 71
     1
 91
        1
 92
        1
 93
        1
 72
     4
 94
        3
 73
     0
 74
     0
 95
       15
 96
       11
 40
0.0
 40
0.0
 40
0.0
 40
0.0
 40
0.1276791758060349
 40
0.2588354007007541
 40
0.3616941311177288
 40
0.4393570601879646
 40
0.6107893121943308
 40
0.6965560390949624
 40
0.7670736581059142
 40
1.0
 40
1.0
 40
1.0
 40
1.0
 10
-3535.231863668734
 20
1360.837802005634
 10
-3535.039620825804
 20
1361.424604684282
 10
-3533.838294778634
 20
1362.617287709645
 10
-3536.490640525149
 20
1362.61676621895
 10
-3536.883423419337
 20
1361.319859797463
 10
-3537.596103121986
 20
1359.971883079338
 10
-3536.985861291983
 20
1358.644538927033
 10
-3536.112180495935
 20
1357.215882671459
 10
-3534.303667210912
 20
1358.379314078762
 10
-3535.582574126225
 20
1359.767292265198
 10
-3535.231863668734
 20
1360.837802005634
 97
        1
330
1A9
 75
     0
 76
     1
 98
        0
  0
SPLINE
  5
1A9
102
{ACAD_REACTORS
330
370
102
}
330
31C
100
AcDbEntity
  8
Stone
  6
Continuous
370
     0
100
AcDbSpline
210
0.0
220
0.0
230
1.0
 70
    11
 71
     3
 72
    15
 73
    11
 74
     0
 42
0.0000000001
 43
0.00000001
 40
0.0
 40
0.0
 40
0.0
 40
0.0
 40
0.1276791758060349
 40
0.2588354007007541
 40
0.3616941311177288
 40
0.4393570601879646
 40
0.6107893121943308
 40
0.6965560390949624
 40
0.7670736581059142
 40
1.0
 40
1.0
 40
1.0
 40
1.0
 10
-3535.231863668734
 20
1360.837802005634
 30
0.0
 10
-3535.039620825804
 20
1361.424604684282
 30
0.0
 10
-3533.838294778634
 20
1362.617287709645
 30
0.0
 10
-3536.490640525149
 20
1362.61676621895
 30
0.0
 10
-3536.883423419337
 20
1361.319859797463
 30
0.0
 10
-3537.596103121986
 20
1359.971883079338
 30
0.0
 10
-3536.985861291983
 20
1358.644538927033
 30
0.0
 10
-3536.112180495935
 20
1357.215882671459
 30
0.0
 10
-3534.303667210912
 20
1358.379314078762
 30
0.0
 10
-3535.582574126225
 20
1359.767292265198
 30
0.0
 10
-3535.231863668734
 20
1360.837802005634
 30
0.0
  0
HATCH
  5
371
330
31C
100
AcDbEntity
  8
Stone
  6
Continuous
 62
   253
370
     0
100
AcDbHatch
 10
0.0
 20
0.0
 30
0.0
210
0.0
220
0.0
230
1.0
  2
SOLID
 70
     1
 71
     1
 91
        1
 92
        1
 93
        1
 72
     4
 94
        3
 73
     0
 74
     0
 95
       14
 96
       10
 40
0.0
 40
0.0
 40
0.0
 40
0.0
 40
0.1189444017317044
 40
0.3013967852269326
 40
0.5409153363583503
 40
0.6296791973385689
 40
0.6944904937726594
 40
0.7832543547528796
 40
1.0
 40
1.0
 40
1.0
 40
1.0
 10
-3537.158302906217
 20
1361.206091859859
 10
-3537.412703758243
 20
1361.520945926523
 10
-3539.141658819884
 20
1361.900053366304
 10
-3540.563522733891
 20
1359.748114490286
 10
-3540.273057820042
 20
1356.698386634405
 10
-3538.397793695747
 20
1356.701923504884
 10
-3537.413199213593
 20
1357.370765406685
 10
-3538.044151443392
 20
1359.050242045342
 10
-3536.694722645012
 20
1360.632351130204
 10
-3537.158302906217
 20
1361.206091859859
 97
        1
330
1AC
 75
     0
 76
     1
 98
        0
  0
SPLINE
  5
1AC
102
{ACAD_REACTORS
330
371
102
}
330
31C
100
AcDbEntity
  8
Stone
  6
Continuous
370
     0
100
AcDbSpline
210
0.0
220
0.0
230
1.0
 70
    11
 71
     3
 72
    14
 73
    10
 74
     0
 42
0.0000000001
 43
0.00000001
 40
0.0
 40
0.0
 40
0.0
 40
0.0
 40
0.1189444017317044
 40
0.3013967852269326
 40
0.5409153363583503
 40
0.6296791973385689
 40
0.6944904937726594
 40
0.7832543547528796
 40
1.0
 40
1.0
 40
1.0
 40
1.0
 10
-3537.158302906217
 20
1361.206091859859
 30
0.0
 10
-3537.412703758243
 20
1361.520945926523
 30
0.0
 10
-3539.141658819884
 20
1361.900053366304
 30
0.0
 10
-3540.563522733891
 20
1359.748114490286
 30
0.0
 10
-3540.273057820042
 20
1356.698386634405
 30
0.0
 10
-3538.397793695747
 20
1356.701923504884
 30
0.0
 10
-3537.413199213593
 20
1357.370765406685
 30
0.0
 10
-3538.044151443392
 20
1359.050242045342
 30
0.0
 10
-3536.694722645012
 20
1360.632351130204
 30
0.0
 10
-3537.158302906217
 20
1361.206091859859
 30
0.0
  0
HATCH
  5
372
330
31C
100
AcDbEntity
  8
Stone
  6
Continuous
 62
   253
370
     0
100
AcDbHatch
 10
0.0
 20
0.0
 30
0.0
210
0.0
220
0.0
230
1.0
  2
SOLID
 70
     1
 71
     1
 91
        1
 92
        1
 93
        1
 72
     4
 94
        3
 73
     0
 74
     0
 95
       14
 96
       10
 40
0.0
 40
0.0
 40
0.0
 40
0.0
 40
0.1044220806540864
 40
0.305074979841349
 40
0.4243571251984094
 40
0.6309840920543506
 40
0.7741842110092351
 40
0.9264001320511255
 40
1.0
 40
1.0
 40
1.0
 40
1.0
 10
-3537.668242704374
 20
1357.353213384893
 10
-3537.536649424069
 20
1357.428847455699
 10
-3538.118731232858
 20
1358.959826425886
 10
-3535.759781980019
 20
1358.84780224317
 10
-3536.783865090676
 20
1361.079822545482
 10
-3538.065532694082
 20
1359.575451604168
 10
-3539.653880560607
 20
1358.634221564513
 10
-3538.549824778399
 20
1357.819793613
 10
-3537.760993662723
 20
1357.299904184493
 10
-3537.668242704374
 20
1357.353213384893
 97
        1
330
1A6
 75
     0
 76
     1
 98
        0
  0
SPLINE
  5
1A6
102
{ACAD_REACTORS
330
372
102
}
330
31C
100
AcDbEntity
  8
Stone
  6
Continuous
370
     0
100
AcDbSpline
210
0.0
220
0.0
230
1.0
 70
    11
 71
     3
 72
    14
 73
    10
 74
     0
 42
0.0000000001
 43
0.00000001
 40
0.0
 40
0.0
 40
0.0
 40
0.0
 40
0.1044220806540864
 40
0.305074979841349
 40
0.4243571251984094
 40
0.6309840920543506
 40
0.7741842110092351
 40
0.9264001320511255
 40
1.0
 40
1.0
 40
1.0
 40
1.0
 10
-3537.668242704374
 20
1357.353213384893
 30
0.0
 10
-3537.536649424069
 20
1357.428847455699
 30
0.0
 10
-3538.118731232858
 20
1358.959826425886
 30
0.0
 10
-3535.759781980019
 20
1358.84780224317
 30
0.0
 10
-3536.783865090676
 20
1361.079822545482
 30
0.0
 10
-3538.065532694082
 20
1359.575451604168
 30
0.0
 10
-3539.653880560607
 20
1358.634221564513
 30
0.0
 10
-3538.549824778399
 20
1357.819793613
 30
0.0
 10
-3537.760993662723
 20
1357.299904184493
 30
0.0
 10
-3537.668242704374
 20
1357.353213384893
 30
0.0
  0
HATCH
  5
373
330
31C
100
AcDbEntity
  8
Bedrock
  6
Continuous
 62
    46
370
     0
100
AcDbHatch
 10
0.0
 20
0.0
 30
0.0
210
0.0
220
0.0
230
1.0
  2
SOLID
 70
     1
 71
     1
 91
        1
 92
        1
 93
        1
 72
     4
 94
        3
 73
     0
 74
     0
 95
       17
 96
       13
 40
0.0
 40
0.0
 40
0.0
 40
0.0
 40
0.1023407063321433
 40
0.174353603367991
 40
0.2349225539000202
 40
0.3449412253594407
 40
0.4728090098159468
 40
0.5542656235113704
 40
0.7090529415376679
 40
0.8414880868987416
 40
0.9371377014099406
 40
1.0
 40
1.0
 40
1.0
 40
1.0
 10
-3472.498532920694
 20
1308.971258535284
 10
-3471.292455450282
 20
1308.926863483212
 10
-3468.900805232084
 20
1311.46946543647
 10
-3472.117532776173
 20
1313.094214980482
 10
-3471.237392179718
 20
1315.976025200512
 10
-3472.651983595821
 20
1319.630679179071
 10
-3477.270813577773
 20
1319.56260347763
 10
-3479.75681742221
 20
1315.874580498215
 10
-3479.390747803971
 20
1312.391339932647
 10
-3477.486488735906
 20
1305.428062169289
 10
-3474.919270927247
 20
1310.529405179872
 10
-3473.239360346896
 20
1308.998527987678
 10
-3472.498532920694
 20
1308.971258535284
 97
        1
330
1AF
 75
     0
 76
     1
 98
        0
  0
SPLINE
  5
1AF
102
{ACAD_REACTORS
330
373
102
}
330
31C
100
AcDbEntity
  8
Bedrock
  6
Continuous
370
     0
100
AcDbSpline
210
0.0
220
0.0
230
1.0
 70
    11
 71
     3
 72
    17
 73
    13
 74
     0
 42
0.0000000001
 43
0.00000001
 40
0.0
 40
0.0
 40
0.0
 40
0.0
 40
0.1023407063321433
 40
0.174353603367991
 40
0.2349225539000202
 40
0.3449412253594407
 40
0.4728090098159468
 40
0.5542656235113704
 40
0.7090529415376679
 40
0.8414880868987416
 40
0.9371377014099406
 40
1.0
 40
1.0
 40
1.0
 40
1.0
 10
-3472.498532920694
 20
1308.971258535284
 30
0.0
 10
-3471.292455450282
 20
1308.926863483212
 30
0.0
 10
-3468.900805232084
 20
1311.46946543647
 30
0.0
 10
-3472.117532776173
 20
1313.094214980482
 30
0.0
 10
-3471.237392179718
 20
1315.976025200512
 30
0.0
 10
-3472.651983595821
 20
1319.630679179071
 30
0.0
 10
-3477.270813577773
 20
1319.56260347763
 30
0.0
 10
-3479.75681742221
 20
1315.874580498215
 30
0.0
 10
-3479.390747803971
 20
1312.391339932647
 30
0.0
 10
-3477.486488735906
 20
1305.428062169289
 30
0.0
 10
-3474.919270927247
 20
1310.529405179872
 30
0.0
 10
-3473.239360346896
 20
1308.998527987678
 30
0.0
 10
-3472.498532920694
 20
1308.971258535284
 30
0.0
  0
HATCH
  5
374
330
31C
100
AcDbEntity
  8
Bedrock
  6
Continuous
 62
    46
370
     0
100
AcDbHatch
 10
0.0
 20
0.0
 30
0.0
210
0.0
220
0.0
230
1.0
  2
SOLID
 70
     1
 71
     1
 91
        1
 92
        1
 93
        1
 72
     4
 94
        3
 73
     0
 74
     0
 95
       13
 96
        9
 40
0.0
 40
0.0
 40
0.0
 40
0.0
 40
0.1608665599846581
 40
0.4704263680693784
 40
0.5531394761505971
 40
0.6949645650576386
 40
0.9368886637672196
 40
1.0
 40
1.0
 40
1.0
 40
1.0
 10
-3467.087803272877
 20
1311.451176290533
 10
-3466.18687247836
 20
1310.079672948861
 10
-3460.221183248072
 20
1311.765540566368
 10
-3450.01871862743
 20
1315.944988581286
 10
-3456.813577972592
 20
1319.223620651307
 10
-3460.706079275867
 20
1315.646116271649
 10
-3468.302211700324
 20
1316.039049350588
 10
-3467.441257379814
 20
1311.98924590891
 10
-3467.087803272877
 20
1311.451176290533
 97
        1
330
1B2
 75
     0
 76
     1
 98
        0
  0
SPLINE
  5
1B2
102
{ACAD_REACTORS
330
374
102
}
330
31C
100
AcDbEntity
  8
Bedrock
  6
Continuous
370
     0
100
AcDbSpline
210
0.0
220
0.0
230
1.0
 70
    11
 71
     3
 72
    13
 73
     9
 74
     0
 42
0.0000000001
 43
0.00000001
 40
0.0
 40
0.0
 40
0.0
 40
0.0
 40
0.1608665599846581
 40
0.4704263680693784
 40
0.5531394761505971
 40
0.6949645650576386
 40
0.9368886637672196
 40
1.0
 40
1.0
 40
1.0
 40
1.0
 10
-3467.087803272877
 20
1311.451176290533
 30
0.0
 10
-3466.18687247836
 20
1310.079672948861
 30
0.0
 10
-3460.221183248072
 20
1311.765540566368
 30
0.0
 10
-3450.01871862743
 20
1315.944988581286
 30
0.0
 10
-3456.813577972592
 20
1319.223620651307
 30
0.0
 10
-3460.706079275867
 20
1315.646116271649
 30
0.0
 10
-3468.302211700324
 20
1316.039049350588
 30
0.0
 10
-3467.441257379814
 20
1311.98924590891
 30
0.0
 10
-3467.087803272877
 20
1311.451176290533
 30
0.0
  0
HATCH
  5
375
330
31C
100
AcDbEntity
  8
Bedrock
  6
Continuous
 62
    46
370
     0
100
AcDbHatch
 10
0.0
 20
0.0
 30
0.0
210
0.0
220
0.0
230
1.0
  2
SOLID
 70
     1
 71
     1
 91
        1
 92
        1
 93
        1
 72
     4
 94
        3
 73
     0
 74
     0
 95
       16
 96
       12
 40
0.0
 40
0.0
 40
0.0
 40
0.0
 40
0.2746535762588107
 40
0.3964662354628458
 40
0.4817366074659406
 40
0.5756338656023849
 40
0.6989702273892647
 40
0.7707938729252968
 40
0.8575245242974943
 40
0.9641106011010248
 40
1.0
 40
1.0
 40
1.0
 40
1.0
 10
-3433.972147937276
 20
1291.564133604719
 10
-3429.218108249328
 20
1292.733115321889
 10
-3424.29692180686
 20
1293.912583622036
 10
-3424.475541258884
 20
1300.927419691405
 10
-3426.909303175887
 20
1305.138990222302
 10
-3432.760788353812
 20
1305.227720635613
 10
-3433.194614275777
 20
1299.922763357838
 10
-3438.913055515648
 20
1298.686727936052
 10
-3434.764073700474
 20
1294.453117970667
 10
-3437.150667462214
 20
1290.781122585377
 10
-3434.593365505481
 20
1291.411380992776
 10
-3433.972147937276
 20
1291.564133604719
 97
        1
330
1B5
 75
     0
 76
     1
 98
        0
  0
SPLINE
  5
1B5
102
{ACAD_REACTORS
330
375
102
}
330
31C
100
AcDbEntity
  8
Bedrock
  6
Continuous
370
     0
100
AcDbSpline
210
0.0
220
0.0
230
1.0
 70
    11
 71
     3
 72
    16
 73
    12
 74
     0
 42
0.0000000001
 43
0.00000001
 40
0.0
 40
0.0
 40
0.0
 40
0.0
 40
0.2746535762588107
 40
0.3964662354628458
 40
0.4817366074659406
 40
0.5756338656023849
 40
0.6989702273892647
 40
0.7707938729252968
 40
0.8575245242974943
 40
0.9641106011010248
 40
1.0
 40
1.0
 40
1.0
 40
1.0
 10
-3433.972147937276
 20
1291.564133604719
 30
0.0
 10
-3429.218108249328
 20
1292.733115321889
 30
0.0
 10
-3424.29692180686
 20
1293.912583622036
 30
0.0
 10
-3424.475541258884
 20
1300.927419691405
 30
0.0
 10
-3426.909303175887
 20
1305.138990222302
 30
0.0
 10
-3432.760788353812
 20
1305.227720635613
 30
0.0
 10
-3433.194614275777
 20
1299.922763357838
 30
0.0
 10
-3438.913055515648
 20
1298.686727936052
 30
0.0
 10
-3434.764073700474
 20
1294.453117970667
 30
0.0
 10
-3437.150667462214
 20
1290.781122585377
 30
0.0
 10
-3434.593365505481
 20
1291.411380992776
 30
0.0
 10
-3433.972147937276
 20
1291.564133604719
 30
0.0
  0
HATCH
  5
376
330
31C
100
AcDbEntity
  8
Bedrock
  6
Continuous
 62
    46
370
     0
100
AcDbHatch
 10
0.0
 20
0.0
 30
0.0
210
0.0
220
0.0
230
1.0
  2
SOLID
 70
     1
 71
     1
 91
        1
 92
        1
 93
        1
 72
     4
 94
        3
 73
     0
 74
     0
 95
       16
 96
       12
 40
0.0
 40
0.0
 40
0.0
 40
0.0
 40
0.1121599978809518
 40
0.2257473278107939
 40
0.3207671779884316
 40
0.4376315275504988
 40
0.5130133582470084
 40
0.6403905073110271
 40
0.7400650052598496
 40
0.798690723933315
 40
1.0
 40
1.0
 40
1.0
 40
1.0
 10
-3445.783055284603
 20
1285.975657532066
 10
-3443.957983934684
 20
1286.631142356582
 10
-3440.914091686638
 20
1291.200797756361
 10
-3439.848289322408
 20
1298.928480855193
 10
-3447.781135391532
 20
1301.504228559397
 10
-3453.261258286859
 20
1296.767800849164
 10
-3459.175361263132
 20
1302.821614552405
 10
-3464.440859834005
 20
1295.52377362551
 10
-3462.746464567185
 20
1287.830999360921
 10
-3454.589347609287
 20
1289.997395508925
 10
-3449.058766760739
 20
1284.79916700078
 10
-3445.783055284603
 20
1285.975657532066
 97
        1
330
1BA
 75
     0
 76
     1
 98
        0
  0
SPLINE
  5
1BA
102
{ACAD_REACTORS
330
376
102
}
330
31C
100
AcDbEntity
  8
Bedrock
  6
Continuous
370
     0
100
AcDbSpline
210
0.0
220
0.0
230
1.0
 70
    11
 71
     3
 72
    16
 73
    12
 74
     0
 42
0.0000000001
 43
0.00000001
 40
0.0
 40
0.0
 40
0.0
 40
0.0
 40
0.1121599978809518
 40
0.2257473278107939
 40
0.3207671779884316
 40
0.4376315275504988
 40
0.5130133582470084
 40
0.6403905073110271
 40
0.7400650052598496
 40
0.798690723933315
 40
1.0
 40
1.0
 40
1.0
 40
1.0
 10
-3445.783055284603
 20
1285.975657532066
 30
0.0
 10
-3443.957983934684
 20
1286.631142356582
 30
0.0
 10
-3440.914091686638
 20
1291.200797756361
 30
0.0
 10
-3439.848289322408
 20
1298.928480855193
 30
0.0
 10
-3447.781135391532
 20
1301.504228559397
 30
0.0
 10
-3453.261258286859
 20
1296.767800849164
 30
0.0
 10
-3459.175361263132
 20
1302.821614552405
 30
0.0
 10
-3464.440859834005
 20
1295.52377362551
 30
0.0
 10
-3462.746464567185
 20
1287.830999360921
 30
0.0
 10
-3454.589347609287
 20
1289.997395508925
 30
0.0
 10
-3449.058766760739
 20
1284.79916700078
 30
0.0
 10
-3445.783055284603
 20
1285.975657532066
 30
0.0
  0
HATCH
  5
377
330
31C
100
AcDbEntity
  8
Bedrock
  6
Continuous
 62
    46
370
     0
100
AcDbHatch
 10
0.0
 20
0.0
 30
0.0
210
0.0
220
0.0
230
1.0
  2
SOLID
 70
     1
 71
     1
 91
        1
 92
        1
 93
        1
 72
     4
 94
        3
 73
     0
 74
     0
 95
       20
 96
       16
 40
0.0
 40
0.0
 40
0.0
 40
0.0
 40
0.0961741727712558
 40
0.1562580380414002
 40
0.2117200675215338
 40
0.2861301883741386
 40
0.3564064136238225
 40
0.4372555200961096
 40
0.5013309019414077
 40
0.586453022279694
 40
0.6318318244799658
 40
0.7259630873301186
 40
0.8065740515871073
 40
0.9230773219307702
 40
1.0
 40
1.0
 40
1.0
 40
1.0
 10
-3443.641308132342
 20
1304.462317162104
 10
-3441.991635518886
 20
1305.108855391841
 10
-3439.726618324957
 20
1308.594241442507
 10
-3443.660610491267
 20
1312.189103547074
 10
-3446.550718409553
 20
1309.080150446846
 10
-3450.307780791302
 20
1309.884048260629
 10
-3454.655378069403
 20
1310.627219886658
 10
-3457.392913857378
 20
1306.599432221638
 10
-3462.109080744423
 20
1308.518171508553
 10
-3464.500235695056
 20
1304.224386725116
 10
-3462.071870313175
 20
1299.673739636863
 10
-3457.712352774643
 20
1304.828515863539
 10
-3452.946159139378
 20
1299.310206065417
 10
-3448.689740494496
 20
1305.055641783107
 10
-3444.960760452107
 20
1303.945198577432
 10
-3443.641308132342
 20
1304.462317162104
 97
        1
330
1BD
 75
     0
 76
     1
 98
        0
  0
SPLINE
  5
1BD
102
{ACAD_REACTORS
330
377
102
}
330
31C
100
AcDbEntity
  8
Bedrock
  6
Continuous
370
     0
100
AcDbSpline
210
0.0
220
0.0
230
1.0
 70
    11
 71
     3
 72
    20
 73
    16
 74
     0
 42
0.0000000001
 43
0.00000001
 40
0.0
 40
0.0
 40
0.0
 40
0.0
 40
0.0961741727712558
 40
0.1562580380414002
 40
0.2117200675215338
 40
0.2861301883741386
 40
0.3564064136238225
 40
0.4372555200961096
 40
0.5013309019414077
 40
0.586453022279694
 40
0.6318318244799658
 40
0.7259630873301186
 40
0.8065740515871073
 40
0.9230773219307702
 40
1.0
 40
1.0
 40
1.0
 40
1.0
 10
-3443.641308132342
 20
1304.462317162104
 30
0.0
 10
-3441.991635518886
 20
1305.108855391841
 30
0.0
 10
-3439.726618324957
 20
1308.594241442507
 30
0.0
 10
-3443.660610491267
 20
1312.189103547074
 30
0.0
 10
-3446.550718409553
 20
1309.080150446846
 30
0.0
 10
-3450.307780791302
 20
1309.884048260629
 30
0.0
 10
-3454.655378069403
 20
1310.627219886658
 30
0.0
 10
-3457.392913857378
 20
1306.599432221638
 30
0.0
 10
-3462.109080744423
 20
1308.518171508553
 30
0.0
 10
-3464.500235695056
 20
1304.224386725116
 30
0.0
 10
-3462.071870313175
 20
1299.673739636863
 30
0.0
 10
-3457.712352774643
 20
1304.828515863539
 30
0.0
 10
-3452.946159139378
 20
1299.310206065417
 30
0.0
 10
-3448.689740494496
 20
1305.055641783107
 30
0.0
 10
-3444.960760452107
 20
1303.945198577432
 30
0.0
 10
-3443.641308132342
 20
1304.462317162104
 30
0.0
  0
HATCH
  5
378
330
31C
100
AcDbEntity
  8
Bedrock
  6
Continuous
 62
    46
370
     0
100
AcDbHatch
 10
0.0
 20
0.0
 30
0.0
210
0.0
220
0.0
230
1.0
  2
SOLID
 70
     1
 71
     1
 91
        1
 92
        1
 93
        1
 72
     4
 94
        3
 73
     0
 74
     0
 95
       16
 96
       12
 40
0.0
 40
0.0
 40
0.0
 40
0.0
 40
0.2040550418914992
 40
0.3232990153011232
 40
0.4436300814046342
 40
0.5404826447726604
 40
0.596058991180483
 40
0.7285527207179618
 40
0.8354303099637768
 40
0.9092609896735452
 40
1.0
 40
1.0
 40
1.0
 40
1.0
 10
-3446.008502353262
 20
1284.397528051453
 10
-3447.956479639376
 20
1287.249102057148
 10
-3454.180049734516
 20
1289.131579927917
 10
-3463.117839119196
 20
1288.073451941112
 10
-3463.77002703689
 20
1281.115844741879
 10
-3462.467501804669
 20
1276.12988190275
 10
-3457.316083518689
 20
1274.072796809736
 10
-3452.692928728941
 20
1277.342307966716
 10
-3445.984446234677
 20
1274.589293265068
 10
-3444.281376275147
 20
1280.233152267228
 10
-3445.142277586444
 20
1283.129492717698
 10
-3446.008502353262
 20
1284.397528051453
 97
        1
330
1C0
 75
     0
 76
     1
 98
        0
  0
SPLINE
  5
1C0
102
{ACAD_REACTORS
330
378
102
}
330
31C
100
AcDbEntity
  8
Bedrock
  6
Continuous
370
     0
100
AcDbSpline
210
0.0
220
0.0
230
1.0
 70
    11
 71
     3
 72
    16
 73
    12
 74
     0
 42
0.0000000001
 43
0.00000001
 40
0.0
 40
0.0
 40
0.0
 40
0.0
 40
0.2040550418914992
 40
0.3232990153011232
 40
0.4436300814046342
 40
0.5404826447726604
 40
0.596058991180483
 40
0.7285527207179618
 40
0.8354303099637768
 40
0.9092609896735452
 40
1.0
 40
1.0
 40
1.0
 40
1.0
 10
-3446.008502353262
 20
1284.397528051453
 30
0.0
 10
-3447.956479639376
 20
1287.249102057148
 30
0.0
 10
-3454.180049734516
 20
1289.131579927917
 30
0.0
 10
-3463.117839119196
 20
1288.073451941112
 30
0.0
 10
-3463.77002703689
 20
1281.115844741879
 30
0.0
 10
-3462.467501804669
 20
1276.12988190275
 30
0.0
 10
-3457.316083518689
 20
1274.072796809736
 30
0.0
 10
-3452.692928728941
 20
1277.342307966716
 30
0.0
 10
-3445.984446234677
 20
1274.589293265068
 30
0.0
 10
-3444.281376275147
 20
1280.233152267228
 30
0.0
 10
-3445.142277586444
 20
1283.129492717698
 30
0.0
 10
-3446.008502353262
 20
1284.397528051453
 30
0.0
  0
HATCH
  5
379
330
31C
100
AcDbEntity
  8
Bedrock
  6
Continuous
 62
    46
370
     0
100
AcDbHatch
 10
0.0
 20
0.0
 30
0.0
210
0.0
220
0.0
230
1.0
  2
SOLID
 70
     1
 71
     1
 91
        1
 92
        1
 93
        1
 72
     4
 94
        3
 73
     0
 74
     0
 95
       14
 96
       10
 40
0.0
 40
0.0
 40
0.0
 40
0.0
 40
0.1404056190197286
 40
0.3386833686155601
 40
0.5051380704448781
 40
0.6831170241318574
 40
0.826335446728931
 40
0.9385686871807213
 40
1.0
 40
1.0
 40
1.0
 40
1.0
 10
-3446.417066110546
 20
1270.637981329186
 10
-3445.982810997168
 20
1270.766321423495
 10
-3446.336054083509
 20
1272.993922741778
 10
-3448.089777479572
 20
1274.311090564573
 10
-3450.643655547627
 20
1273.389278401828
 10
-3450.728711604343
 20
1270.656287478255
 10
-3448.563482041465
 20
1270.082603956
 10
-3447.458439400454
 20
1270.853392884426
 10
-3446.607064644078
 20
1270.581829014658
 10
-3446.417066110546
 20
1270.637981329186
 97
        1
330
1C3
 75
     0
 76
     1
 98
        0
  0
SPLINE
  5
1C3
102
{ACAD_REACTORS
330
379
102
}
330
31C
100
AcDbEntity
  8
Bedrock
  6
Continuous
370
     0
100
AcDbSpline
210
0.0
220
0.0
230
1.0
 70
    11
 71
     3
 72
    14
 73
    10
 74
     0
 42
0.0000000001
 43
0.00000001
 40
0.0
 40
0.0
 40
0.0
 40
0.0
 40
0.1404056190197286
 40
0.3386833686155601
 40
0.5051380704448781
 40
0.6831170241318574
 40
0.826335446728931
 40
0.9385686871807213
 40
1.0
 40
1.0
 40
1.0
 40
1.0
 10
-3446.417066110546
 20
1270.637981329186
 30
0.0
 10
-3445.982810997168
 20
1270.766321423495
 30
0.0
 10
-3446.336054083509
 20
1272.993922741778
 30
0.0
 10
-3448.089777479572
 20
1274.311090564573
 30
0.0
 10
-3450.643655547627
 20
1273.389278401828
 30
0.0
 10
-3450.728711604343
 20
1270.656287478255
 30
0.0
 10
-3448.563482041465
 20
1270.082603956
 30
0.0
 10
-3447.458439400454
 20
1270.853392884426
 30
0.0
 10
-3446.607064644078
 20
1270.581829014658
 30
0.0
 10
-3446.417066110546
 20
1270.637981329186
 30
0.0
  0
HATCH
  5
37A
330
31C
100
AcDbEntity
  8
Bedrock
  6
Continuous
 62
    46
370
     0
100
AcDbHatch
 10
0.0
 20
0.0
 30
0.0
210
0.0
220
0.0
230
1.0
  2
SOLID
 70
     1
 71
     1
 91
        1
 92
        1
 93
        1
 72
     4
 94
        3
 73
     0
 74
     0
 95
       13
 96
        9
 40
0.0
 40
0.0
 40
0.0
 40
0.0
 40
0.2434300403288139
 40
0.4155610725898324
 40
0.493305758203135
 40
0.7069413134211
 40
0.8341760756425105
 40
1.0
 40
1.0
 40
1.0
 40
1.0
 10
-3451.870882038039
 20
1271.546950650435
 10
-3451.17753461514
 20
1271.546430674313
 10
-3450.390143772715
 20
1273.641416665645
 10
-3450.710968893952
 20
1275.882946124453
 10
-3452.617686561118
 20
1275.784552323548
 10
-3454.020228791541
 20
1274.373130899866
 10
-3453.368233387496
 20
1272.554764800073
 10
-3452.34318853913
 20
1271.547304856847
 10
-3451.870882038039
 20
1271.546950650435
 97
        1
330
1C6
 75
     0
 76
     1
 98
        0
  0
SPLINE
  5
1C6
102
{ACAD_REACTORS
330
37A
102
}
330
31C
100
AcDbEntity
  8
Bedrock
  6
Continuous
370
     0
100
AcDbSpline
210
0.0
220
0.0
230
1.0
 70
    11
 71
     3
 72
    13
 73
     9
 74
     0
 42
0.0000000001
 43
0.00000001
 40
0.0
 40
0.0
 40
0.0
 40
0.0
 40
0.2434300403288139
 40
0.4155610725898324
 40
0.493305758203135
 40
0.7069413134211
 40
0.8341760756425105
 40
1.0
 40
1.0
 40
1.0
 40
1.0
 10
-3451.870882038039
 20
1271.546950650435
 30
0.0
 10
-3451.17753461514
 20
1271.546430674313
 30
0.0
 10
-3450.390143772715
 20
1273.641416665645
 30
0.0
 10
-3450.710968893952
 20
1275.882946124453
 30
0.0
 10
-3452.617686561118
 20
1275.784552323548
 30
0.0
 10
-3454.020228791541
 20
1274.373130899866
 30
0.0
 10
-3453.368233387496
 20
1272.554764800073
 30
0.0
 10
-3452.34318853913
 20
1271.547304856847
 30
0.0
 10
-3451.870882038039
 20
1271.546950650435
 30
0.0
  0
HATCH
  5
37B
330
31C
100
AcDbEntity
  8
Bedrock
  6
Continuous
 62
    46
370
     0
100
AcDbHatch
 10
0.0
 20
0.0
 30
0.0
210
0.0
220
0.0
230
1.0
  2
SOLID
 70
     1
 71
     1
 91
        1
 92
        1
 93
        1
 72
     4
 94
        3
 73
     0
 74
     0
 95
       17
 96
       13
 40
0.0
 40
0.0
 40
0.0
 40
0.0
 40
0.1506745393289178
 40
0.2653619476903797
 40
0.3395970143042152
 40
0.3932397248860766
 40
0.5073059375708399
 40
0.5809102274671029
 40
0.704154858565608
 40
0.7535076279572887
 40
0.8601391484295912
 40
1.0
 40
1.0
 40
1.0
 40
1.0
 10
-3459.412870730563
 20
1267.10037099784
 10
-3459.099973893709
 20
1267.54294225181
 10
-3460.352658253956
 20
1269.667659381558
 10
-3462.231783510452
 20
1269.731279674478
 10
-3463.072724401847
 20
1270.940692254371
 10
-3464.617409976439
 20
1270.97447705604
 10
-3465.069689395561
 20
1269.158385620946
 10
-3464.071425530994
 20
1267.768477269813
 10
-3464.354234695562
 20
1266.178096858648
 10
-3462.757811177205
 20
1265.229538687398
 10
-3461.7704239584
 20
1267.12548274959
 10
-3459.703311426455
 20
1266.689562425027
 10
-3459.412870730563
 20
1267.10037099784
 97
        1
330
1C9
 75
     0
 76
     1
 98
        0
  0
SPLINE
  5
1C9
102
{ACAD_REACTORS
330
37B
102
}
330
31C
100
AcDbEntity
  8
Bedrock
  6
Continuous
370
     0
100
AcDbSpline
210
0.0
220
0.0
230
1.0
 70
    11
 71
     3
 72
    17
 73
    13
 74
     0
 42
0.0000000001
 43
0.00000001
 40
0.0
 40
0.0
 40
0.0
 40
0.0
 40
0.1506745393289178
 40
0.2653619476903797
 40
0.3395970143042152
 40
0.3932397248860766
 40
0.5073059375708399
 40
0.5809102274671029
 40
0.704154858565608
 40
0.7535076279572887
 40
0.8601391484295912
 40
1.0
 40
1.0
 40
1.0
 40
1.0
 10
-3459.412870730563
 20
1267.10037099784
 30
0.0
 10
-3459.099973893709
 20
1267.54294225181
 30
0.0
 10
-3460.352658253956
 20
1269.667659381558
 30
0.0
 10
-3462.231783510452
 20
1269.731279674478
 30
0.0
 10
-3463.072724401847
 20
1270.940692254371
 30
0.0
 10
-3464.617409976439
 20
1270.97447705604
 30
0.0
 10
-3465.069689395561
 20
1269.158385620946
 30
0.0
 10
-3464.071425530994
 20
1267.768477269813
 30
0.0
 10
-3464.354234695562
 20
1266.178096858648
 30
0.0
 10
-3462.757811177205
 20
1265.229538687398
 30
0.0
 10
-3461.7704239584
 20
1267.12548274959
 30
0.0
 10
-3459.703311426455
 20
1266.689562425027
 30
0.0
 10
-3459.412870730563
 20
1267.10037099784
 30
0.0
  0
HATCH
  5
37C
330
31C
100
AcDbEntity
  8
Bedrock
  6
Continuous
 62
    46
370
     0
100
AcDbHatch
 10
0.0
 20
0.0
 30
0.0
210
0.0
220
0.0
230
1.0
  2
SOLID
 70
     1
 71
     1
 91
        1
 92
        1
 93
        1
 72
     4
 94
        3
 73
     0
 74
     0
 95
       14
 96
       10
 40
0.0
 40
0.0
 40
0.0
 40
0.0
 40
0.250274061566288
 40
0.3534036620066482
 40
0.4639808766591616
 40
0.5011402744323898
 40
0.6564598568477743
 40
0.8144194597090283
 40
1.0
 40
1.0
 40
1.0
 40
1.0
 10
-3455.285658677325
 20
1266.535336014361
 10
-3453.606260901222
 20
1266.336651732708
 10
-3450.985294369752
 20
1268.459252149272
 10
-3452.204825658459
 20
1271.356081243066
 10
-3453.384742639161
 20
1272.261338227593
 10
-3454.8390566716
 20
1273.637064140629
 10
-3456.833186943375
 20
1271.333614581555
 10
-3458.656307440748
 20
1268.687615090828
 10
-3456.530947720473
 20
1266.682662253867
 10
-3455.285658677325
 20
1266.535336014361
 97
        1
330
1CC
 75
     0
 76
     1
 98
        0
  0
SPLINE
  5
1CC
102
{ACAD_REACTORS
330
37C
102
}
330
31C
100
AcDbEntity
  8
Bedrock
  6
Continuous
370
     0
100
AcDbSpline
210
0.0
220
0.0
230
1.0
 70
    11
 71
     3
 72
    14
 73
    10
 74
     0
 42
0.0000000001
 43
0.00000001
 40
0.0
 40
0.0
 40
0.0
 40
0.0
 40
0.250274061566288
 40
0.3534036620066482
 40
0.4639808766591616
 40
0.5011402744323898
 40
0.6564598568477743
 40
0.8144194597090283
 40
1.0
 40
1.0
 40
1.0
 40
1.0
 10
-3455.285658677325
 20
1266.535336014361
 30
0.0
 10
-3453.606260901222
 20
1266.336651732708
 30
0.0
 10
-3450.985294369752
 20
1268.459252149272
 30
0.0
 10
-3452.204825658459
 20
1271.356081243066
 30
0.0
 10
-3453.384742639161
 20
1272.261338227593
 30
0.0
 10
-3454.8390566716
 20
1273.637064140629
 30
0.0
 10
-3456.833186943375
 20
1271.333614581555
 30
0.0
 10
-3458.656307440748
 20
1268.687615090828
 30
0.0
 10
-3456.530947720473
 20
1266.682662253867
 30
0.0
 10
-3455.285658677325
 20
1266.535336014361
 30
0.0
  0
HATCH
  5
37D
330
31C
100
AcDbEntity
  8
Bedrock
  6
Continuous
 62
    46
370
     0
100
AcDbHatch
 10
0.0
 20
0.0
 30
0.0
210
0.0
220
0.0
230
1.0
  2
SOLID
 70
     1
 71
     1
 91
        1
 92
        1
 93
        1
 72
     4
 94
        3
 73
     0
 74
     0
 95
       14
 96
       10
 40
0.0
 40
0.0
 40
0.0
 40
0.0
 40
0.1554286683965821
 40
0.32897515182217
 40
0.484199845500432
 40
0.6633052612830417
 40
0.7306446162642826
 40
0.7923364817005142
 40
1.0
 40
1.0
 40
1.0
 40
1.0
 10
-3459.73223832992
 20
1269.188543762871
 10
-3458.822523671397
 20
1269.448002101946
 10
-3457.953234733009
 20
1272.532431239136
 10
-3451.88979210483
 20
1275.582007505503
 10
-3458.682348804018
 20
1274.565957344834
 10
-3461.280038328315
 20
1275.5649862938
 10
-3463.945896976789
 20
1274.18709713802
 10
-3463.679597045581
 20
1271.165671717841
 10
-3460.947680426841
 20
1268.841889364423
 10
-3459.73223832992
 20
1269.188543762871
 97
        1
330
1CF
 75
     0
 76
     1
 98
        0
  0
SPLINE
  5
1CF
102
{ACAD_REACTORS
330
37D
102
}
330
31C
100
AcDbEntity
  8
Bedrock
  6
Continuous
370
     0
100
AcDbSpline
210
0.0
220
0.0
230
1.0
 70
    11
 71
     3
 72
    14
 73
    10
 74
     0
 42
0.0000000001
 43
0.00000001
 40
0.0
 40
0.0
 40
0.0
 40
0.0
 40
0.1554286683965821
 40
0.32897515182217
 40
0.484199845500432
 40
0.6633052612830417
 40
0.7306446162642826
 40
0.7923364817005142
 40
1.0
 40
1.0
 40
1.0
 40
1.0
 10
-3459.73223832992
 20
1269.188543762871
 30
0.0
 10
-3458.822523671397
 20
1269.448002101946
 30
0.0
 10
-3457.953234733009
 20
1272.532431239136
 30
0.0
 10
-3451.88979210483
 20
1275.582007505503
 30
0.0
 10
-3458.682348804018
 20
1274.565957344834
 30
0.0
 10
-3461.280038328315
 20
1275.5649862938
 30
0.0
 10
-3463.945896976789
 20
1274.18709713802
 30
0.0
 10
-3463.679597045581
 20
1271.165671717841
 30
0.0
 10
-3460.947680426841
 20
1268.841889364423
 30
0.0
 10
-3459.73223832992
 20
1269.188543762871
 30
0.0
  0
HATCH
  5
37E
330
31C
100
AcDbEntity
  8
Bedrock
  6
Continuous
 62
    46
370
     0
100
AcDbHatch
 10
0.0
 20
0.0
 30
0.0
210
0.0
220
0.0
230
1.0
  2
SOLID
 70
     1
 71
     1
 91
        1
 92
        1
 93
        1
 72
     4
 94
        3
 73
     0
 74
     0
 95
       15
 96
       11
 40
0.0
 40
0.0
 40
0.0
 40
0.0
 40
0.2260523543365151
 40
0.2864517888153045
 40
0.3282667819160052
 40
0.4206323696176167
 40
0.4932069332426798
 40
0.6478680617781424
 40
0.8388678441172233
 40
1.0
 40
1.0
 40
1.0
 40
1.0
 10
-3459.977905714041
 20
1257.936977570116
 10
-3456.878498477272
 20
1257.977077839281
 10
-3453.423856014821
 20
1259.908244569628
 10
-3453.990461500173
 20
1263.400666042644
 10
-3453.578405352882
 20
1265.678379707889
 10
-3456.312282093329
 20
1266.137825970666
 10
-3458.801523050212
 20
1269.639671442745
 10
-3460.245852079104
 20
1262.806850306338
 10
-3467.429657185335
 20
1259.493582486532
 10
-3462.187191131506
 20
1257.908393736777
 10
-3459.977905714041
 20
1257.936977570116
 97
        1
330
1D2
 75
     0
 76
     1
 98
        0
  0
SPLINE
  5
1D2
102
{ACAD_REACTORS
330
37E
102
}
330
31C
100
AcDbEntity
  8
Bedrock
  6
Continuous
370
     0
100
AcDbSpline
210
0.0
220
0.0
230
1.0
 70
    11
 71
     3
 72
    15
 73
    11
 74
     0
 42
0.0000000001
 43
0.00000001
 40
0.0
 40
0.0
 40
0.0
 40
0.0
 40
0.2260523543365151
 40
0.2864517888153045
 40
0.3282667819160052
 40
0.4206323696176167
 40
0.4932069332426798
 40
0.6478680617781424
 40
0.8388678441172233
 40
1.0
 40
1.0
 40
1.0
 40
1.0
 10
-3459.977905714041
 20
1257.936977570116
 30
0.0
 10
-3456.878498477272
 20
1257.977077839281
 30
0.0
 10
-3453.423856014821
 20
1259.908244569628
 30
0.0
 10
-3453.990461500173
 20
1263.400666042644
 30
0.0
 10
-3453.578405352882
 20
1265.678379707889
 30
0.0
 10
-3456.312282093329
 20
1266.137825970666
 30
0.0
 10
-3458.801523050212
 20
1269.639671442745
 30
0.0
 10
-3460.245852079104
 20
1262.806850306338
 30
0.0
 10
-3467.429657185335
 20
1259.493582486532
 30
0.0
 10
-3462.187191131506
 20
1257.908393736777
 30
0.0
 10
-3459.977905714041
 20
1257.936977570116
 30
0.0
  0
HATCH
  5
37F
330
31C
100
AcDbEntity
  8
Bedrock
  6
Continuous
 62
    46
370
     0
100
AcDbHatch
 10
0.0
 20
0.0
 30
0.0
210
0.0
220
0.0
230
1.0
  2
SOLID
 70
     1
 71
     1
 91
        1
 92
        1
 93
        1
 72
     4
 94
        3
 73
     0
 74
     0
 95
       16
 96
       12
 40
0.0
 40
0.0
 40
0.0
 40
0.0
 40
0.1715979956844397
 40
0.3319974541265613
 40
0.4830983932387137
 40
0.6228277911455317
 40
0.6985122551365738
 40
0.7914974484363551
 40
0.8450144461548912
 40
0.9255755318824728
 40
1.0
 40
1.0
 40
1.0
 40
1.0
 10
-3444.697394421697
 20
1264.422596510918
 10
-3444.19911338637
 20
1265.200540496481
 10
-3446.937388566438
 20
1268.213031965786
 10
-3449.725693923762
 20
1267.454535630271
 10
-3454.629987518792
 20
1266.367301731779
 10
-3451.119187048407
 20
1264.561492389276
 10
-3450.135305704048
 20
1262.305640816645
 10
-3448.205053247069
 20
1263.41603917799
 10
-3446.910720104614
 20
1261.615423521678
 10
-3446.113155655877
 20
1263.687757395572
 10
-3444.913505926259
 20
1264.085191245082
 10
-3444.697394421697
 20
1264.422596510918
 97
        1
330
1D5
 75
     0
 76
     1
 98
        0
  0
SPLINE
  5
1D5
102
{ACAD_REACTORS
330
37F
102
}
330
31C
100
AcDbEntity
  8
Bedrock
  6
Continuous
370
     0
100
AcDbSpline
210
0.0
220
0.0
230
1.0
 70
    11
 71
     3
 72
    16
 73
    12
 74
     0
 42
0.0000000001
 43
0.00000001
 40
0.0
 40
0.0
 40
0.0
 40
0.0
 40
0.1715979956844397
 40
0.3319974541265613
 40
0.4830983932387137
 40
0.6228277911455317
 40
0.6985122551365738
 40
0.7914974484363551
 40
0.8450144461548912
 40
0.9255755318824728
 40
1.0
 40
1.0
 40
1.0
 40
1.0
 10
-3444.697394421697
 20
1264.422596510918
 30
0.0
 10
-3444.19911338637
 20
1265.200540496481
 30
0.0
 10
-3446.937388566438
 20
1268.213031965786
 30
0.0
 10
-3449.725693923762
 20
1267.454535630271
 30
0.0
 10
-3454.629987518792
 20
1266.367301731779
 30
0.0
 10
-3451.119187048407
 20
1264.561492389276
 30
0.0
 10
-3450.135305704048
 20
1262.305640816645
 30
0.0
 10
-3448.205053247069
 20
1263.41603917799
 30
0.0
 10
-3446.910720104614
 20
1261.615423521678
 30
0.0
 10
-3446.113155655877
 20
1263.687757395572
 30
0.0
 10
-3444.913505926259
 20
1264.085191245082
 30
0.0
 10
-3444.697394421697
 20
1264.422596510918
 30
0.0
  0
HATCH
  5
380
330
31C
100
AcDbEntity
  8
Bedrock
  6
Continuous
 62
    46
370
     0
100
AcDbHatch
 10
0.0
 20
0.0
 30
0.0
210
0.0
220
0.0
230
1.0
  2
SOLID
 70
     1
 71
     1
 91
        1
 92
        1
 93
        1
 72
     4
 94
        3
 73
     0
 74
     0
 95
       11
 96
        7
 40
0.0
 40
0.0
 40
0.0
 40
0.0
 40
0.3909515992404785
 40
0.6513401461625028
 40
0.8047201199286336
 40
1.0
 40
1.0
 40
1.0
 40
1.0
 10
-3446.018987974302
 20
1268.738067359566
 10
-3446.330148819158
 20
1268.392558518896
 10
-3445.451060448094
 20
1266.625323187228
 10
-3444.813567515907
 20
1268.179526259963
 10
-3445.212401206821
 20
1268.900170574275
 10
-3445.86356348548
 20
1268.910648633311
 10
-3446.018987974302
 20
1268.738067359566
 97
        1
330
1E4
 75
     0
 76
     1
 98
        0
  0
SPLINE
  5
1E4
102
{ACAD_REACTORS
330
380
102
}
330
31C
100
AcDbEntity
  8
Bedrock
  6
Continuous
370
     0
100
AcDbSpline
210
0.0
220
0.0
230
1.0
 70
    11
 71
     3
 72
    11
 73
     7
 74
     0
 42
0.0000000001
 43
0.00000001
 40
0.0
 40
0.0
 40
0.0
 40
0.0
 40
0.3909515992404785
 40
0.6513401461625028
 40
0.8047201199286336
 40
1.0
 40
1.0
 40
1.0
 40
1.0
 10
-3446.018987974302
 20
1268.738067359566
 30
0.0
 10
-3446.330148819158
 20
1268.392558518896
 30
0.0
 10
-3445.451060448094
 20
1266.625323187228
 30
0.0
 10
-3444.813567515907
 20
1268.179526259963
 30
0.0
 10
-3445.212401206821
 20
1268.900170574275
 30
0.0
 10
-3445.86356348548
 20
1268.910648633311
 30
0.0
 10
-3446.018987974302
 20
1268.738067359566
 30
0.0
  0
HATCH
  5
381
330
31C
100
AcDbEntity
  8
Bedrock
  6
Continuous
 62
    46
370
     0
100
AcDbHatch
 10
0.0
 20
0.0
 30
0.0
210
0.0
220
0.0
230
1.0
  2
SOLID
 70
     1
 71
     1
 91
        1
 92
        1
 93
        1
 72
     4
 94
        3
 73
     0
 74
     0
 95
       12
 96
        8
 40
0.0
 40
0.0
 40
0.0
 40
0.0
 40
0.2240564161890733
 40
0.3881540731162715
 40
0.5728380952686865
 40
0.7535704713292041
 40
1.0
 40
1.0
 40
1.0
 40
1.0
 10
-3444.618748534123
 20
1270.184595706859
 10
-3444.368523630692
 20
1270.003379692354
 10
-3443.6325836821
 20
1269.997226235993
 10
-3443.778757018715
 20
1270.822244201386
 10
-3444.075848051195
 20
1271.542044005892
 10
-3445.00492832387
 20
1271.101931489328
 10
-3444.893959599544
 20
1270.383907013367
 10
-3444.618748534123
 20
1270.184595706859
 97
        1
330
1E7
 75
     0
 76
     1
 98
        0
  0
SPLINE
  5
1E7
102
{ACAD_REACTORS
330
381
102
}
330
31C
100
AcDbEntity
  8
Bedrock
  6
Continuous
370
     0
100
AcDbSpline
210
0.0
220
0.0
230
1.0
 70
    11
 71
     3
 72
    12
 73
     8
 74
     0
 42
0.0000000001
 43
0.00000001
 40
0.0
 40
0.0
 40
0.0
 40
0.0
 40
0.2240564161890733
 40
0.3881540731162715
 40
0.5728380952686865
 40
0.7535704713292041
 40
1.0
 40
1.0
 40
1.0
 40
1.0
 10
-3444.618748534123
 20
1270.184595706859
 30
0.0
 10
-3444.368523630692
 20
1270.003379692354
 30
0.0
 10
-3443.6325836821
 20
1269.997226235993
 30
0.0
 10
-3443.778757018715
 20
1270.822244201386
 30
0.0
 10
-3444.075848051195
 20
1271.542044005892
 30
0.0
 10
-3445.00492832387
 20
1271.101931489328
 30
0.0
 10
-3444.893959599544
 20
1270.383907013367
 30
0.0
 10
-3444.618748534123
 20
1270.184595706859
 30
0.0
  0
HATCH
  5
382
330
31C
100
AcDbEntity
  8
Bedrock
  6
Continuous
 62
    46
370
     0
100
AcDbHatch
 10
0.0
 20
0.0
 30
0.0
210
0.0
220
0.0
230
1.0
  2
SOLID
 70
     1
 71
     1
 91
        1
 92
        1
 93
        1
 72
     4
 94
        3
 73
     0
 74
     0
 95
       12
 96
        8
 40
0.0
 40
0.0
 40
0.0
 40
0.0
 40
0.3122495756154972
 40
0.4631594453752527
 40
0.6331096480265887
 40
0.7656469280772428
 40
1.0
 40
1.0
 40
1.0
 40
1.0
 10
-3444.225292823659
 20
1268.437189463329
 10
-3443.93881690346
 20
1268.540836712909
 10
-3443.918118817606
 20
1269.698886336618
 10
-3444.835336258717
 20
1270.172071005838
 10
-3445.393696118308
 20
1269.499091380034
 10
-3445.01723659214
 20
1268.834707776156
 10
-3444.440301961135
 20
1268.359398961012
 10
-3444.225292823659
 20
1268.437189463329
 97
        1
330
1EA
 75
     0
 76
     1
 98
        0
  0
SPLINE
  5
1EA
102
{ACAD_REACTORS
330
382
102
}
330
31C
100
AcDbEntity
  8
Bedrock
  6
Continuous
370
     0
100
AcDbSpline
210
0.0
220
0.0
230
1.0
 70
    11
 71
     3
 72
    12
 73
     8
 74
     0
 42
0.0000000001
 43
0.00000001
 40
0.0
 40
0.0
 40
0.0
 40
0.0
 40
0.3122495756154972
 40
0.4631594453752527
 40
0.6331096480265887
 40
0.7656469280772428
 40
1.0
 40
1.0
 40
1.0
 40
1.0
 10
-3444.225292823659
 20
1268.437189463329
 30
0.0
 10
-3443.93881690346
 20
1268.540836712909
 30
0.0
 10
-3443.918118817606
 20
1269.698886336618
 30
0.0
 10
-3444.835336258717
 20
1270.172071005838
 30
0.0
 10
-3445.393696118308
 20
1269.499091380034
 30
0.0
 10
-3445.01723659214
 20
1268.834707776156
 30
0.0
 10
-3444.440301961135
 20
1268.359398961012
 30
0.0
 10
-3444.225292823659
 20
1268.437189463329
 30
0.0
  0
HATCH
  5
383
330
31C
100
AcDbEntity
  8
Bedrock
  6
Continuous
 62
    46
370
     0
100
AcDbHatch
 10
0.0
 20
0.0
 30
0.0
210
0.0
220
0.0
230
1.0
  2
SOLID
 70
     1
 71
     1
 91
        1
 92
        1
 93
        1
 72
     4
 94
        3
 73
     0
 74
     0
 95
       12
 96
        8
 40
0.0
 40
0.0
 40
0.0
 40
0.0
 40
0.2668520640487317
 40
0.4319271084163688
 40
0.5671492500314919
 40
0.755922889847831
 40
1.0
 40
1.0
 40
1.0
 40
1.0
 10
-3445.984271293967
 20
1269.316678698483
 10
-3445.631499707028
 20
1269.26467150056
 10
-3445.009249564945
 20
1270.206734311547
 10
-3445.184463519259
 20
1271.360307812388
 10
-3446.228538539431
 20
1271.304456194951
 10
-3446.832173069085
 20
1270.389268765402
 10
-3446.306934975775
 20
1269.364247251575
 10
-3445.984271293967
 20
1269.316678698483
 97
        1
330
1ED
 75
     0
 76
     1
 98
        0
  0
SPLINE
  5
1ED
102
{ACAD_REACTORS
330
383
102
}
330
31C
100
AcDbEntity
  8
Bedrock
  6
Continuous
370
     0
100
AcDbSpline
210
0.0
220
0.0
230
1.0
 70
    11
 71
     3
 72
    12
 73
     8
 74
     0
 42
0.0000000001
 43
0.00000001
 40
0.0
 40
0.0
 40
0.0
 40
0.0
 40
0.2668520640487317
 40
0.4319271084163688
 40
0.5671492500314919
 40
0.755922889847831
 40
1.0
 40
1.0
 40
1.0
 40
1.0
 10
-3445.984271293967
 20
1269.316678698483
 30
0.0
 10
-3445.631499707028
 20
1269.26467150056
 30
0.0
 10
-3445.009249564945
 20
1270.206734311547
 30
0.0
 10
-3445.184463519259
 20
1271.360307812388
 30
0.0
 10
-3446.228538539431
 20
1271.304456194951
 30
0.0
 10
-3446.832173069085
 20
1270.389268765402
 30
0.0
 10
-3446.306934975775
 20
1269.364247251575
 30
0.0
 10
-3445.984271293967
 20
1269.316678698483
 30
0.0
  0
HATCH
  5
384
330
31C
100
AcDbEntity
  8
Bedrock
  6
Continuous
 62
    46
370
     0
100
AcDbHatch
 10
0.0
 20
0.0
 30
0.0
210
0.0
220
0.0
230
1.0
  2
SOLID
 70
     1
 71
     1
 91
        1
 92
        1
 93
        1
 72
     4
 94
        3
 73
     0
 74
     0
 95
       37
 96
       33
 40
0.0
 40
0.0
 40
0.0
 40
0.0
 40
0.0203572826950411
 40
0.0462358652934168
 40
0.0641687711363419
 40
0.0852159084356633
 40
0.1170310364017287
 40
0.1757612745406676
 40
0.2296641798242256
 40
0.2700895845366484
 40
0.2968546921906399
 40
0.321620395469857
 40
0.3377804604684935
 40
0.3885852711508517
 40
0.471468705484203
 40
0.5258590888039924
 40
0.5380630143236683
 40
0.5588234506648159
 40
0.6006685905948128
 40
0.665442852857428
 40
0.6787752890531109
 40
0.7189507319143014
 40
0.7610480356407559
 40
0.7893732029675913
 40
0.827396200680649
 40
0.85359797204637
 40
0.8850584232027512
 40
0.90905000621198
 40
0.9275774564237811
 40
0.9551636979536888
 40
0.9637487324842146
 40
1.0
 40
1.0
 40
1.0
 40
1.0
 10
-3430.531511438103
 20
1249.544372025003
 10
-3430.715095246879
 20
1249.921156772836
 10
-3432.090182795614
 20
1250.54958483383
 10
-3431.658304325635
 20
1252.678384445405
 10
-3433.624027775303
 20
1253.032431561825
 10
-3433.926211553066
 20
1255.369394650383
 10
-3437.535166041457
 20
1253.744815878973
 10
-3440.304669885069
 20
1257.827055717041
 10
-3443.857401644093
 20
1254.946513468732
 10
-3447.760260548055
 20
1255.660294241103
 10
-3447.780444827519
 20
1252.523702374962
 10
-3446.047665522744
 20
1251.634527696933
 10
-3446.225219797775
 20
1249.06309090152
 10
-3449.660586671112
 20
1246.54881214044
 10
-3450.471602754476
 20
1242.817423446694
 10
-3454.622938827424
 20
1238.059255300404
 10
-3452.13100898998
 20
1237.486631749674
 10
-3451.316504509511
 20
1235.593004155091
 10
-3447.695970282794
 20
1235.131320716725
 10
-3444.765652450119
 20
1235.488370505067
 10
-3442.096867033767
 20
1237.153682824089
 10
-3439.699228009158
 20
1235.090545449454
 10
-3436.987192742128
 20
1237.003704369642
 10
-3434.252196874302
 20
1235.538659387656
 10
-3432.209811734491
 20
1237.178204073159
 10
-3430.555892832674
 20
1239.334402612527
 10
-3432.53765110229
 20
1241.408006405886
 10
-3430.955909561863
 20
1242.8797176717
 10
-3430.233585298608
 20
1244.659071071823
 10
-3431.453513231656
 20
1245.812388027261
 10
-3431.454798738538
 20
1247.650985334487
 10
-3430.204594242758
 20
1248.87341191239
 10
-3430.531511438103
 20
1249.544372025003
 97
        1
330
1F0
 75
     0
 76
     1
 98
        0
  0
SPLINE
  5
1F0
102
{ACAD_REACTORS
330
384
102
}
330
31C
100
AcDbEntity
  8
Bedrock
  6
Continuous
370
     0
100
AcDbSpline
210
0.0
220
0.0
230
1.0
 70
    11
 71
     3
 72
    37
 73
    33
 74
     0
 42
0.0000000001
 43
0.00000001
 40
0.0
 40
0.0
 40
0.0
 40
0.0
 40
0.0203572826950411
 40
0.0462358652934168
 40
0.0641687711363419
 40
0.0852159084356633
 40
0.1170310364017287
 40
0.1757612745406676
 40
0.2296641798242256
 40
0.2700895845366484
 40
0.2968546921906399
 40
0.321620395469857
 40
0.3377804604684935
 40
0.3885852711508517
 40
0.471468705484203
 40
0.5258590888039924
 40
0.5380630143236683
 40
0.5588234506648159
 40
0.6006685905948128
 40
0.665442852857428
 40
0.6787752890531109
 40
0.7189507319143014
 40
0.7610480356407559
 40
0.7893732029675913
 40
0.827396200680649
 40
0.85359797204637
 40
0.8850584232027512
 40
0.90905000621198
 40
0.9275774564237811
 40
0.9551636979536888
 40
0.9637487324842146
 40
1.0
 40
1.0
 40
1.0
 40
1.0
 10
-3430.531511438103
 20
1249.544372025003
 30
0.0
 10
-3430.715095246879
 20
1249.921156772836
 30
0.0
 10
-3432.090182795614
 20
1250.54958483383
 30
0.0
 10
-3431.658304325635
 20
1252.678384445405
 30
0.0
 10
-3433.624027775303
 20
1253.032431561825
 30
0.0
 10
-3433.926211553066
 20
1255.369394650383
 30
0.0
 10
-3437.535166041457
 20
1253.744815878973
 30
0.0
 10
-3440.304669885069
 20
1257.827055717041
 30
0.0
 10
-3443.857401644093
 20
1254.946513468732
 30
0.0
 10
-3447.760260548055
 20
1255.660294241103
 30
0.0
 10
-3447.780444827519
 20
1252.523702374962
 30
0.0
 10
-3446.047665522744
 20
1251.634527696933
 30
0.0
 10
-3446.225219797775
 20
1249.06309090152
 30
0.0
 10
-3449.660586671112
 20
1246.54881214044
 30
0.0
 10
-3450.471602754476
 20
1242.817423446694
 30
0.0
 10
-3454.622938827424
 20
1238.059255300404
 30
0.0
 10
-3452.13100898998
 20
1237.486631749674
 30
0.0
 10
-3451.316504509511
 20
1235.593004155091
 30
0.0
 10
-3447.695970282794
 20
1235.131320716725
 30
0.0
 10
-3444.765652450119
 20
1235.488370505067
 30
0.0
 10
-3442.096867033767
 20
1237.153682824089
 30
0.0
 10
-3439.699228009158
 20
1235.090545449454
 30
0.0
 10
-3436.987192742128
 20
1237.003704369642
 30
0.0
 10
-3434.252196874302
 20
1235.538659387656
 30
0.0
 10
-3432.209811734491
 20
1237.178204073159
 30
0.0
 10
-3430.555892832674
 20
1239.334402612527
 30
0.0
 10
-3432.53765110229
 20
1241.408006405886
 30
0.0
 10
-3430.955909561863
 20
1242.8797176717
 30
0.0
 10
-3430.233585298608
 20
1244.659071071823
 30
0.0
 10
-3431.453513231656
 20
1245.812388027261
 30
0.0
 10
-3431.454798738538
 20
1247.650985334487
 30
0.0
 10
-3430.204594242758
 20
1248.87341191239
 30
0.0
 10
-3430.531511438103
 20
1249.544372025003
 30
0.0
  0
HATCH
  5
385
330
31C
100
AcDbEntity
  8
Bedrock
  6
Continuous
 62
    46
370
     0
100
AcDbHatch
 10
0.0
 20
0.0
 30
0.0
210
0.0
220
0.0
230
1.0
  2
SOLID
 70
     1
 71
     1
 91
        1
 92
        1
 93
        1
 72
     4
 94
        3
 73
     0
 74
     0
 95
       29
 96
       25
 40
0.0
 40
0.0
 40
0.0
 40
0.0
 40
0.0967150735410544
 40
0.2091964283026723
 40
0.2883810925426554
 40
0.332994189369634
 40
0.3895477282312889
 40
0.4341401405211104
 40
0.477622194019354
 40
0.5191951853195324
 40
0.5579107750554068
 40
0.589128714670121
 40
0.6243984645318422
 40
0.6410350567367437
 40
0.6907472678986425
 40
0.7201385807939699
 40
0.7550578151269614
 40
0.8143120121428181
 40
0.8657660510454557
 40
0.8937586246258767
 40
0.9164953006392432
 40
0.9320326862748608
 40
0.9740068959610373
 40
1.0
 40
1.0
 40
1.0
 40
1.0
 10
-3447.421968205035
 20
1258.008664129425
 10
-3448.235496440957
 20
1259.409317253092
 10
-3453.409452569842
 20
1252.311587020746
 10
-3458.86686825885
 20
1250.246736879646
 10
-3465.153179929458
 20
1253.308500021891
 10
-3467.619700467693
 20
1249.064382791841
 10
-3467.505937202066
 20
1245.978750444066
 10
-3469.396081349853
 20
1242.247348234937
 10
-3465.898475310873
 20
1240.902798184965
 10
-3464.20513637279
 20
1238.805899202467
 10
-3462.252839442881
 20
1236.900285046848
 10
-3459.748671607521
 20
1236.784382174743
 10
-3458.022551126269
 20
1235.946785346487
 10
-3455.608126483248
 20
1235.821645906141
 10
-3453.931281515917
 20
1238.196788389209
 10
-3454.523847832617
 20
1240.802892804018
 10
-3453.232271276159
 20
1243.481114593703
 10
-3451.254216323368
 20
1246.148671760089
 10
-3450.08180219413
 20
1249.075266588981
 10
-3448.10036630889
 20
1250.801089776685
 10
-3448.758634800445
 20
1252.527276106923
 10
-3447.305554241623
 20
1253.903259235474
 10
-3446.929743275008
 20
1255.763590846819
 10
-3447.20332468546
 20
1257.63222516254
 10
-3447.421968205035
 20
1258.008664129425
 97
        1
330
1F3
 75
     0
 76
     1
 98
        0
  0
SPLINE
  5
1F3
102
{ACAD_REACTORS
330
385
102
}
330
31C
100
AcDbEntity
  8
Bedrock
  6
Continuous
370
     0
100
AcDbSpline
210
0.0
220
0.0
230
1.0
 70
    11
 71
     3
 72
    29
 73
    25
 74
     0
 42
0.0000000001
 43
0.00000001
 40
0.0
 40
0.0
 40
0.0
 40
0.0
 40
0.0967150735410544
 40
0.2091964283026723
 40
0.2883810925426554
 40
0.332994189369634
 40
0.3895477282312889
 40
0.4341401405211104
 40
0.477622194019354
 40
0.5191951853195324
 40
0.5579107750554068
 40
0.589128714670121
 40
0.6243984645318422
 40
0.6410350567367437
 40
0.6907472678986425
 40
0.7201385807939699
 40
0.7550578151269614
 40
0.8143120121428181
 40
0.8657660510454557
 40
0.8937586246258767
 40
0.9164953006392432
 40
0.9320326862748608
 40
0.9740068959610373
 40
1.0
 40
1.0
 40
1.0
 40
1.0
 10
-3447.421968205035
 20
1258.008664129425
 30
0.0
 10
-3448.235496440957
 20
1259.409317253092
 30
0.0
 10
-3453.409452569842
 20
1252.311587020746
 30
0.0
 10
-3458.86686825885
 20
1250.246736879646
 30
0.0
 10
-3465.153179929458
 20
1253.308500021891
 30
0.0
 10
-3467.619700467693
 20
1249.064382791841
 30
0.0
 10
-3467.505937202066
 20
1245.978750444066
 30
0.0
 10
-3469.396081349853
 20
1242.247348234937
 30
0.0
 10
-3465.898475310873
 20
1240.902798184965
 30
0.0
 10
-3464.20513637279
 20
1238.805899202467
 30
0.0
 10
-3462.252839442881
 20
1236.900285046848
 30
0.0
 10
-3459.748671607521
 20
1236.784382174743
 30
0.0
 10
-3458.022551126269
 20
1235.946785346487
 30
0.0
 10
-3455.608126483248
 20
1235.821645906141
 30
0.0
 10
-3453.931281515917
 20
1238.196788389209
 30
0.0
 10
-3454.523847832617
 20
1240.802892804018
 30
0.0
 10
-3453.232271276159
 20
1243.481114593703
 30
0.0
 10
-3451.254216323368
 20
1246.148671760089
 30
0.0
 10
-3450.08180219413
 20
1249.075266588981
 30
0.0
 10
-3448.10036630889
 20
1250.801089776685
 30
0.0
 10
-3448.758634800445
 20
1252.527276106923
 30
0.0
 10
-3447.305554241623
 20
1253.903259235474
 30
0.0
 10
-3446.929743275008
 20
1255.763590846819
 30
0.0
 10
-3447.20332468546
 20
1257.63222516254
 30
0.0
 10
-3447.421968205035
 20
1258.008664129425
 30
0.0
  0
HATCH
  5
386
330
31C
100
AcDbEntity
  8
Bedrock
  6
Continuous
 62
    46
370
     0
100
AcDbHatch
 10
0.0
 20
0.0
 30
0.0
210
0.0
220
0.0
230
1.0
  2
SOLID
 70
     1
 71
     1
 91
        1
 92
        1
 93
        1
 72
     4
 94
        3
 73
     0
 74
     0
 95
       15
 96
       11
 40
0.0
 40
0.0
 40
0.0
 40
0.0
 40
0.1062818648136098
 40
0.2480050935217991
 40
0.3927117684506102
 40
0.4912450962007243
 40
0.6252327581718445
 40
0.7565406669035429
 40
0.8566645106380724
 40
1.0
 40
1.0
 40
1.0
 40
1.0
 10
-3469.26211944742
 20
1284.100376318785
 10
-3468.75226570752
 20
1284.292740306844
 10
-3468.033523958892
 20
1285.583171609373
 10
-3469.427751177256
 20
1287.19446649454
 10
-3468.282061174458
 20
1289.298636381398
 10
-3470.730034241727
 20
1290.350101319452
 10
-3470.874769185823
 20
1287.867634893522
 10
-3470.476584018621
 20
1286.373177917309
 10
-3471.741189532479
 20
1284.514450259244
 10
-3469.949726269523
 20
1283.840947427389
 10
-3469.26211944742
 20
1284.100376318785
 97
        1
330
1F6
 75
     0
 76
     1
 98
        0
  0
SPLINE
  5
1F6
102
{ACAD_REACTORS
330
386
102
}
330
31C
100
AcDbEntity
  8
Bedrock
  6
Continuous
370
     0
100
AcDbSpline
210
0.0
220
0.0
230
1.0
 70
    11
 71
     3
 72
    15
 73
    11
 74
     0
 42
0.0000000001
 43
0.00000001
 40
0.0
 40
0.0
 40
0.0
 40
0.0
 40
0.1062818648136098
 40
0.2480050935217991
 40
0.3927117684506102
 40
0.4912450962007243
 40
0.6252327581718445
 40
0.7565406669035429
 40
0.8566645106380724
 40
1.0
 40
1.0
 40
1.0
 40
1.0
 10
-3469.26211944742
 20
1284.100376318785
 30
0.0
 10
-3468.75226570752
 20
1284.292740306844
 30
0.0
 10
-3468.033523958892
 20
1285.583171609373
 30
0.0
 10
-3469.427751177256
 20
1287.19446649454
 30
0.0
 10
-3468.282061174458
 20
1289.298636381398
 30
0.0
 10
-3470.730034241727
 20
1290.350101319452
 30
0.0
 10
-3470.874769185823
 20
1287.867634893522
 30
0.0
 10
-3470.476584018621
 20
1286.373177917309
 30
0.0
 10
-3471.741189532479
 20
1284.514450259244
 30
0.0
 10
-3469.949726269523
 20
1283.840947427389
 30
0.0
 10
-3469.26211944742
 20
1284.100376318785
 30
0.0
  0
HATCH
  5
387
330
31C
100
AcDbEntity
  8
Bedrock
  6
Continuous
 62
    46
370
     0
100
AcDbHatch
 10
0.0
 20
0.0
 30
0.0
210
0.0
220
0.0
230
1.0
  2
SOLID
 70
     1
 71
     1
 91
        1
 92
        1
 93
        1
 72
     4
 94
        3
 73
     0
 74
     0
 95
       16
 96
       12
 40
0.0
 40
0.0
 40
0.0
 40
0.0
 40
0.0742565518976136
 40
0.2767529942924557
 40
0.3702629063926761
 40
0.4833308237490848
 40
0.5483856891446026
 40
0.6659260527896932
 40
0.811145612746864
 40
0.9080564807487981
 40
1.0
 40
1.0
 40
1.0
 40
1.0
 10
-3466.273831019896
 20
1275.778560444665
 10
-3465.709354604442
 20
1275.867496189695
 10
-3463.494054907458
 20
1277.374048192819
 10
-3466.400126881949
 20
1280.286651943897
 10
-3466.376728828698
 20
1283.74550532745
 10
-3468.849342955648
 20
1284.283175877155
 10
-3471.440697602831
 20
1283.723881413669
 10
-3470.337221464262
 20
1280.604501418345
 10
-3470.967507011834
 20
1277.558684499978
 10
-3468.314159900933
 20
1276.435123341092
 10
-3466.972758546758
 20
1275.668441334952
 10
-3466.273831019896
 20
1275.778560444665
 97
        1
330
1F9
 75
     0
 76
     1
 98
        0
  0
SPLINE
  5
1F9
102
{ACAD_REACTORS
330
387
102
}
330
31C
100
AcDbEntity
  8
Bedrock
  6
Continuous
370
     0
100
AcDbSpline
210
0.0
220
0.0
230
1.0
 70
    11
 71
     3
 72
    16
 73
    12
 74
     0
 42
0.0000000001
 43
0.00000001
 40
0.0
 40
0.0
 40
0.0
 40
0.0
 40
0.0742565518976136
 40
0.2767529942924557
 40
0.3702629063926761
 40
0.4833308237490848
 40
0.5483856891446026
 40
0.6659260527896932
 40
0.811145612746864
 40
0.9080564807487981
 40
1.0
 40
1.0
 40
1.0
 40
1.0
 10
-3466.273831019896
 20
1275.778560444665
 30
0.0
 10
-3465.709354604442
 20
1275.867496189695
 30
0.0
 10
-3463.494054907458
 20
1277.374048192819
 30
0.0
 10
-3466.400126881949
 20
1280.286651943897
 30
0.0
 10
-3466.376728828698
 20
1283.74550532745
 30
0.0
 10
-3468.849342955648
 20
1284.283175877155
 30
0.0
 10
-3471.440697602831
 20
1283.723881413669
 30
0.0
 10
-3470.337221464262
 20
1280.604501418345
 30
0.0
 10
-3470.967507011834
 20
1277.558684499978
 30
0.0
 10
-3468.314159900933
 20
1276.435123341092
 30
0.0
 10
-3466.972758546758
 20
1275.668441334952
 30
0.0
 10
-3466.273831019896
 20
1275.778560444665
 30
0.0
  0
HATCH
  5
388
330
31C
100
AcDbEntity
  8
Bedrock
  6
Continuous
 62
    46
370
     0
100
AcDbHatch
 10
0.0
 20
0.0
 30
0.0
210
0.0
220
0.0
230
1.0
  2
SOLID
 70
     1
 71
     1
 91
        1
 92
        1
 93
        1
 72
     4
 94
        3
 73
     0
 74
     0
 95
       21
 96
       17
 40
0.0
 40
0.0
 40
0.0
 40
0.0
 40
0.0463931324760641
 40
0.0825315112974248
 40
0.1702150391778505
 40
0.2796752841720698
 40
0.3923958894522548
 40
0.5184260964049314
 40
0.5427733469170967
 40
0.5773854831505881
 40
0.6165890332480739
 40
0.6942081023855304
 40
0.7808832675716591
 40
0.8886146131866803
 40
0.9812049921779014
 40
1.0
 40
1.0
 40
1.0
 40
1.0
 10
-3448.59828414894
 20
1258.200516189124
 10
-3448.06719520408
 20
1258.519808700188
 10
-3446.437326328252
 20
1257.870547245772
 10
-3445.819052584487
 20
1261.403864887431
 10
-3450.832493125246
 20
1259.386669448308
 10
-3454.581049799092
 20
1259.968178785643
 10
-3459.298104481186
 20
1257.302272225445
 10
-3462.328770551606
 20
1255.904118653582
 10
-3464.830748686836
 20
1254.217204292526
 10
-3463.851381317549
 20
1252.651991239523
 10
-3461.955031955372
 20
1251.856631603074
 10
-3459.103361110083
 20
1250.798650580017
 10
-3455.258407819273
 20
1252.156668682077
 10
-3452.08773910463
 20
1254.714461790466
 10
-3449.7139577616
 20
1256.639017414915
 10
-3448.813441443568
 20
1258.071162879212
 10
-3448.59828414894
 20
1258.200516189124
 97
        1
330
1FC
 75
     0
 76
     1
 98
        0
  0
SPLINE
  5
1FC
102
{ACAD_REACTORS
330
388
102
}
330
31C
100
AcDbEntity
  8
Bedrock
  6
Continuous
370
     0
100
AcDbSpline
210
0.0
220
0.0
230
1.0
 70
    11
 71
     3
 72
    21
 73
    17
 74
     0
 42
0.0000000001
 43
0.00000001
 40
0.0
 40
0.0
 40
0.0
 40
0.0
 40
0.0463931324760641
 40
0.0825315112974248
 40
0.1702150391778505
 40
0.2796752841720698
 40
0.3923958894522548
 40
0.5184260964049314
 40
0.5427733469170967
 40
0.5773854831505881
 40
0.6165890332480739
 40
0.6942081023855304
 40
0.7808832675716591
 40
0.8886146131866803
 40
0.9812049921779014
 40
1.0
 40
1.0
 40
1.0
 40
1.0
 10
-3448.59828414894
 20
1258.200516189124
 30
0.0
 10
-3448.06719520408
 20
1258.519808700188
 30
0.0
 10
-3446.437326328252
 20
1257.870547245772
 30
0.0
 10
-3445.819052584487
 20
1261.403864887431
 30
0.0
 10
-3450.832493125246
 20
1259.386669448308
 30
0.0
 10
-3454.581049799092
 20
1259.968178785643
 30
0.0
 10
-3459.298104481186
 20
1257.302272225445
 30
0.0
 10
-3462.328770551606
 20
1255.904118653582
 30
0.0
 10
-3464.830748686836
 20
1254.217204292526
 30
0.0
 10
-3463.851381317549
 20
1252.651991239523
 30
0.0
 10
-3461.955031955372
 20
1251.856631603074
 30
0.0
 10
-3459.103361110083
 20
1250.798650580017
 30
0.0
 10
-3455.258407819273
 20
1252.156668682077
 30
0.0
 10
-3452.08773910463
 20
1254.714461790466
 30
0.0
 10
-3449.7139577616
 20
1256.639017414915
 30
0.0
 10
-3448.813441443568
 20
1258.071162879212
 30
0.0
 10
-3448.59828414894
 20
1258.200516189124
 30
0.0
  0
HATCH
  5
389
330
31C
100
AcDbEntity
  8
Bedrock
  6
Continuous
 62
    46
370
     0
100
AcDbHatch
 10
0.0
 20
0.0
 30
0.0
210
0.0
220
0.0
230
1.0
  2
SOLID
 70
     1
 71
     1
 91
        1
 92
        1
 93
        1
 72
     4
 94
        3
 73
     0
 74
     0
 95
       30
 96
       26
 40
0.0
 40
0.0
 40
0.0
 40
0.0
 40
0.0601720544601762
 40
0.1093564777803913
 40
0.1485506443416739
 40
0.2042054863480383
 40
0.2551444682238696
 40
0.3009254767617555
 40
0.3593599212401476
 40
0.4088526172325694
 40
0.47010194223097
 40
0.5126991339767523
 40
0.5493256019090339
 40
0.5831902385371641
 40
0.6062297603208112
 40
0.6525803192167169
 40
0.6865906108681219
 40
0.7243719968351937
 40
0.7592543472468899
 40
0.7919070967012107
 40
0.840742387277586
 40
0.8672650190342121
 40
0.9122838647872786
 40
0.9575637891893997
 40
1.0
 40
1.0
 40
1.0
 40
1.0
 10
-3429.852431466411
 20
1235.186603545611
 10
-3430.352164638092
 20
1235.791895619537
 10
-3432.808587435341
 20
1235.564037143069
 10
-3434.048508094641
 20
1233.663791846565
 10
-3436.514872006894
 20
1233.413758498692
 10
-3437.249515619538
 20
1231.017843351543
 10
-3439.228270600472
 20
1229.574578220996
 10
-3441.4322012769
 20
1229.201873211225
 10
-3444.057418273298
 20
1227.67682894168
 10
-3442.676485374422
 20
1225.289388128496
 10
-3442.007386366378
 20
1221.875380349861
 10
-3439.925172186146
 20
1224.023718722749
 10
-3437.890358210694
 20
1223.06300214656
 10
-3437.476625618513
 20
1224.876365391194
 10
-3435.984641551779
 20
1225.610843341457
 10
-3434.400481968569
 20
1225.119635231111
 10
-3432.775066446765
 20
1223.927102113352
 10
-3431.30061088403
 20
1225.222526773289
 10
-3429.522566203857
 20
1224.468409372627
 10
-3428.395159918981
 20
1226.387082297816
 10
-3429.247724726687
 20
1228.062946385354
 10
-3427.756429771531
 20
1229.621115285908
 10
-3429.176662469372
 20
1231.329478623216
 10
-3429.647310089582
 20
1233.126170166022
 10
-3429.499995731703
 20
1234.7597226242
 10
-3429.852431466411
 20
1235.186603545611
 97
        1
330
1FF
 75
     0
 76
     1
 98
        0
  0
SPLINE
  5
1FF
102
{ACAD_REACTORS
330
389
102
}
330
31C
100
AcDbEntity
  8
Bedrock
  6
Continuous
370
     0
100
AcDbSpline
210
0.0
220
0.0
230
1.0
 70
    11
 71
     3
 72
    30
 73
    26
 74
     0
 42
0.0000000001
 43
0.00000001
 40
0.0
 40
0.0
 40
0.0
 40
0.0
 40
0.0601720544601762
 40
0.1093564777803913
 40
0.1485506443416739
 40
0.2042054863480383
 40
0.2551444682238696
 40
0.3009254767617555
 40
0.3593599212401476
 40
0.4088526172325694
 40
0.47010194223097
 40
0.5126991339767523
 40
0.5493256019090339
 40
0.5831902385371641
 40
0.6062297603208112
 40
0.6525803192167169
 40
0.6865906108681219
 40
0.7243719968351937
 40
0.7592543472468899
 40
0.7919070967012107
 40
0.840742387277586
 40
0.8672650190342121
 40
0.9122838647872786
 40
0.9575637891893997
 40
1.0
 40
1.0
 40
1.0
 40
1.0
 10
-3429.852431466411
 20
1235.186603545611
 30
0.0
 10
-3430.352164638092
 20
1235.791895619537
 30
0.0
 10
-3432.808587435341
 20
1235.564037143069
 30
0.0
 10
-3434.048508094641
 20
1233.663791846565
 30
0.0
 10
-3436.514872006894
 20
1233.413758498692
 30
0.0
 10
-3437.249515619538
 20
1231.017843351543
 30
0.0
 10
-3439.228270600472
 20
1229.574578220996
 30
0.0
 10
-3441.4322012769
 20
1229.201873211225
 30
0.0
 10
-3444.057418273298
 20
1227.67682894168
 30
0.0
 10
-3442.676485374422
 20
1225.289388128496
 30
0.0
 10
-3442.007386366378
 20
1221.875380349861
 30
0.0
 10
-3439.925172186146
 20
1224.023718722749
 30
0.0
 10
-3437.890358210694
 20
1223.06300214656
 30
0.0
 10
-3437.476625618513
 20
1224.876365391194
 30
0.0
 10
-3435.984641551779
 20
1225.610843341457
 30
0.0
 10
-3434.400481968569
 20
1225.119635231111
 30
0.0
 10
-3432.775066446765
 20
1223.927102113352
 30
0.0
 10
-3431.30061088403
 20
1225.222526773289
 30
0.0
 10
-3429.522566203857
 20
1224.468409372627
 30
0.0
 10
-3428.395159918981
 20
1226.387082297816
 30
0.0
 10
-3429.247724726687
 20
1228.062946385354
 30
0.0
 10
-3427.756429771531
 20
1229.621115285908
 30
0.0
 10
-3429.176662469372
 20
1231.329478623216
 30
0.0
 10
-3429.647310089582
 20
1233.126170166022
 30
0.0
 10
-3429.499995731703
 20
1234.7597226242
 30
0.0
 10
-3429.852431466411
 20
1235.186603545611
 30
0.0
  0
HATCH
  5
38A
330
31C
100
AcDbEntity
  8
Stone
  6
Continuous
 62
   253
370
     0
100
AcDbHatch
 10
0.0
 20
0.0
 30
0.0
210
0.0
220
0.0
230
1.0
  2
SOLID
 70
     1
 71
     1
 91
        1
 92
        1
 93
        1
 72
     4
 94
        3
 73
     0
 74
     0
 95
       20
 96
       16
 40
0.0
 40
0.0
 40
0.0
 40
0.0
 40
0.0694930441161375
 40
0.1629852044139598
 40
0.2555377211620776
 40
0.3223371990864378
 40
0.3892347433389919
 40
0.4644944806231213
 40
0.5225801297831447
 40
0.5721397939712755
 40
0.6285845969343703
 40
0.738611802167703
 40
0.813871539451828
 40
0.9393741005211194
 40
1.0
 40
1.0
 40
1.0
 40
1.0
 10
-3428.809132022007
 20
1131.012459276083
 10
-3428.268798179537
 20
1130.978734086534
 10
-3426.581910121588
 20
1132.610224787126
 10
-3429.511482471671
 20
1134.47321343913
 10
-3427.377198636863
 20
1136.478720872077
 10
-3428.20303888709
 20
1138.942626802098
 10
-3430.329453766879
 20
1138.501311270723
 10
-3432.06674594294
 20
1138.006108640667
 10
-3433.567845667571
 20
1139.896140768467
 10
-3434.341167705647
 20
1137.930396966468
 10
-3433.777016442338
 20
1136.331565017317
 10
-3435.950670658111
 20
1133.176095380101
 10
-3432.073796860194
 20
1134.190757465437
 10
-3430.309679915312
 20
1132.836434668064
 10
-3429.280520570822
 20
1131.041881212876
 10
-3428.809132022007
 20
1131.012459276083
 97
        1
330
21D
 75
     0
 76
     1
 98
        0
  0
SPLINE
  5
21D
102
{ACAD_REACTORS
330
38A
102
}
330
31C
100
AcDbEntity
  8
Stone
  6
Continuous
370
     0
100
AcDbSpline
210
0.0
220
0.0
230
1.0
 70
    11
 71
     3
 72
    20
 73
    16
 74
     0
 42
0.0000000001
 43
0.00000001
 40
0.0
 40
0.0
 40
0.0
 40
0.0
 40
0.0694930441161375
 40
0.1629852044139598
 40
0.2555377211620776
 40
0.3223371990864378
 40
0.3892347433389919
 40
0.4644944806231213
 40
0.5225801297831447
 40
0.5721397939712755
 40
0.6285845969343703
 40
0.738611802167703
 40
0.813871539451828
 40
0.9393741005211194
 40
1.0
 40
1.0
 40
1.0
 40
1.0
 10
-3428.809132022007
 20
1131.012459276083
 30
0.0
 10
-3428.268798179537
 20
1130.978734086534
 30
0.0
 10
-3426.581910121588
 20
1132.610224787126
 30
0.0
 10
-3429.511482471671
 20
1134.47321343913
 30
0.0
 10
-3427.377198636863
 20
1136.478720872077
 30
0.0
 10
-3428.20303888709
 20
1138.942626802098
 30
0.0
 10
-3430.329453766879
 20
1138.501311270723
 30
0.0
 10
-3432.06674594294
 20
1138.006108640667
 30
0.0
 10
-3433.567845667571
 20
1139.896140768467
 30
0.0
 10
-3434.341167705647
 20
1137.930396966468
 30
0.0
 10
-3433.777016442338
 20
1136.331565017317
 30
0.0
 10
-3435.950670658111
 20
1133.176095380101
 30
0.0
 10
-3432.073796860194
 20
1134.190757465437
 30
0.0
 10
-3430.309679915312
 20
1132.836434668064
 30
0.0
 10
-3429.280520570822
 20
1131.041881212876
 30
0.0
 10
-3428.809132022007
 20
1131.012459276083
 30
0.0
  0
HATCH
  5
38B
330
31C
100
AcDbEntity
  8
Stone
  6
Continuous
 62
   253
370
     0
100
AcDbHatch
 10
0.0
 20
0.0
 30
0.0
210
0.0
220
0.0
230
1.0
  2
SOLID
 70
     1
 71
     1
 91
        1
 92
        1
 93
        1
 72
     4
 94
        3
 73
     0
 74
     0
 95
       19
 96
       15
 40
0.0
 40
0.0
 40
0.0
 40
0.0
 40
0.1557831826791227
 40
0.2589411424187579
 40
0.3516651442696185
 40
0.4399208073784242
 40
0.4780312073572247
 40
0.5998749102494236
 40
0.6599823284686194
 40
0.7339801557985318
 40
0.8660898476977612
 40
0.8959083648594811
 40
0.9425623276266996
 40
1.0
 40
1.0
 40
1.0
 40
1.0
 10
-3424.978278741341
 20
1126.459851029494
 10
-3424.422788565962
 20
1126.964210190952
 10
-3429.2079311505
 20
1128.320543499856
 10
-3429.519558102688
 20
1131.312696669282
 10
-3431.23413095733
 20
1134.018692591638
 10
-3433.282355096525
 20
1133.310816741151
 10
-3436.046831345036
 20
1133.743177737032
 10
-3433.700409058163
 20
1130.685086751962
 10
-3433.193006902001
 20
1128.582360175582
 10
-3430.768787969076
 20
1127.33600262251
 10
-3428.705156236343
 20
1126.881613988234
 10
-3427.524113105545
 20
1124.863074654212
 10
-3426.400337436684
 20
1126.013662497154
 10
-3425.183089441387
 20
1126.273892469807
 10
-3424.978278741341
 20
1126.459851029494
 97
        1
330
220
 75
     0
 76
     1
 98
        0
  0
SPLINE
  5
220
102
{ACAD_REACTORS
330
38B
102
}
330
31C
100
AcDbEntity
  8
Stone
  6
Continuous
370
     0
100
AcDbSpline
210
0.0
220
0.0
230
1.0
 70
    11
 71
     3
 72
    19
 73
    15
 74
     0
 42
0.0000000001
 43
0.00000001
 40
0.0
 40
0.0
 40
0.0
 40
0.0
 40
0.1557831826791227
 40
0.2589411424187579
 40
0.3516651442696185
 40
0.4399208073784242
 40
0.4780312073572247
 40
0.5998749102494236
 40
0.6599823284686194
 40
0.7339801557985318
 40
0.8660898476977612
 40
0.8959083648594811
 40
0.9425623276266996
 40
1.0
 40
1.0
 40
1.0
 40
1.0
 10
-3424.978278741341
 20
1126.459851029494
 30
0.0
 10
-3424.422788565962
 20
1126.964210190952
 30
0.0
 10
-3429.2079311505
 20
1128.320543499856
 30
0.0
 10
-3429.519558102688
 20
1131.312696669282
 30
0.0
 10
-3431.23413095733
 20
1134.018692591638
 30
0.0
 10
-3433.282355096525
 20
1133.310816741151
 30
0.0
 10
-3436.046831345036
 20
1133.743177737032
 30
0.0
 10
-3433.700409058163
 20
1130.685086751962
 30
0.0
 10
-3433.193006902001
 20
1128.582360175582
 30
0.0
 10
-3430.768787969076
 20
1127.33600262251
 30
0.0
 10
-3428.705156236343
 20
1126.881613988234
 30
0.0
 10
-3427.524113105545
 20
1124.863074654212
 30
0.0
 10
-3426.400337436684
 20
1126.013662497154
 30
0.0
 10
-3425.183089441387
 20
1126.273892469807
 30
0.0
 10
-3424.978278741341
 20
1126.459851029494
 30
0.0
  0
HATCH
  5
38C
330
31C
100
AcDbEntity
  8
Stone
  6
Continuous
 62
   253
370
     0
100
AcDbHatch
 10
0.0
 20
0.0
 30
0.0
210
0.0
220
0.0
230
1.0
  2
SOLID
 70
     1
 71
     1
 91
        1
 92
        1
 93
        1
 72
     4
 94
        3
 73
     0
 74
     0
 95
       17
 96
       13
 40
0.0
 40
0.0
 40
0.0
 40
0.0
 40
0.0760772799941737
 40
0.1513899448035272
 40
0.2708336972131198
 40
0.4177633298329387
 40
0.5050452252599964
 40
0.6316630538298091
 40
0.7177346707547834
 40
0.8118755017664752
 40
0.9097834438855172
 40
1.0
 40
1.0
 40
1.0
 40
1.0
 10
-3428.531533958191
 20
1121.796203557377
 10
-3428.074516850174
 20
1121.852895680923
 10
-3427.177263190401
 20
1122.899489010834
 10
-3427.331877083013
 20
1124.78472351121
 10
-3428.869797071873
 20
1126.970877829665
 10
-3431.24449843772
 20
1127.020481969672
 10
-3433.650206564835
 20
1129.625134814818
 10
-3433.558975286103
 20
1126.226974278522
 10
-3434.06897278705
 20
1124.212763517345
 10
-3432.090929082857
 20
1122.957831826845
 10
-3430.221564299177
 20
1122.964802710404
 10
-3429.073489579815
 20
1121.728974968954
 10
-3428.531533958191
 20
1121.796203557377
 97
        1
330
223
 75
     0
 76
     1
 98
        0
  0
SPLINE
  5
223
102
{ACAD_REACTORS
330
38C
102
}
330
31C
100
AcDbEntity
  8
Stone
  6
Continuous
370
     0
100
AcDbSpline
210
0.0
220
0.0
230
1.0
 70
    11
 71
     3
 72
    17
 73
    13
 74
     0
 42
0.0000000001
 43
0.00000001
 40
0.0
 40
0.0
 40
0.0
 40
0.0
 40
0.0760772799941737
 40
0.1513899448035272
 40
0.2708336972131198
 40
0.4177633298329387
 40
0.5050452252599964
 40
0.6316630538298091
 40
0.7177346707547834
 40
0.8118755017664752
 40
0.9097834438855172
 40
1.0
 40
1.0
 40
1.0
 40
1.0
 10
-3428.531533958191
 20
1121.796203557377
 30
0.0
 10
-3428.074516850174
 20
1121.852895680923
 30
0.0
 10
-3427.177263190401
 20
1122.899489010834
 30
0.0
 10
-3427.331877083013
 20
1124.78472351121
 30
0.0
 10
-3428.869797071873
 20
1126.970877829665
 30
0.0
 10
-3431.24449843772
 20
1127.020481969672
 30
0.0
 10
-3433.650206564835
 20
1129.625134814818
 30
0.0
 10
-3433.558975286103
 20
1126.226974278522
 30
0.0
 10
-3434.06897278705
 20
1124.212763517345
 30
0.0
 10
-3432.090929082857
 20
1122.957831826845
 30
0.0
 10
-3430.221564299177
 20
1122.964802710404
 30
0.0
 10
-3429.073489579815
 20
1121.728974968954
 30
0.0
 10
-3428.531533958191
 20
1121.796203557377
 30
0.0
  0
HATCH
  5
38D
330
31C
100
AcDbEntity
  8
Stone
  6
Continuous
 62
   253
370
     0
100
AcDbHatch
 10
0.0
 20
0.0
 30
0.0
210
0.0
220
0.0
230
1.0
  2
SOLID
 70
     1
 71
     1
 91
        1
 92
        1
 93
        1
 72
     4
 94
        3
 73
     0
 74
     0
 95
       17
 96
       13
 40
0.0
 40
0.0
 40
0.0
 40
0.0
 40
0.1325740395772131
 40
0.2250415169608364
 40
0.3660197427617279
 40
0.4506754365306191
 40
0.5216035818723351
 40
0.6058391455354107
 40
0.6612684506941475
 40
0.7389298031018338
 40
0.8348252499206683
 40
1.0
 40
1.0
 40
1.0
 40
1.0
 10
-3427.088024026346
 20
1117.354634536314
 10
-3427.040565953446
 20
1117.43790221069
 10
-3428.445943952484
 20
1119.708031866727
 10
-3428.137685407086
 20
1122.443896595857
 10
-3430.935555043396
 20
1122.345537472366
 10
-3432.941499950026
 20
1124.20143720128
 10
-3433.666632915476
 20
1122.271260317511
 10
-3434.748075130357
 20
1120.761781571845
 10
-3433.100936326921
 20
1119.999798469043
 10
-3431.730307279432
 20
1119.170625164246
 10
-3429.388341359948
 20
1120.163803727806
 10
-3427.147152309345
 20
1117.250890867127
 10
-3427.088024026346
 20
1117.354634536314
 97
        1
330
226
 75
     0
 76
     1
 98
        0
  0
SPLINE
  5
226
102
{ACAD_REACTORS
330
38D
102
}
330
31C
100
AcDbEntity
  8
Stone
  6
Continuous
370
     0
100
AcDbSpline
210
0.0
220
0.0
230
1.0
 70
    11
 71
     3
 72
    17
 73
    13
 74
     0
 42
0.0000000001
 43
0.00000001
 40
0.0
 40
0.0
 40
0.0
 40
0.0
 40
0.1325740395772131
 40
0.2250415169608364
 40
0.3660197427617279
 40
0.4506754365306191
 40
0.5216035818723351
 40
0.6058391455354107
 40
0.6612684506941475
 40
0.7389298031018338
 40
0.8348252499206683
 40
1.0
 40
1.0
 40
1.0
 40
1.0
 10
-3427.088024026346
 20
1117.354634536314
 30
0.0
 10
-3427.040565953446
 20
1117.43790221069
 30
0.0
 10
-3428.445943952484
 20
1119.708031866727
 30
0.0
 10
-3428.137685407086
 20
1122.443896595857
 30
0.0
 10
-3430.935555043396
 20
1122.345537472366
 30
0.0
 10
-3432.941499950026
 20
1124.20143720128
 30
0.0
 10
-3433.666632915476
 20
1122.271260317511
 30
0.0
 10
-3434.748075130357
 20
1120.761781571845
 30
0.0
 10
-3433.100936326921
 20
1119.999798469043
 30
0.0
 10
-3431.730307279432
 20
1119.170625164246
 30
0.0
 10
-3429.388341359948
 20
1120.163803727806
 30
0.0
 10
-3427.147152309345
 20
1117.250890867127
 30
0.0
 10
-3427.088024026346
 20
1117.354634536314
 30
0.0
  0
HATCH
  5
38E
330
31C
100
AcDbEntity
  8
Stone
  6
Continuous
 62
   253
370
     0
100
AcDbHatch
 10
0.0
 20
0.0
 30
0.0
210
0.0
220
0.0
230
1.0
  2
SOLID
 70
     1
 71
     1
 91
        1
 92
        1
 93
        1
 72
     4
 94
        3
 73
     0
 74
     0
 95
       21
 96
       17
 40
0.0
 40
0.0
 40
0.0
 40
0.0
 40
0.1467181406087338
 40
0.2278873813381783
 40
0.3195862192186368
 40
0.3573815338960439
 40
0.4036497757595745
 40
0.4716336305299385
 40
0.5352888973550478
 40
0.6308132308340776
 40
0.7850264491283614
 40
0.8428510600255106
 40
0.8786571476146338
 40
0.9084955539389039
 40
0.9502693227928829
 40
1.0
 40
1.0
 40
1.0
 40
1.0
 10
-3425.422435643447
 20
1116.133203055522
 10
-3425.26604681647
 20
1117.540685657115
 10
-3428.105639131841
 20
1118.706380422557
 10
-3430.765388374093
 20
1119.517188990588
 10
-3432.623887101323
 20
1119.907416717711
 10
-3434.433658323552
 20
1120.266313884404
 10
-3435.137034290167
 20
1118.523858372536
 10
-3433.763603776883
 20
1117.253625411329
 10
-3434.65507983504
 20
1114.689122694259
 10
-3431.071208918284
 20
1114.247581715002
 10
-3428.567095551321
 20
1110.296955473243
 10
-3427.345996165364
 20
1113.053966203014
 10
-3427.372556479109
 20
1114.053216792162
 10
-3427.655822087469
 20
1115.409330477042
 10
-3425.992512573871
 20
1114.639434582803
 10
-3425.475444236937
 20
1115.656131422498
 10
-3425.422435643447
 20
1116.133203055522
 97
        1
330
229
 75
     0
 76
     1
 98
        0
  0
SPLINE
  5
229
102
{ACAD_REACTORS
330
38E
102
}
330
31C
100
AcDbEntity
  8
Stone
  6
Continuous
370
     0
100
AcDbSpline
210
0.0
220
0.0
230
1.0
 70
    11
 71
     3
 72
    21
 73
    17
 74
     0
 42
0.0000000001
 43
0.00000001
 40
0.0
 40
0.0
 40
0.0
 40
0.0
 40
0.1467181406087338
 40
0.2278873813381783
 40
0.3195862192186368
 40
0.3573815338960439
 40
0.4036497757595745
 40
0.4716336305299385
 40
0.5352888973550478
 40
0.6308132308340776
 40
0.7850264491283614
 40
0.8428510600255106
 40
0.8786571476146338
 40
0.9084955539389039
 40
0.9502693227928829
 40
1.0
 40
1.0
 40
1.0
 40
1.0
 10
-3425.422435643447
 20
1116.133203055522
 30
0.0
 10
-3425.26604681647
 20
1117.540685657115
 30
0.0
 10
-3428.105639131841
 20
1118.706380422557
 30
0.0
 10
-3430.765388374093
 20
1119.517188990588
 30
0.0
 10
-3432.623887101323
 20
1119.907416717711
 30
0.0
 10
-3434.433658323552
 20
1120.266313884404
 30
0.0
 10
-3435.137034290167
 20
1118.523858372536
 30
0.0
 10
-3433.763603776883
 20
1117.253625411329
 30
0.0
 10
-3434.65507983504
 20
1114.689122694259
 30
0.0
 10
-3431.071208918284
 20
1114.247581715002
 30
0.0
 10
-3428.567095551321
 20
1110.296955473243
 30
0.0
 10
-3427.345996165364
 20
1113.053966203014
 30
0.0
 10
-3427.372556479109
 20
1114.053216792162
 30
0.0
 10
-3427.655822087469
 20
1115.409330477042
 30
0.0
 10
-3425.992512573871
 20
1114.639434582803
 30
0.0
 10
-3425.475444236937
 20
1115.656131422498
 30
0.0
 10
-3425.422435643447
 20
1116.133203055522
 30
0.0
  0
HATCH
  5
38F
330
31C
100
AcDbEntity
  8
Stone
  6
Continuous
 62
   253
370
     0
100
AcDbHatch
 10
0.0
 20
0.0
 30
0.0
210
0.0
220
0.0
230
1.0
  2
SOLID
 70
     1
 71
     1
 91
        1
 92
        1
 93
        1
 72
     4
 94
        3
 73
     0
 74
     0
 95
       19
 96
       15
 40
0.0
 40
0.0
 40
0.0
 40
0.0
 40
0.179023941847675
 40
0.3079107526968672
 40
0.3717854729657967
 40
0.4135569496493041
 40
0.4390254684798162
 40
0.5128841730883123
 40
0.5689149145154484
 40
0.6376799153578419
 40
0.6860701011358207
 40
0.7560042609127806
 40
0.9291901889602903
 40
1.0
 40
1.0
 40
1.0
 40
1.0
 10
-3427.587700541215
 20
1109.637408362217
 10
-3427.146495820275
 20
1110.592894590511
 10
-3430.088822984814
 20
1112.883594805005
 10
-3431.920458199606
 20
1113.430925802305
 10
-3433.860240741839
 20
1115.128299344083
 10
-3434.139510588956
 20
1113.668034343361
 10
-3435.456066909752
 20
1114.110780298445
 10
-3434.805946335617
 20
1112.170727846392
 10
-3434.849459750636
 20
1111.103028884443
 10
-3435.366672409827
 20
1109.166608238702
 10
-3433.55570740206
 20
1109.798304346181
 10
-3432.165339371456
 20
1107.848382917305
 10
-3429.523595751187
 20
1108.160117770934
 10
-3427.762211406059
 20
1109.259482378808
 10
-3427.587700541215
 20
1109.637408362217
 97
        1
330
22C
 75
     0
 76
     1
 98
        0
  0
SPLINE
  5
22C
102
{ACAD_REACTORS
330
38F
102
}
330
31C
100
AcDbEntity
  8
Stone
  6
Continuous
370
     0
100
AcDbSpline
210
0.0
220
0.0
230
1.0
 70
    11
 71
     3
 72
    19
 73
    15
 74
     0
 42
0.0000000001
 43
0.00000001
 40
0.0
 40
0.0
 40
0.0
 40
0.0
 40
0.179023941847675
 40
0.3079107526968672
 40
0.3717854729657967
 40
0.4135569496493041
 40
0.4390254684798162
 40
0.5128841730883123
 40
0.5689149145154484
 40
0.6376799153578419
 40
0.6860701011358207
 40
0.7560042609127806
 40
0.9291901889602903
 40
1.0
 40
1.0
 40
1.0
 40
1.0
 10
-3427.587700541215
 20
1109.637408362217
 30
0.0
 10
-3427.146495820275
 20
1110.592894590511
 30
0.0
 10
-3430.088822984814
 20
1112.883594805005
 30
0.0
 10
-3431.920458199606
 20
1113.430925802305
 30
0.0
 10
-3433.860240741839
 20
1115.128299344083
 30
0.0
 10
-3434.139510588956
 20
1113.668034343361
 30
0.0
 10
-3435.456066909752
 20
1114.110780298445
 30
0.0
 10
-3434.805946335617
 20
1112.170727846392
 30
0.0
 10
-3434.849459750636
 20
1111.103028884443
 30
0.0
 10
-3435.366672409827
 20
1109.166608238702
 30
0.0
 10
-3433.55570740206
 20
1109.798304346181
 30
0.0
 10
-3432.165339371456
 20
1107.848382917305
 30
0.0
 10
-3429.523595751187
 20
1108.160117770934
 30
0.0
 10
-3427.762211406059
 20
1109.259482378808
 30
0.0
 10
-3427.587700541215
 20
1109.637408362217
 30
0.0
  0
HATCH
  5
390
330
31C
100
AcDbEntity
  8
Stone
  6
Continuous
 62
   253
370
     0
100
AcDbHatch
 10
0.0
 20
0.0
 30
0.0
210
0.0
220
0.0
230
1.0
  2
SOLID
 70
     1
 71
     1
 91
        1
 92
        1
 93
        1
 72
     4
 94
        3
 73
     0
 74
     0
 95
       17
 96
       13
 40
0.0
 40
0.0
 40
0.0
 40
0.0
 40
0.1232702941870352
 40
0.3353564503468461
 40
0.3719230289950888
 40
0.5332770137196535
 40
0.6559674365884608
 40
0.7315383657948293
 40
0.7827315759023702
 40
0.8753669084779165
 40
0.9531085210586487
 40
1.0
 40
1.0
 40
1.0
 40
1.0
 10
-3425.033798354104
 20
1101.698103737067
 10
-3424.248079643004
 20
1101.692132340981
 10
-3423.511238201076
 20
1105.566901603137
 10
-3424.019687104752
 20
1107.494479006155
 10
-3423.692290033858
 20
1111.156275770118
 10
-3427.040718387488
 20
1108.002838130257
 10
-3429.615659868706
 20
1106.925215571968
 10
-3429.102726967815
 20
1104.972736051479
 10
-3429.628929114099
 20
1102.837809029655
 10
-3426.801195678948
 20
1104.198147408925
 10
-3426.325107175581
 20
1102.256491613148
 10
-3425.332682303707
 20
1101.700375229932
 10
-3425.033798354104
 20
1101.698103737067
 97
        1
330
22F
 75
     0
 76
     1
 98
        0
  0
SPLINE
  5
22F
102
{ACAD_REACTORS
330
390
102
}
330
31C
100
AcDbEntity
  8
Stone
  6
Continuous
370
     0
100
AcDbSpline
210
0.0
220
0.0
230
1.0
 70
    11
 71
     3
 72
    17
 73
    13
 74
     0
 42
0.0000000001
 43
0.00000001
 40
0.0
 40
0.0
 40
0.0
 40
0.0
 40
0.1232702941870352
 40
0.3353564503468461
 40
0.3719230289950888
 40
0.5332770137196535
 40
0.6559674365884608
 40
0.7315383657948293
 40
0.7827315759023702
 40
0.8753669084779165
 40
0.9531085210586487
 40
1.0
 40
1.0
 40
1.0
 40
1.0
 10
-3425.033798354104
 20
1101.698103737067
 30
0.0
 10
-3424.248079643004
 20
1101.692132340981
 30
0.0
 10
-3423.511238201076
 20
1105.566901603137
 30
0.0
 10
-3424.019687104752
 20
1107.494479006155
 30
0.0
 10
-3423.692290033858
 20
1111.156275770118
 30
0.0
 10
-3427.040718387488
 20
1108.002838130257
 30
0.0
 10
-3429.615659868706
 20
1106.925215571968
 30
0.0
 10
-3429.102726967815
 20
1104.972736051479
 30
0.0
 10
-3429.628929114099
 20
1102.837809029655
 30
0.0
 10
-3426.801195678948
 20
1104.198147408925
 30
0.0
 10
-3426.325107175581
 20
1102.256491613148
 30
0.0
 10
-3425.332682303707
 20
1101.700375229932
 30
0.0
 10
-3425.033798354104
 20
1101.698103737067
 30
0.0
  0
HATCH
  5
391
330
31C
100
AcDbEntity
  8
Stone
  6
Continuous
 62
   253
370
     0
100
AcDbHatch
 10
0.0
 20
0.0
 30
0.0
210
0.0
220
0.0
230
1.0
  2
SOLID
 70
     1
 71
     1
 91
        1
 92
        1
 93
        1
 72
     4
 94
        3
 73
     0
 74
     0
 95
       18
 96
       14
 40
0.0
 40
0.0
 40
0.0
 40
0.0
 40
0.2246910354087581
 40
0.2933488238972145
 40
0.4128671347320738
 40
0.5333949148206456
 40
0.6324205712943812
 40
0.653546044675445
 40
0.7129614385596858
 40
0.868761804745028
 40
0.9467067323463257
 40
0.9857183167198984
 40
1.0
 40
1.0
 40
1.0
 40
1.0
 10
-3475.671807368527
 20
1110.462531313286
 10
-3473.372590934514
 20
1109.179773558159
 10
-3467.09932874604
 20
1113.904090603076
 10
-3467.910860852109
 20
1117.240777621951
 10
-3473.171707499829
 20
1116.127268175565
 10
-3474.988065848095
 20
1121.071072068753
 10
-3478.018256902568
 20
1119.917978328653
 10
-3480.451434972845
 20
1120.285587290483
 10
-3478.984071793531
 20
1116.318878806066
 10
-3481.464300260866
 20
1112.630682677879
 10
-3477.731233960516
 20
1111.44400608142
 10
-3476.325510804406
 20
1110.92220754739
 10
-3475.81794885051
 20
1110.544065229183
 10
-3475.671807368527
 20
1110.462531313286
 97
        1
330
232
 75
     0
 76
     1
 98
        0
  0
SPLINE
  5
232
102
{ACAD_REACTORS
330
391
102
}
330
31C
100
AcDbEntity
  8
Stone
  6
Continuous
370
     0
100
AcDbSpline
210
0.0
220
0.0
230
1.0
 70
    11
 71
     3
 72
    18
 73
    14
 74
     0
 42
0.0000000001
 43
0.00000001
 40
0.0
 40
0.0
 40
0.0
 40
0.0
 40
0.2246910354087581
 40
0.2933488238972145
 40
0.4128671347320738
 40
0.5333949148206456
 40
0.6324205712943812
 40
0.653546044675445
 40
0.7129614385596858
 40
0.868761804745028
 40
0.9467067323463257
 40
0.9857183167198984
 40
1.0
 40
1.0
 40
1.0
 40
1.0
 10
-3475.671807368527
 20
1110.462531313286
 30
0.0
 10
-3473.372590934514
 20
1109.179773558159
 30
0.0
 10
-3467.09932874604
 20
1113.904090603076
 30
0.0
 10
-3467.910860852109
 20
1117.240777621951
 30
0.0
 10
-3473.171707499829
 20
1116.127268175565
 30
0.0
 10
-3474.988065848095
 20
1121.071072068753
 30
0.0
 10
-3478.018256902568
 20
1119.917978328653
 30
0.0
 10
-3480.451434972845
 20
1120.285587290483
 30
0.0
 10
-3478.984071793531
 20
1116.318878806066
 30
0.0
 10
-3481.464300260866
 20
1112.630682677879
 30
0.0
 10
-3477.731233960516
 20
1111.44400608142
 30
0.0
 10
-3476.325510804406
 20
1110.92220754739
 30
0.0
 10
-3475.81794885051
 20
1110.544065229183
 30
0.0
 10
-3475.671807368527
 20
1110.462531313286
 30
0.0
  0
HATCH
  5
392
330
31C
100
AcDbEntity
  8
Bedrock
  6
Continuous
 62
    46
370
     0
100
AcDbHatch
 10
0.0
 20
0.0
 30
0.0
210
0.0
220
0.0
230
1.0
  2
SOLID
 70
     1
 71
     1
 91
        1
 92
        1
 93
        1
 72
     4
 94
        3
 73
     0
 74
     0
 95
       25
 96
       21
 40
0.0
 40
0.0
 40
0.0
 40
0.0
 40
0.0554629597846259
 40
0.106363182850075
 40
0.1482008674659505
 40
0.2083848396514449
 40
0.2586604964492547
 40
0.3096475482756235
 40
0.3559994135723238
 40
0.3925660984309861
 40
0.4161742535357885
 40
0.4595543090990648
 40
0.4899076513766695
 40
0.5641047102774811
 40
0.6578994692999508
 40
0.7401505052828272
 40
0.7828700240438997
 40
0.9211463610863222
 40
0.9841014413657996
 40
1.0
 40
1.0
 40
1.0
 40
1.0
 10
-3427.905805092772
 20
1200.085366693084
 10
-3427.209880200275
 20
1200.523810353822
 10
-3430.958404119079
 20
1204.055045441132
 10
-3425.278687762675
 20
1205.290321872728
 10
-3428.567589882201
 20
1208.565393268809
 10
-3430.11365774935
 20
1210.718653380022
 10
-3431.078494000076
 20
1215.197849336806
 10
-3434.626365971502
 20
1213.510429721644
 10
-3437.705012224986
 20
1211.711880177013
 10
-3438.819159357073
 20
1214.802362501827
 10
-3441.372096874683
 20
1213.923233517137
 10
-3442.666203119196
 20
1216.067717449861
 10
-3446.600332676055
 20
1216.069204596468
 10
-3445.097291787366
 20
1209.857476083341
 10
-3442.341109998861
 20
1206.175416350652
 10
-3446.373642402399
 20
1199.220946049221
 10
-3439.186627276224
 20
1200.463033921896
 10
-3434.472940562151
 20
1199.882570148895
 10
-3430.174942780464
 20
1199.908083337218
 10
-3428.10529323317
 20
1199.959686017636
 10
-3427.905805092772
 20
1200.085366693084
 97
        1
330
23A
 75
     0
 76
     1
 98
        0
  0
SPLINE
  5
23A
102
{ACAD_REACTORS
330
392
102
}
330
31C
100
AcDbEntity
  8
Bedrock
  6
Continuous
370
     0
100
AcDbSpline
210
0.0
220
0.0
230
1.0
 70
    11
 71
     3
 72
    25
 73
    21
 74
     0
 42
0.0000000001
 43
0.00000001
 40
0.0
 40
0.0
 40
0.0
 40
0.0
 40
0.0554629597846259
 40
0.106363182850075
 40
0.1482008674659505
 40
0.2083848396514449
 40
0.2586604964492547
 40
0.3096475482756235
 40
0.3559994135723238
 40
0.3925660984309861
 40
0.4161742535357885
 40
0.4595543090990648
 40
0.4899076513766695
 40
0.5641047102774811
 40
0.6578994692999508
 40
0.7401505052828272
 40
0.7828700240438997
 40
0.9211463610863222
 40
0.9841014413657996
 40
1.0
 40
1.0
 40
1.0
 40
1.0
 10
-3427.905805092772
 20
1200.085366693084
 30
0.0
 10
-3427.209880200275
 20
1200.523810353822
 30
0.0
 10
-3430.958404119079
 20
1204.055045441132
 30
0.0
 10
-3425.278687762675
 20
1205.290321872728
 30
0.0
 10
-3428.567589882201
 20
1208.565393268809
 30
0.0
 10
-3430.11365774935
 20
1210.718653380022
 30
0.0
 10
-3431.078494000076
 20
1215.197849336806
 30
0.0
 10
-3434.626365971502
 20
1213.510429721644
 30
0.0
 10
-3437.705012224986
 20
1211.711880177013
 30
0.0
 10
-3438.819159357073
 20
1214.802362501827
 30
0.0
 10
-3441.372096874683
 20
1213.923233517137
 30
0.0
 10
-3442.666203119196
 20
1216.067717449861
 30
0.0
 10
-3446.600332676055
 20
1216.069204596468
 30
0.0
 10
-3445.097291787366
 20
1209.857476083341
 30
0.0
 10
-3442.341109998861
 20
1206.175416350652
 30
0.0
 10
-3446.373642402399
 20
1199.220946049221
 30
0.0
 10
-3439.186627276224
 20
1200.463033921896
 30
0.0
 10
-3434.472940562151
 20
1199.882570148895
 30
0.0
 10
-3430.174942780464
 20
1199.908083337218
 30
0.0
 10
-3428.10529323317
 20
1199.959686017636
 30
0.0
 10
-3427.905805092772
 20
1200.085366693084
 30
0.0
  0
HATCH
  5
393
330
31C
100
AcDbEntity
  8
Bedrock
  6
Continuous
 62
    46
370
     0
100
AcDbHatch
 10
0.0
 20
0.0
 30
0.0
210
0.0
220
0.0
230
1.0
  2
SOLID
 70
     1
 71
     1
 91
        1
 92
        1
 93
        1
 72
     4
 94
        3
 73
     0
 74
     0
 95
       30
 96
       26
 40
0.0
 40
0.0
 40
0.0
 40
0.0
 40
0.0565023628504438
 40
0.0800941315235852
 40
0.1069876342749221
 40
0.1569061519589131
 40
0.1918620483916835
 40
0.227518132451677
 40
0.2645348800214296
 40
0.3267261051338971
 40
0.4182433875545482
 40
0.4517339654403372
 40
0.4805053789086676
 40
0.5232926797806595
 40
0.5541946192993202
 40
0.5888461044513839
 40
0.6543127635375742
 40
0.6911573837329003
 40
0.7399453082051768
 40
0.7744128561298361
 40
0.8057911104958746
 40
0.8545210920445338
 40
0.896119856781193
 40
0.9864486030665095
 40
1.0
 40
1.0
 40
1.0
 40
1.0
 10
-3446.074189302888
 20
1200.157750693921
 10
-3445.397838040454
 20
1200.1630172804
 10
-3448.360890564462
 20
1203.244291320604
 10
-3445.244583066973
 20
1204.61441049209
 10
-3448.340488118747
 20
1205.909753431653
 10
-3446.201088360017
 20
1208.759716373833
 10
-3449.006220018581
 20
1210.314954665124
 10
-3447.782737072005
 20
1212.964706822855
 10
-3450.815514923297
 20
1214.349808554132
 10
-3452.424311788574
 20
1217.813641664692
 10
-3458.144004247474
 20
1218.218404325055
 10
-3459.147540190264
 20
1215.187421204651
 10
-3460.239757929608
 20
1212.967901898162
 10
-3463.429069606477
 20
1214.6074653488
 10
-3463.053889485405
 20
1211.526386458788
 10
-3461.455998588182
 20
1209.406298225426
 10
-3463.344424425796
 20
1206.64503367914
 10
-3463.588685393113
 20
1203.428739658018
 10
-3461.205659792519
 20
1201.584321604405
 10
-3458.316132332504
 20
1202.821906881236
 10
-3458.163454554354
 20
1199.339639369561
 10
-3454.893987066964
 20
1200.669977546323
 10
-3451.433327120536
 20
1200.081227001169
 10
-3448.699813211122
 20
1201.102955057139
 10
-3446.236403836251
 20
1200.156487567916
 10
-3446.074189302888
 20
1200.157750693921
 97
        1
330
23D
 75
     0
 76
     1
 98
        0
  0
SPLINE
  5
23D
102
{ACAD_REACTORS
330
393
102
}
330
31C
100
AcDbEntity
  8
Bedrock
  6
Continuous
370
     0
100
AcDbSpline
210
0.0
220
0.0
230
1.0
 70
    11
 71
     3
 72
    30
 73
    26
 74
     0
 42
0.0000000001
 43
0.00000001
 40
0.0
 40
0.0
 40
0.0
 40
0.0
 40
0.0565023628504438
 40
0.0800941315235852
 40
0.1069876342749221
 40
0.1569061519589131
 40
0.1918620483916835
 40
0.227518132451677
 40
0.2645348800214296
 40
0.3267261051338971
 40
0.4182433875545482
 40
0.4517339654403372
 40
0.4805053789086676
 40
0.5232926797806595
 40
0.5541946192993202
 40
0.5888461044513839
 40
0.6543127635375742
 40
0.6911573837329003
 40
0.7399453082051768
 40
0.7744128561298361
 40
0.8057911104958746
 40
0.8545210920445338
 40
0.896119856781193
 40
0.9864486030665095
 40
1.0
 40
1.0
 40
1.0
 40
1.0
 10
-3446.074189302888
 20
1200.157750693921
 30
0.0
 10
-3445.397838040454
 20
1200.1630172804
 30
0.0
 10
-3448.360890564462
 20
1203.244291320604
 30
0.0
 10
-3445.244583066973
 20
1204.61441049209
 30
0.0
 10
-3448.340488118747
 20
1205.909753431653
 30
0.0
 10
-3446.201088360017
 20
1208.759716373833
 30
0.0
 10
-3449.006220018581
 20
1210.314954665124
 30
0.0
 10
-3447.782737072005
 20
1212.964706822855
 30
0.0
 10
-3450.815514923297
 20
1214.349808554132
 30
0.0
 10
-3452.424311788574
 20
1217.813641664692
 30
0.0
 10
-3458.144004247474
 20
1218.218404325055
 30
0.0
 10
-3459.147540190264
 20
1215.187421204651
 30
0.0
 10
-3460.239757929608
 20
1212.967901898162
 30
0.0
 10
-3463.429069606477
 20
1214.6074653488
 30
0.0
 10
-3463.053889485405
 20
1211.526386458788
 30
0.0
 10
-3461.455998588182
 20
1209.406298225426
 30
0.0
 10
-3463.344424425796
 20
1206.64503367914
 30
0.0
 10
-3463.588685393113
 20
1203.428739658018
 30
0.0
 10
-3461.205659792519
 20
1201.584321604405
 30
0.0
 10
-3458.316132332504
 20
1202.821906881236
 30
0.0
 10
-3458.163454554354
 20
1199.339639369561
 30
0.0
 10
-3454.893987066964
 20
1200.669977546323
 30
0.0
 10
-3451.433327120536
 20
1200.081227001169
 30
0.0
 10
-3448.699813211122
 20
1201.102955057139
 30
0.0
 10
-3446.236403836251
 20
1200.156487567916
 30
0.0
 10
-3446.074189302888
 20
1200.157750693921
 30
0.0
  0
HATCH
  5
394
330
31C
100
AcDbEntity
  8
Stone
  6
Continuous
 62
   253
370
     0
100
AcDbHatch
 10
0.0
 20
0.0
 30
0.0
210
0.0
220
0.0
230
1.0
  2
SOLID
 70
     1
 71
     1
 91
        1
 92
        1
 93
        1
 72
     4
 94
        3
 73
     0
 74
     0
 95
       24
 96
       20
 40
0.0
 40
0.0
 40
0.0
 40
0.0
 40
0.0531403280022183
 40
0.1038103814323253
 40
0.1971367248347536
 40
0.2373233189344939
 40
0.2979755649393042
 40
0.3639094032868805
 40
0.4373975475784657
 40
0.4810786281216607
 40
0.509034519669306
 40
0.5648643406637099
 40
0.6696989339673792
 40
0.7346296517177769
 40
0.7655415398540346
 40
0.8319367822796913
 40
0.8857620837020178
 40
0.9399547975904238
 40
1.0
 40
1.0
 40
1.0
 40
1.0
 10
-3532.490209670698
 20
1180.345487727953
 10
-3531.857770334646
 20
1180.690874120045
 10
-3531.068612351481
 20
1182.395192219426
 10
-3532.161994861413
 20
1185.615961069081
 10
-3527.833522193912
 20
1186.117841155069
 10
-3527.957258268332
 20
1189.521503057876
 10
-3530.303912558012
 20
1190.82508168087
 10
-3531.1123165861
 20
1194.000932986386
 10
-3534.218934816036
 20
1194.627096439455
 10
-3536.220370630799
 20
1194.396225682379
 10
-3538.334690539572
 20
1194.80063186619
 10
-3538.971254994847
 20
1191.06936283678
 10
-3537.33634285676
 20
1188.22550302424
 10
-3540.694948232129
 20
1185.12327439818
 10
-3537.86155716738
 20
1183.762152875073
 10
-3539.427092140272
 20
1181.27006235852
 10
-3537.415168691758
 20
1178.292895222848
 10
-3535.119378508904
 20
1180.492975092097
 10
-3533.204826034064
 20
1179.955222996771
 10
-3532.490209670698
 20
1180.345487727953
 97
        1
330
240
 75
     0
 76
     1
 98
        0
  0
SPLINE
  5
240
102
{ACAD_REACTORS
330
394
102
}
330
31C
100
AcDbEntity
  8
Stone
  6
Continuous
370
     0
100
AcDbSpline
210
0.0
220
0.0
230
1.0
 70
    11
 71
     3
 72
    24
 73
    20
 74
     0
 42
0.0000000001
 43
0.00000001
 40
0.0
 40
0.0
 40
0.0
 40
0.0
 40
0.0531403280022183
 40
0.1038103814323253
 40
0.1971367248347536
 40
0.2373233189344939
 40
0.2979755649393042
 40
0.3639094032868805
 40
0.4373975475784657
 40
0.4810786281216607
 40
0.509034519669306
 40
0.5648643406637099
 40
0.6696989339673792
 40
0.7346296517177769
 40
0.7655415398540346
 40
0.8319367822796913
 40
0.8857620837020178
 40
0.9399547975904238
 40
1.0
 40
1.0
 40
1.0
 40
1.0
 10
-3532.490209670698
 20
1180.345487727953
 30
0.0
 10
-3531.857770334646
 20
1180.690874120045
 30
0.0
 10
-3531.068612351481
 20
1182.395192219426
 30
0.0
 10
-3532.161994861413
 20
1185.615961069081
 30
0.0
 10
-3527.833522193912
 20
1186.117841155069
 30
0.0
 10
-3527.957258268332
 20
1189.521503057876
 30
0.0
 10
-3530.303912558012
 20
1190.82508168087
 30
0.0
 10
-3531.1123165861
 20
1194.000932986386
 30
0.0
 10
-3534.218934816036
 20
1194.627096439455
 30
0.0
 10
-3536.220370630799
 20
1194.396225682379
 30
0.0
 10
-3538.334690539572
 20
1194.80063186619
 30
0.0
 10
-3538.971254994847
 20
1191.06936283678
 30
0.0
 10
-3537.33634285676
 20
1188.22550302424
 30
0.0
 10
-3540.694948232129
 20
1185.12327439818
 30
0.0
 10
-3537.86155716738
 20
1183.762152875073
 30
0.0
 10
-3539.427092140272
 20
1181.27006235852
 30
0.0
 10
-3537.415168691758
 20
1178.292895222848
 30
0.0
 10
-3535.119378508904
 20
1180.492975092097
 30
0.0
 10
-3533.204826034064
 20
1179.955222996771
 30
0.0
 10
-3532.490209670698
 20
1180.345487727953
 30
0.0
  0
HATCH
  5
395
330
31C
100
AcDbEntity
  8
Stone
  6
Continuous
 62
   253
370
     0
100
AcDbHatch
 10
0.0
 20
0.0
 30
0.0
210
0.0
220
0.0
230
1.0
  2
SOLID
 70
     1
 71
     1
 91
        1
 92
        1
 93
        1
 72
     4
 94
        3
 73
     0
 74
     0
 95
       13
 96
        9
 40
0.0
 40
0.0
 40
0.0
 40
0.0
 40
0.1742091788396848
 40
0.3785273958553066
 40
0.6059262785649844
 40
0.7086416834915844
 40
0.8909791635702786
 40
1.0
 40
1.0
 40
1.0
 40
1.0
 10
-3523.98318473021
 20
1176.091975257709
 10
-3523.475218871948
 20
1175.926008712831
 10
-3522.041579396134
 20
1178.554863618054
 10
-3524.206974087784
 20
1180.926298221855
 10
-3527.473033610638
 20
1180.307120284663
 10
-3527.574254387333
 20
1177.275466336663
 10
-3524.991708801984
 20
1177.913412760269
 10
-3524.301071899614
 20
1176.195837819156
 10
-3523.98318473021
 20
1176.091975257709
 97
        1
330
243
 75
     0
 76
     1
 98
        0
  0
SPLINE
  5
243
102
{ACAD_REACTORS
330
395
102
}
330
31C
100
AcDbEntity
  8
Stone
  6
Continuous
370
     0
100
AcDbSpline
210
0.0
220
0.0
230
1.0
 70
    11
 71
     3
 72
    13
 73
     9
 74
     0
 42
0.0000000001
 43
0.00000001
 40
0.0
 40
0.0
 40
0.0
 40
0.0
 40
0.1742091788396848
 40
0.3785273958553066
 40
0.6059262785649844
 40
0.7086416834915844
 40
0.8909791635702786
 40
1.0
 40
1.0
 40
1.0
 40
1.0
 10
-3523.98318473021
 20
1176.091975257709
 30
0.0
 10
-3523.475218871948
 20
1175.926008712831
 30
0.0
 10
-3522.041579396134
 20
1178.554863618054
 30
0.0
 10
-3524.206974087784
 20
1180.926298221855
 30
0.0
 10
-3527.473033610638
 20
1180.307120284663
 30
0.0
 10
-3527.574254387333
 20
1177.275466336663
 30
0.0
 10
-3524.991708801984
 20
1177.913412760269
 30
0.0
 10
-3524.301071899614
 20
1176.195837819156
 30
0.0
 10
-3523.98318473021
 20
1176.091975257709
 30
0.0
  0
HATCH
  5
396
330
31C
100
AcDbEntity
  8
Stone
  6
Continuous
 62
   253
370
     0
100
AcDbHatch
 10
0.0
 20
0.0
 30
0.0
210
0.0
220
0.0
230
1.0
  2
SOLID
 70
     1
 71
     1
 91
        1
 92
        1
 93
        1
 72
     4
 94
        3
 73
     0
 74
     0
 95
       13
 96
        9
 40
0.0
 40
0.0
 40
0.0
 40
0.0
 40
0.0484347743460564
 40
0.2086421048753188
 40
0.4289660728863206
 40
0.5539315897086032
 40
0.6880586571284514
 40
1.0
 40
1.0
 40
1.0
 40
1.0
 10
-3527.463331296774
 20
1178.566746149487
 10
-3527.412250140756
 20
1178.93587485982
 10
-3527.19159588665
 20
1180.524251176928
 10
-3532.595230578214
 20
1179.928502664744
 10
-3531.100081213378
 20
1175.929845381277
 10
-3534.593254424327
 20
1172.361696268405
 10
-3528.254325513001
 20
1172.76620324432
 10
-3527.792316506645
 20
1176.189394192175
 10
-3527.463331296774
 20
1178.566746149487
 97
        1
330
249
 75
     0
 76
     1
 98
        0
  0
SPLINE
  5
249
102
{ACAD_REACTORS
330
396
102
}
330
31C
100
AcDbEntity
  8
Stone
  6
Continuous
370
     0
100
AcDbSpline
210
0.0
220
0.0
230
1.0
 70
    11
 71
     3
 72
    13
 73
     9
 74
     0
 42
0.0000000001
 43
0.00000001
 40
0.0
 40
0.0
 40
0.0
 40
0.0
 40
0.0484347743460564
 40
0.2086421048753188
 40
0.4289660728863206
 40
0.5539315897086032
 40
0.6880586571284514
 40
1.0
 40
1.0
 40
1.0
 40
1.0
 10
-3527.463331296774
 20
1178.566746149487
 30
0.0
 10
-3527.412250140756
 20
1178.93587485982
 30
0.0
 10
-3527.19159588665
 20
1180.524251176928
 30
0.0
 10
-3532.595230578214
 20
1179.928502664744
 30
0.0
 10
-3531.100081213378
 20
1175.929845381277
 30
0.0
 10
-3534.593254424327
 20
1172.361696268405
 30
0.0
 10
-3528.254325513001
 20
1172.76620324432
 30
0.0
 10
-3527.792316506645
 20
1176.189394192175
 30
0.0
 10
-3527.463331296774
 20
1178.566746149487
 30
0.0
  0
HATCH
  5
397
330
31C
100
AcDbEntity
  8
Stone
  6
Continuous
 62
   253
370
     0
100
AcDbHatch
 10
0.0
 20
0.0
 30
0.0
210
0.0
220
0.0
230
1.0
  2
SOLID
 70
     1
 71
     1
 91
        1
 92
        1
 93
        1
 72
     4
 94
        3
 73
     0
 74
     0
 95
       15
 96
       11
 40
0.0
 40
0.0
 40
0.0
 40
0.0
 40
0.1641448294078985
 40
0.3226467594737822
 40
0.4640431629588728
 40
0.558792084341443
 40
0.6708187785059991
 40
0.7601560393258535
 40
0.8752083010046896
 40
1.0
 40
1.0
 40
1.0
 40
1.0
 10
-3526.689965393093
 20
1178.180063197647
 10
-3528.133986232478
 20
1178.535732568662
 10
-3531.666353133113
 20
1177.715462332335
 10
-3528.948505748524
 20
1174.040164839562
 10
-3528.856406350778
 20
1170.288830972065
 10
-3525.953382993431
 20
1170.722915527011
 10
-3522.778465593275
 20
1171.462960501469
 10
-3525.166644959461
 20
1173.872243025232
 10
-3523.874371491389
 20
1176.531298601034
 10
-3525.592143338134
 20
1177.909664274637
 10
-3526.689965393093
 20
1178.180063197647
 97
        1
330
246
 75
     0
 76
     1
 98
        0
  0
SPLINE
  5
246
102
{ACAD_REACTORS
330
397
102
}
330
31C
100
AcDbEntity
  8
Stone
  6
Continuous
370
     0
100
AcDbSpline
210
0.0
220
0.0
230
1.0
 70
    11
 71
     3
 72
    15
 73
    11
 74
     0
 42
0.0000000001
 43
0.00000001
 40
0.0
 40
0.0
 40
0.0
 40
0.0
 40
0.1641448294078985
 40
0.3226467594737822
 40
0.4640431629588728
 40
0.558792084341443
 40
0.6708187785059991
 40
0.7601560393258535
 40
0.8752083010046896
 40
1.0
 40
1.0
 40
1.0
 40
1.0
 10
-3526.689965393093
 20
1178.180063197647
 30
0.0
 10
-3528.133986232478
 20
1178.535732568662
 30
0.0
 10
-3531.666353133113
 20
1177.715462332335
 30
0.0
 10
-3528.948505748524
 20
1174.040164839562
 30
0.0
 10
-3528.856406350778
 20
1170.288830972065
 30
0.0
 10
-3525.953382993431
 20
1170.722915527011
 30
0.0
 10
-3522.778465593275
 20
1171.462960501469
 30
0.0
 10
-3525.166644959461
 20
1173.872243025232
 30
0.0
 10
-3523.874371491389
 20
1176.531298601034
 30
0.0
 10
-3525.592143338134
 20
1177.909664274637
 30
0.0
 10
-3526.689965393093
 20
1178.180063197647
 30
0.0
  0
HATCH
  5
398
330
31C
100
AcDbEntity
  8
Stone
  6
Continuous
 62
   253
370
     0
100
AcDbHatch
 10
0.0
 20
0.0
 30
0.0
210
0.0
220
0.0
230
1.0
  2
SOLID
 70
     1
 71
     1
 91
        1
 92
        1
 93
        1
 72
     4
 94
        3
 73
     0
 74
     0
 95
       16
 96
       12
 40
0.0
 40
0.0
 40
0.0
 40
0.0
 40
0.1553693719280866
 40
0.3224728645485545
 40
0.3492686539336881
 40
0.5053296869687148
 40
0.6248341011101312
 40
0.7075979621636659
 40
0.8131611299000857
 40
0.9442415742368508
 40
1.0
 40
1.0
 40
1.0
 40
1.0
 10
-3534.655634201004
 20
1171.683789606729
 10
-3533.501975591986
 20
1172.884045380067
 10
-3532.123977246453
 20
1175.524466879625
 10
-3531.023771906483
 20
1178.59376314971
 10
-3530.800303232511
 20
1182.365899199396
 10
-3535.276018439565
 20
1179.023014479494
 10
-3538.37942698824
 20
1179.239780013908
 10
-3540.281790325804
 20
1176.057584609899
 10
-3538.230352894719
 20
1173.70458065226
 10
-3536.66833414249
 20
1169.840718901339
 10
-3535.069655234292
 20
1171.253045943393
 10
-3534.655634201004
 20
1171.683789606729
 97
        1
330
24C
 75
     0
 76
     1
 98
        0
  0
SPLINE
  5
24C
102
{ACAD_REACTORS
330
398
102
}
330
31C
100
AcDbEntity
  8
Stone
  6
Continuous
370
     0
100
AcDbSpline
210
0.0
220
0.0
230
1.0
 70
    11
 71
     3
 72
    16
 73
    12
 74
     0
 42
0.0000000001
 43
0.00000001
 40
0.0
 40
0.0
 40
0.0
 40
0.0
 40
0.1553693719280866
 40
0.3224728645485545
 40
0.3492686539336881
 40
0.5053296869687148
 40
0.6248341011101312
 40
0.7075979621636659
 40
0.8131611299000857
 40
0.9442415742368508
 40
1.0
 40
1.0
 40
1.0
 40
1.0
 10
-3534.655634201004
 20
1171.683789606729
 30
0.0
 10
-3533.501975591986
 20
1172.884045380067
 30
0.0
 10
-3532.123977246453
 20
1175.524466879625
 30
0.0
 10
-3531.023771906483
 20
1178.59376314971
 30
0.0
 10
-3530.800303232511
 20
1182.365899199396
 30
0.0
 10
-3535.276018439565
 20
1179.023014479494
 30
0.0
 10
-3538.37942698824
 20
1179.239780013908
 30
0.0
 10
-3540.281790325804
 20
1176.057584609899
 30
0.0
 10
-3538.230352894719
 20
1173.70458065226
 30
0.0
 10
-3536.66833414249
 20
1169.840718901339
 30
0.0
 10
-3535.069655234292
 20
1171.253045943393
 30
0.0
 10
-3534.655634201004
 20
1171.683789606729
 30
0.0
  0
HATCH
  5
399
330
31C
100
AcDbEntity
  8
Stone
  6
Continuous
 62
   253
370
     0
100
AcDbHatch
 10
0.0
 20
0.0
 30
0.0
210
0.0
220
0.0
230
1.0
  2
SOLID
 70
     1
 71
     1
 91
        1
 92
        1
 93
        1
 72
     4
 94
        3
 73
     0
 74
     0
 95
       20
 96
       16
 40
0.0
 40
0.0
 40
0.0
 40
0.0
 40
0.0596941856087675
 40
0.1699936625567609
 40
0.22325364946598
 40
0.2686998871353848
 40
0.3592039749938391
 40
0.4436243018765764
 40
0.5033495377790466
 40
0.5714032087432829
 40
0.6749220159391998
 40
0.7518745269744784
 40
0.8777929239079613
 40
0.9448586665764941
 40
1.0
 40
1.0
 40
1.0
 40
1.0
 10
-3534.500961020268
 20
1161.939379220352
 10
-3534.168335950355
 20
1162.732002911984
 10
-3535.566602048591
 20
1166.22063134567
 10
-3530.486645300417
 20
1161.799557484279
 10
-3528.705677408987
 20
1164.486996729803
 10
-3526.989920860417
 20
1166.287968502506
 10
-3527.053774728661
 20
1169.862072294065
 10
-3529.552807648572
 20
1171.838502196131
 10
-3532.337601890738
 20
1173.39677318403
 10
-3534.979970490479
 20
1171.020724575115
 10
-3538.563258361517
 20
1171.218208413158
 10
-3541.192953429537
 20
1166.971237962685
 10
-3538.434444812182
 20
1164.058644022736
 10
-3537.046729275933
 20
1160.402287445422
 10
-3534.808216906214
 20
1161.207208627622
 10
-3534.500961020268
 20
1161.939379220352
 97
        1
330
24F
 75
     0
 76
     1
 98
        0
  0
SPLINE
  5
24F
102
{ACAD_REACTORS
330
399
102
}
330
31C
100
AcDbEntity
  8
Stone
  6
Continuous
370
     0
100
AcDbSpline
210
0.0
220
0.0
230
1.0
 70
    11
 71
     3
 72
    20
 73
    16
 74
     0
 42
0.0000000001
 43
0.00000001
 40
0.0
 40
0.0
 40
0.0
 40
0.0
 40
0.0596941856087675
 40
0.1699936625567609
 40
0.22325364946598
 40
0.2686998871353848
 40
0.3592039749938391
 40
0.4436243018765764
 40
0.5033495377790466
 40
0.5714032087432829
 40
0.6749220159391998
 40
0.7518745269744784
 40
0.8777929239079613
 40
0.9448586665764941
 40
1.0
 40
1.0
 40
1.0
 40
1.0
 10
-3534.500961020268
 20
1161.939379220352
 30
0.0
 10
-3534.168335950355
 20
1162.732002911984
 30
0.0
 10
-3535.566602048591
 20
1166.22063134567
 30
0.0
 10
-3530.486645300417
 20
1161.799557484279
 30
0.0
 10
-3528.705677408987
 20
1164.486996729803
 30
0.0
 10
-3526.989920860417
 20
1166.287968502506
 30
0.0
 10
-3527.053774728661
 20
1169.862072294065
 30
0.0
 10
-3529.552807648572
 20
1171.838502196131
 30
0.0
 10
-3532.337601890738
 20
1173.39677318403
 30
0.0
 10
-3534.979970490479
 20
1171.020724575115
 30
0.0
 10
-3538.563258361517
 20
1171.218208413158
 30
0.0
 10
-3541.192953429537
 20
1166.971237962685
 30
0.0
 10
-3538.434444812182
 20
1164.058644022736
 30
0.0
 10
-3537.046729275933
 20
1160.402287445422
 30
0.0
 10
-3534.808216906214
 20
1161.207208627622
 30
0.0
 10
-3534.500961020268
 20
1161.939379220352
 30
0.0
  0
HATCH
  5
39A
330
31C
100
AcDbEntity
  8
Stone
  6
Continuous
 62
   253
370
     0
100
AcDbHatch
 10
0.0
 20
0.0
 30
0.0
210
0.0
220
0.0
230
1.0
  2
SOLID
 70
     1
 71
     1
 91
        1
 92
        1
 93
        1
 72
     4
 94
        3
 73
     0
 74
     0
 95
       15
 96
       11
 40
0.0
 40
0.0
 40
0.0
 40
0.0
 40
0.3507064570834059
 40
0.4693224730737767
 40
0.555321277664273
 40
0.6353325245289792
 40
0.732750609926529
 40
0.8105878424383726
 40
0.8897067426616309
 40
1.0
 40
1.0
 40
1.0
 40
1.0
 10
-3520.580374754015
 20
1167.894296678693
 10
-3521.248274063753
 20
1169.71832832256
 10
-3530.004793414471
 20
1166.767193644025
 10
-3526.787953821111
 20
1162.692679296638
 10
-3525.195555690074
 20
1161.677985087823
 10
-3523.153154028098
 20
1160.124240525387
 10
-3522.26155156975
 20
1162.526932542713
 10
-3520.336211324724
 20
1163.47516093433
 10
-3521.007567399884
 20
1165.65114003272
 10
-3520.370327893008
 20
1167.320659132457
 10
-3520.580374754015
 20
1167.894296678693
 97
        1
330
255
 75
     0
 76
     1
 98
        0
  0
SPLINE
  5
255
102
{ACAD_REACTORS
330
39A
102
}
330
31C
100
AcDbEntity
  8
Stone
  6
Continuous
370
     0
100
AcDbSpline
210
0.0
220
0.0
230
1.0
 70
    11
 71
     3
 72
    15
 73
    11
 74
     0
 42
0.0000000001
 43
0.00000001
 40
0.0
 40
0.0
 40
0.0
 40
0.0
 40
0.3507064570834059
 40
0.4693224730737767
 40
0.555321277664273
 40
0.6353325245289792
 40
0.732750609926529
 40
0.8105878424383726
 40
0.8897067426616309
 40
1.0
 40
1.0
 40
1.0
 40
1.0
 10
-3520.580374754015
 20
1167.894296678693
 30
0.0
 10
-3521.248274063753
 20
1169.71832832256
 30
0.0
 10
-3530.004793414471
 20
1166.767193644025
 30
0.0
 10
-3526.787953821111
 20
1162.692679296638
 30
0.0
 10
-3525.195555690074
 20
1161.677985087823
 30
0.0
 10
-3523.153154028098
 20
1160.124240525387
 30
0.0
 10
-3522.26155156975
 20
1162.526932542713
 30
0.0
 10
-3520.336211324724
 20
1163.47516093433
 30
0.0
 10
-3521.007567399884
 20
1165.65114003272
 30
0.0
 10
-3520.370327893008
 20
1167.320659132457
 30
0.0
 10
-3520.580374754015
 20
1167.894296678693
 30
0.0
  0
HATCH
  5
39B
330
31C
100
AcDbEntity
  8
Stone
  6
Continuous
 62
   253
370
     0
100
AcDbHatch
 10
0.0
 20
0.0
 30
0.0
210
0.0
220
0.0
230
1.0
  2
SOLID
 70
     1
 71
     1
 91
        1
 92
        1
 93
        1
 72
     4
 94
        3
 73
     0
 74
     0
 95
       12
 96
        8
 40
0.0
 40
0.0
 40
0.0
 40
0.0
 40
0.1509261438930211
 40
0.3309701485232394
 40
0.5810582982384175
 40
0.7901225208658416
 40
1.0
 40
1.0
 40
1.0
 40
1.0
 10
-3524.524540862787
 20
1168.048969859429
 10
-3524.006433892644
 20
1168.463138810224
 10
-3523.010123469076
 20
1169.598793769217
 10
-3525.471552946524
 20
1171.10413689394
 10
-3528.56714559434
 20
1170.032436056962
 10
-3526.929368746291
 20
1166.723669942903
 10
-3525.245018985468
 20
1167.47302765958
 10
-3524.524540862787
 20
1168.048969859429
 97
        1
330
258
 75
     0
 76
     1
 98
        0
  0
SPLINE
  5
258
102
{ACAD_REACTORS
330
39B
102
}
330
31C
100
AcDbEntity
  8
Stone
  6
Continuous
370
     0
100
AcDbSpline
210
0.0
220
0.0
230
1.0
 70
    11
 71
     3
 72
    12
 73
     8
 74
     0
 42
0.0000000001
 43
0.00000001
 40
0.0
 40
0.0
 40
0.0
 40
0.0
 40
0.1509261438930211
 40
0.3309701485232394
 40
0.5810582982384175
 40
0.7901225208658416
 40
1.0
 40
1.0
 40
1.0
 40
1.0
 10
-3524.524540862787
 20
1168.048969859429
 30
0.0
 10
-3524.006433892644
 20
1168.463138810224
 30
0.0
 10
-3523.010123469076
 20
1169.598793769217
 30
0.0
 10
-3525.471552946524
 20
1171.10413689394
 30
0.0
 10
-3528.56714559434
 20
1170.032436056962
 30
0.0
 10
-3526.929368746291
 20
1166.723669942903
 30
0.0
 10
-3525.245018985468
 20
1167.47302765958
 30
0.0
 10
-3524.524540862787
 20
1168.048969859429
 30
0.0
  0
HATCH
  5
39C
330
31C
100
AcDbEntity
  8
Stone
  6
Continuous
 62
   253
370
     0
100
AcDbHatch
 10
0.0
 20
0.0
 30
0.0
210
0.0
220
0.0
230
1.0
  2
SOLID
 70
     1
 71
     1
 91
        1
 92
        1
 93
        1
 72
     4
 94
        3
 73
     0
 74
     0
 95
       15
 96
       11
 40
0.0
 40
0.0
 40
0.0
 40
0.0
 40
0.1595296485542694
 40
0.2575664485459194
 40
0.3625538602911942
 40
0.5851238927046695
 40
0.744102487285723
 40
0.8262841528887543
 40
0.9625283859027439
 40
1.0
 40
1.0
 40
1.0
 40
1.0
 10
-3533.108902393642
 20
1146.549397737105
 10
-3532.040120160232
 20
1145.786529924742
 10
-3529.664419355411
 20
1149.677196602557
 10
-3529.689498174051
 20
1153.038301921567
 10
-3532.653504087658
 20
1156.238846212958
 10
-3539.930073029967
 20
1156.704564467204
 10
-3538.717176166068
 20
1151.3205026105
 10
-3538.030715976791
 20
1147.171699340128
 10
-3534.420779324717
 20
1148.370776202833
 10
-3533.359946608729
 20
1146.7285862988
 10
-3533.108902393642
 20
1146.549397737105
 97
        1
330
25B
 75
     0
 76
     1
 98
        0
  0
SPLINE
  5
25B
102
{ACAD_REACTORS
330
39C
102
}
330
31C
100
AcDbEntity
  8
Stone
  6
Continuous
370
     0
100
AcDbSpline
210
0.0
220
0.0
230
1.0
 70
    11
 71
     3
 72
    15
 73
    11
 74
     0
 42
0.0000000001
 43
0.00000001
 40
0.0
 40
0.0
 40
0.0
 40
0.0
 40
0.1595296485542694
 40
0.2575664485459194
 40
0.3625538602911942
 40
0.5851238927046695
 40
0.744102487285723
 40
0.8262841528887543
 40
0.9625283859027439
 40
1.0
 40
1.0
 40
1.0
 40
1.0
 10
-3533.108902393642
 20
1146.549397737105
 30
0.0
 10
-3532.040120160232
 20
1145.786529924742
 30
0.0
 10
-3529.664419355411
 20
1149.677196602557
 30
0.0
 10
-3529.689498174051
 20
1153.038301921567
 30
0.0
 10
-3532.653504087658
 20
1156.238846212958
 30
0.0
 10
-3539.930073029967
 20
1156.704564467204
 30
0.0
 10
-3538.717176166068
 20
1151.3205026105
 30
0.0
 10
-3538.030715976791
 20
1147.171699340128
 30
0.0
 10
-3534.420779324717
 20
1148.370776202833
 30
0.0
 10
-3533.359946608729
 20
1146.7285862988
 30
0.0
 10
-3533.108902393642
 20
1146.549397737105
 30
0.0
  0
HATCH
  5
39D
330
31C
100
AcDbEntity
  8
Stone
  6
Continuous
 62
   253
370
     0
100
AcDbHatch
 10
0.0
 20
0.0
 30
0.0
210
0.0
220
0.0
230
1.0
  2
SOLID
 70
     1
 71
     1
 91
        1
 92
        1
 93
        1
 72
     4
 94
        3
 73
     0
 74
     0
 95
       15
 96
       11
 40
0.0
 40
0.0
 40
0.0
 40
0.0
 40
0.1574500568203599
 40
0.3254998930526551
 40
0.447188693241807
 40
0.5307088852649247
 40
0.7162745586493192
 40
0.8108129968468836
 40
0.8827789541790426
 40
1.0
 40
1.0
 40
1.0
 40
1.0
 10
-3530.092775369288
 20
1162.480735352928
 10
-3531.13520678162
 20
1163.40257375642
 10
-3534.481997541629
 20
1161.660390462648
 10
-3539.831265899142
 20
1160.571880843032
 10
-3537.752747761278
 20
1156.743670462978
 10
-3537.126716053325
 20
1152.838371544945
 10
-3531.048446292046
 20
1154.07920718938
 10
-3531.656643983716
 20
1158.075578903352
 10
-3528.579825598005
 20
1159.108263706669
 10
-3529.316688635387
 20
1161.7944297147
 10
-3530.092775369288
 20
1162.480735352928
 97
        1
330
252
 75
     0
 76
     1
 98
        0
  0
SPLINE
  5
252
102
{ACAD_REACTORS
330
39D
102
}
330
31C
100
AcDbEntity
  8
Stone
  6
Continuous
370
     0
100
AcDbSpline
210
0.0
220
0.0
230
1.0
 70
    11
 71
     3
 72
    15
 73
    11
 74
     0
 42
0.0000000001
 43
0.00000001
 40
0.0
 40
0.0
 40
0.0
 40
0.0
 40
0.1574500568203599
 40
0.3254998930526551
 40
0.447188693241807
 40
0.5307088852649247
 40
0.7162745586493192
 40
0.8108129968468836
 40
0.8827789541790426
 40
1.0
 40
1.0
 40
1.0
 40
1.0
 10
-3530.092775369288
 20
1162.480735352928
 30
0.0
 10
-3531.13520678162
 20
1163.40257375642
 30
0.0
 10
-3534.481997541629
 20
1161.660390462648
 30
0.0
 10
-3539.831265899142
 20
1160.571880843032
 30
0.0
 10
-3537.752747761278
 20
1156.743670462978
 30
0.0
 10
-3537.126716053325
 20
1152.838371544945
 30
0.0
 10
-3531.048446292046
 20
1154.07920718938
 30
0.0
 10
-3531.656643983716
 20
1158.075578903352
 30
0.0
 10
-3528.579825598005
 20
1159.108263706669
 30
0.0
 10
-3529.316688635387
 20
1161.7944297147
 30
0.0
 10
-3530.092775369288
 20
1162.480735352928
 30
0.0
  0
HATCH
  5
39E
330
31C
100
AcDbEntity
  8
Stone
  6
Continuous
 62
   253
370
     0
100
AcDbHatch
 10
0.0
 20
0.0
 30
0.0
210
0.0
220
0.0
230
1.0
  2
SOLID
 70
     1
 71
     1
 91
        1
 92
        1
 93
        1
 72
     4
 94
        3
 73
     0
 74
     0
 95
       20
 96
       16
 40
0.0
 40
0.0
 40
0.0
 40
0.0
 40
0.0828196814151822
 40
0.1027199808746024
 40
0.2597180834493901
 40
0.3247832377915007
 40
0.4541351842777334
 40
0.5397296087084766
 40
0.6014205370326798
 40
0.6372410760596365
 40
0.6942268614127563
 40
0.7372777914715745
 40
0.8009587497417203
 40
0.9482209657414307
 40
1.0
 40
1.0
 40
1.0
 40
1.0
 10
-3528.700716742662
 20
1139.975787555819
 10
-3527.759117638795
 20
1140.390054618101
 10
-3527.021767430248
 20
1142.035430132752
 10
-3523.217210259528
 20
1141.483868479243
 10
-3527.495602205386
 20
1147.113789915152
 10
-3531.398821221917
 20
1148.445226591158
 10
-3534.852154337785
 20
1148.14912333265
 10
-3539.495406901297
 20
1147.832700867855
 10
-3538.933845207033
 20
1144.992766436048
 10
-3538.676326557951
 20
1142.999514466404
 10
-3540.391007123106
 20
1141.528591738628
 10
-3538.777184029048
 20
1139.316192363853
 10
-3535.22918770952
 20
1140.322740046597
 10
-3532.073893396487
 20
1140.092021161059
 10
-3529.289406428784
 20
1139.716786940947
 10
-3528.700716742662
 20
1139.975787555819
 97
        1
330
25E
 75
     0
 76
     1
 98
        0
  0
SPLINE
  5
25E
102
{ACAD_REACTORS
330
39E
102
}
330
31C
100
AcDbEntity
  8
Stone
  6
Continuous
370
     0
100
AcDbSpline
210
0.0
220
0.0
230
1.0
 70
    11
 71
     3
 72
    20
 73
    16
 74
     0
 42
0.0000000001
 43
0.00000001
 40
0.0
 40
0.0
 40
0.0
 40
0.0
 40
0.0828196814151822
 40
0.1027199808746024
 40
0.2597180834493901
 40
0.3247832377915007
 40
0.4541351842777334
 40
0.5397296087084766
 40
0.6014205370326798
 40
0.6372410760596365
 40
0.6942268614127563
 40
0.7372777914715745
 40
0.8009587497417203
 40
0.9482209657414307
 40
1.0
 40
1.0
 40
1.0
 40
1.0
 10
-3528.700716742662
 20
1139.975787555819
 30
0.0
 10
-3527.759117638795
 20
1140.390054618101
 30
0.0
 10
-3527.021767430248
 20
1142.035430132752
 30
0.0
 10
-3523.217210259528
 20
1141.483868479243
 30
0.0
 10
-3527.495602205386
 20
1147.113789915152
 30
0.0
 10
-3531.398821221917
 20
1148.445226591158
 30
0.0
 10
-3534.852154337785
 20
1148.14912333265
 30
0.0
 10
-3539.495406901297
 20
1147.832700867855
 30
0.0
 10
-3538.933845207033
 20
1144.992766436048
 30
0.0
 10
-3538.676326557951
 20
1142.999514466404
 30
0.0
 10
-3540.391007123106
 20
1141.528591738628
 30
0.0
 10
-3538.777184029048
 20
1139.316192363853
 30
0.0
 10
-3535.22918770952
 20
1140.322740046597
 30
0.0
 10
-3532.073893396487
 20
1140.092021161059
 30
0.0
 10
-3529.289406428784
 20
1139.716786940947
 30
0.0
 10
-3528.700716742662
 20
1139.975787555819
 30
0.0
  0
HATCH
  5
39F
330
31C
100
AcDbEntity
  8
Stone
  6
Continuous
 62
   253
370
     0
100
AcDbHatch
 10
0.0
 20
0.0
 30
0.0
210
0.0
220
0.0
230
1.0
  2
SOLID
 70
     1
 71
     1
 91
        1
 92
        1
 93
        1
 72
     4
 94
        3
 73
     0
 74
     0
 95
       14
 96
       10
 40
0.0
 40
0.0
 40
0.0
 40
0.0
 40
0.238897946814682
 40
0.3605013402527424
 40
0.4763369910680277
 40
0.6030829874752743
 40
0.7631460490504292
 40
0.8736796329908672
 40
1.0
 40
1.0
 40
1.0
 40
1.0
 10
-3518.801633175549
 20
1150.802910207349
 10
-3518.014028703091
 20
1151.781760487336
 10
-3520.11012692538
 20
1155.265984573197
 10
-3523.871467466591
 20
1155.362900543959
 10
-3524.420737385773
 20
1152.733476572379
 10
-3526.466387101426
 20
1150.399615633611
 10
-3523.042588306268
 20
1147.941612682604
 10
-3521.140040538249
 20
1150.012136993918
 10
-3519.218089186769
 20
1150.285330511653
 10
-3518.801633175549
 20
1150.802910207349
 97
        1
330
261
 75
     0
 76
     1
 98
        0
  0
SPLINE
  5
261
102
{ACAD_REACTORS
330
39F
102
}
330
31C
100
AcDbEntity
  8
Stone
  6
Continuous
370
     0
100
AcDbSpline
210
0.0
220
0.0
230
1.0
 70
    11
 71
     3
 72
    14
 73
    10
 74
     0
 42
0.0000000001
 43
0.00000001
 40
0.0
 40
0.0
 40
0.0
 40
0.0
 40
0.238897946814682
 40
0.3605013402527424
 40
0.4763369910680277
 40
0.6030829874752743
 40
0.7631460490504292
 40
0.8736796329908672
 40
1.0
 40
1.0
 40
1.0
 40
1.0
 10
-3518.801633175549
 20
1150.802910207349
 30
0.0
 10
-3518.014028703091
 20
1151.781760487336
 30
0.0
 10
-3520.11012692538
 20
1155.265984573197
 30
0.0
 10
-3523.871467466591
 20
1155.362900543959
 30
0.0
 10
-3524.420737385773
 20
1152.733476572379
 30
0.0
 10
-3526.466387101426
 20
1150.399615633611
 30
0.0
 10
-3523.042588306268
 20
1147.941612682604
 30
0.0
 10
-3521.140040538249
 20
1150.012136993918
 30
0.0
 10
-3519.218089186769
 20
1150.285330511653
 30
0.0
 10
-3518.801633175549
 20
1150.802910207349
 30
0.0
  0
HATCH
  5
3A0
330
31C
100
AcDbEntity
  8
Stone
  6
Continuous
 62
   253
370
     0
100
AcDbHatch
 10
0.0
 20
0.0
 30
0.0
210
0.0
220
0.0
230
1.0
  2
SOLID
 70
     1
 71
     1
 91
        1
 92
        1
 93
        1
 72
     4
 94
        3
 73
     0
 74
     0
 95
       14
 96
       10
 40
0.0
 40
0.0
 40
0.0
 40
0.0
 40
0.1316907174554666
 40
0.2137532307589161
 40
0.2882785663232205
 40
0.4559605713429052
 40
0.6428691620542856
 40
0.7770147660700323
 40
1.0
 40
1.0
 40
1.0
 40
1.0
 10
-3526.457955621988
 20
1152.272305424343
 10
-3525.888472557802
 20
1152.918238204944
 10
-3525.937731790548
 20
1154.842727498891
 10
-3523.690128219262
 20
1155.510710252996
 10
-3523.814667487983
 20
1158.536275744477
 10
-3527.802540890571
 20
1157.102584281727
 10
-3531.355033979347
 20
1156.762185865654
 10
-3531.720977127003
 20
1151.905230945346
 10
-3527.422232503004
 20
1151.178580103619
 10
-3526.457955621988
 20
1152.272305424343
 97
        1
330
264
 75
     0
 76
     1
 98
        0
  0
SPLINE
  5
264
102
{ACAD_REACTORS
330
3A0
102
}
330
31C
100
AcDbEntity
  8
Stone
  6
Continuous
370
     0
100
AcDbSpline
210
0.0
220
0.0
230
1.0
 70
    11
 71
     3
 72
    14
 73
    10
 74
     0
 42
0.0000000001
 43
0.00000001
 40
0.0
 40
0.0
 40
0.0
 40
0.0
 40
0.1316907174554666
 40
0.2137532307589161
 40
0.2882785663232205
 40
0.4559605713429052
 40
0.6428691620542856
 40
0.7770147660700323
 40
1.0
 40
1.0
 40
1.0
 40
1.0
 10
-3526.457955621988
 20
1152.272305424343
 30
0.0
 10
-3525.888472557802
 20
1152.918238204944
 30
0.0
 10
-3525.937731790548
 20
1154.842727498891
 30
0.0
 10
-3523.690128219262
 20
1155.510710252996
 30
0.0
 10
-3523.814667487983
 20
1158.536275744477
 30
0.0
 10
-3527.802540890571
 20
1157.102584281727
 30
0.0
 10
-3531.355033979347
 20
1156.762185865654
 30
0.0
 10
-3531.720977127003
 20
1151.905230945346
 30
0.0
 10
-3527.422232503004
 20
1151.178580103619
 30
0.0
 10
-3526.457955621988
 20
1152.272305424343
 30
0.0
  0
HATCH
  5
3A1
330
31C
100
AcDbEntity
  8
Stone
  6
Continuous
 62
   253
370
     0
100
AcDbHatch
 10
0.0
 20
0.0
 30
0.0
210
0.0
220
0.0
230
1.0
  2
SOLID
 70
     1
 71
     1
 91
        1
 92
        1
 93
        1
 72
     4
 94
        3
 73
     0
 74
     0
 95
       14
 96
       10
 40
0.0
 40
0.0
 40
0.0
 40
0.0
 40
0.1331268842296162
 40
0.3687578875432902
 40
0.5151440749685289
 40
0.6338322272038248
 40
0.7218437386443861
 40
0.8756035064522904
 40
1.0
 40
1.0
 40
1.0
 40
1.0
 10
-3521.97243338064
 20
1143.997290254959
 10
-3521.196205196205
 20
1143.759830372983
 10
-3518.224698251049
 20
1145.459716655619
 10
-3522.180255243124
 20
1149.658095400152
 10
-3524.813182213202
 20
1147.450537589166
 10
-3526.799711105432
 20
1146.544672792882
 10
-3526.925369771444
 20
1143.197864177141
 10
-3523.740676011642
 20
1146.377087162141
 10
-3522.697756931142
 20
1144.219177643424
 10
-3521.97243338064
 20
1143.997290254959
 97
        1
330
267
 75
     0
 76
     1
 98
        0
  0
SPLINE
  5
267
102
{ACAD_REACTORS
330
3A1
102
}
330
31C
100
AcDbEntity
  8
Stone
  6
Continuous
370
     0
100
AcDbSpline
210
0.0
220
0.0
230
1.0
 70
    11
 71
     3
 72
    14
 73
    10
 74
     0
 42
0.0000000001
 43
0.00000001
 40
0.0
 40
0.0
 40
0.0
 40
0.0
 40
0.1331268842296162
 40
0.3687578875432902
 40
0.5151440749685289
 40
0.6338322272038248
 40
0.7218437386443861
 40
0.8756035064522904
 40
1.0
 40
1.0
 40
1.0
 40
1.0
 10
-3521.97243338064
 20
1143.997290254959
 30
0.0
 10
-3521.196205196205
 20
1143.759830372983
 30
0.0
 10
-3518.224698251049
 20
1145.459716655619
 30
0.0
 10
-3522.180255243124
 20
1149.658095400152
 30
0.0
 10
-3524.813182213202
 20
1147.450537589166
 30
0.0
 10
-3526.799711105432
 20
1146.544672792882
 30
0.0
 10
-3526.925369771444
 20
1143.197864177141
 30
0.0
 10
-3523.740676011642
 20
1146.377087162141
 30
0.0
 10
-3522.697756931142
 20
1144.219177643424
 30
0.0
 10
-3521.97243338064
 20
1143.997290254959
 30
0.0
  0
HATCH
  5
3A2
330
31C
100
AcDbEntity
  8
Stone
  6
Continuous
 62
   253
370
     0
100
AcDbHatch
 10
0.0
 20
0.0
 30
0.0
210
0.0
220
0.0
230
1.0
  2
SOLID
 70
     1
 71
     1
 91
        1
 92
        1
 93
        1
 72
     4
 94
        3
 73
     0
 74
     0
 95
       13
 96
        9
 40
0.0
 40
0.0
 40
0.0
 40
0.0
 40
0.2608362191615057
 40
0.4393076906490321
 40
0.565506078386201
 40
0.7466763451936593
 40
0.9278466120011164
 40
1.0
 40
1.0
 40
1.0
 40
1.0
 10
-3479.998156359118
 20
1109.985385584054
 10
-3479.340061419533
 20
1111.335243032564
 10
-3472.85455798682
 20
1104.443720980962
 10
-3478.405410835548
 20
1102.768034872677
 10
-3480.636934184225
 20
1096.751423077449
 10
-3479.937606344896
 20
1104.443841131312
 10
-3479.96162121915
 20
1106.83907045136
 10
-3480.18020078404
 20
1109.61198349849
 10
-3479.998156359118
 20
1109.985385584054
 97
        1
330
26A
 75
     0
 76
     1
 98
        0
  0
SPLINE
  5
26A
102
{ACAD_REACTORS
330
3A2
102
}
330
31C
100
AcDbEntity
  8
Stone
  6
Continuous
370
     0
100
AcDbSpline
210
0.0
220
0.0
230
1.0
 70
    11
 71
     3
 72
    13
 73
     9
 74
     0
 42
0.0000000001
 43
0.00000001
 40
0.0
 40
0.0
 40
0.0
 40
0.0
 40
0.2608362191615057
 40
0.4393076906490321
 40
0.565506078386201
 40
0.7466763451936593
 40
0.9278466120011164
 40
1.0
 40
1.0
 40
1.0
 40
1.0
 10
-3479.998156359118
 20
1109.985385584054
 30
0.0
 10
-3479.340061419533
 20
1111.335243032564
 30
0.0
 10
-3472.85455798682
 20
1104.443720980962
 30
0.0
 10
-3478.405410835548
 20
1102.768034872677
 30
0.0
 10
-3480.636934184225
 20
1096.751423077449
 30
0.0
 10
-3479.937606344896
 20
1104.443841131312
 30
0.0
 10
-3479.96162121915
 20
1106.83907045136
 30
0.0
 10
-3480.18020078404
 20
1109.61198349849
 30
0.0
 10
-3479.998156359118
 20
1109.985385584054
 30
0.0
  0
HATCH
  5
3A3
330
31C
100
AcDbEntity
  8
Stone
  6
Continuous
 62
   253
370
     0
100
AcDbHatch
 10
0.0
 20
0.0
 30
0.0
210
0.0
220
0.0
230
1.0
  2
SOLID
 70
     1
 71
     1
 91
        1
 92
        1
 93
        1
 72
     4
 94
        3
 73
     0
 74
     0
 95
       16
 96
       12
 40
0.0
 40
0.0
 40
0.0
 40
0.0
 40
0.1049798389279568
 40
0.2710124183687004
 40
0.3833164321055838
 40
0.4712065298127103
 40
0.5102687954603229
 40
0.5883933267555456
 40
0.7034499769854103
 40
0.869482556426155
 40
1.0
 40
1.0
 40
1.0
 40
1.0
 10
-3542.5216866252
 20
1080.380031066007
 10
-3541.854568778467
 20
1081.241331632707
 10
-3544.197819607009
 20
1086.526476901066
 10
-3536.688461038712
 20
1094.023896333795
 10
-3545.169090851758
 20
1092.471660161642
 10
-3548.580100436631
 20
1092.785435206635
 10
-3551.667438467812
 20
1092.610694880838
 10
-3556.774384090061
 20
1093.729985579295
 10
-3552.13527170202
 20
1085.977124428772
 10
-3550.766294975358
 20
1081.041284671597
 10
-3543.351088887647
 20
1079.309208808491
 10
-3542.5216866252
 20
1080.380031066007
 97
        1
330
26D
 75
     0
 76
     1
 98
        0
  0
SPLINE
  5
26D
102
{ACAD_REACTORS
330
3A3
102
}
330
31C
100
AcDbEntity
  8
Stone
  6
Continuous
370
     0
100
AcDbSpline
210
0.0
220
0.0
230
1.0
 70
    11
 71
     3
 72
    16
 73
    12
 74
     0
 42
0.0000000001
 43
0.00000001
 40
0.0
 40
0.0
 40
0.0
 40
0.0
 40
0.1049798389279568
 40
0.2710124183687004
 40
0.3833164321055838
 40
0.4712065298127103
 40
0.5102687954603229
 40
0.5883933267555456
 40
0.7034499769854103
 40
0.869482556426155
 40
1.0
 40
1.0
 40
1.0
 40
1.0
 10
-3542.5216866252
 20
1080.380031066007
 30
0.0
 10
-3541.854568778467
 20
1081.241331632707
 30
0.0
 10
-3544.197819607009
 20
1086.526476901066
 30
0.0
 10
-3536.688461038712
 20
1094.023896333795
 30
0.0
 10
-3545.169090851758
 20
1092.471660161642
 30
0.0
 10
-3548.580100436631
 20
1092.785435206635
 30
0.0
 10
-3551.667438467812
 20
1092.610694880838
 30
0.0
 10
-3556.774384090061
 20
1093.729985579295
 30
0.0
 10
-3552.13527170202
 20
1085.977124428772
 30
0.0
 10
-3550.766294975358
 20
1081.041284671597
 30
0.0
 10
-3543.351088887647
 20
1079.309208808491
 30
0.0
 10
-3542.5216866252
 20
1080.380031066007
 30
0.0
  0
HATCH
  5
3A4
330
31C
100
AcDbEntity
  8
Stone
  6
Continuous
 62
   253
370
     0
100
AcDbHatch
 10
0.0
 20
0.0
 30
0.0
210
0.0
220
0.0
230
1.0
  2
SOLID
 70
     1
 71
     1
 91
        1
 92
        1
 93
        1
 72
     4
 94
        3
 73
     0
 74
     0
 95
       17
 96
       13
 40
0.0
 40
0.0
 40
0.0
 40
0.0
 40
0.1231583386069292
 40
0.1872362666638081
 40
0.2463131973089702
 40
0.3053901279541322
 40
0.4478697842159899
 40
0.5577625242221717
 40
0.6489801182316588
 40
0.7323828438483562
 40
0.8192606830324162
 40
1.0
 40
1.0
 40
1.0
 40
1.0
 10
-3557.626838088807
 20
1085.222904054339
 10
-3557.062108527652
 20
1086.061769010307
 10
-3557.49929055166
 20
1089.248861848733
 10
-3554.53685469
 20
1090.062936491843
 10
-3554.437328523311
 20
1093.111401476721
 10
-3558.019867594744
 20
1091.96386933957
 10
-3561.333892159342
 20
1093.400917266537
 10
-3564.420190168602
 20
1090.44116331024
 10
-3566.773460067372
 20
1088.612910717433
 10
-3567.110763919707
 20
1084.423884500915
 10
-3562.40059950491
 20
1086.179075542918
 10
-3558.455599148018
 20
1083.991839386816
 10
-3557.626838088807
 20
1085.222904054339
 97
        1
330
270
 75
     0
 76
     1
 98
        0
  0
SPLINE
  5
270
102
{ACAD_REACTORS
330
3A4
102
}
330
31C
100
AcDbEntity
  8
Stone
  6
Continuous
370
     0
100
AcDbSpline
210
0.0
220
0.0
230
1.0
 70
    11
 71
     3
 72
    17
 73
    13
 74
     0
 42
0.0000000001
 43
0.00000001
 40
0.0
 40
0.0
 40
0.0
 40
0.0
 40
0.1231583386069292
 40
0.1872362666638081
 40
0.2463131973089702
 40
0.3053901279541322
 40
0.4478697842159899
 40
0.5577625242221717
 40
0.6489801182316588
 40
0.7323828438483562
 40
0.8192606830324162
 40
1.0
 40
1.0
 40
1.0
 40
1.0
 10
-3557.626838088807
 20
1085.222904054339
 30
0.0
 10
-3557.062108527652
 20
1086.061769010307
 30
0.0
 10
-3557.49929055166
 20
1089.248861848733
 30
0.0
 10
-3554.53685469
 20
1090.062936491843
 30
0.0
 10
-3554.437328523311
 20
1093.111401476721
 30
0.0
 10
-3558.019867594744
 20
1091.96386933957
 30
0.0
 10
-3561.333892159342
 20
1093.400917266537
 30
0.0
 10
-3564.420190168602
 20
1090.44116331024
 30
0.0
 10
-3566.773460067372
 20
1088.612910717433
 30
0.0
 10
-3567.110763919707
 20
1084.423884500915
 30
0.0
 10
-3562.40059950491
 20
1086.179075542918
 30
0.0
 10
-3558.455599148018
 20
1083.991839386816
 30
0.0
 10
-3557.626838088807
 20
1085.222904054339
 30
0.0
  0
HATCH
  5
3A5
330
31C
100
AcDbEntity
  8
Stone
  6
Continuous
 62
   253
370
     0
100
AcDbHatch
 10
0.0
 20
0.0
 30
0.0
210
0.0
220
0.0
230
1.0
  2
SOLID
 70
     1
 71
     1
 91
        1
 92
        1
 93
        1
 72
     4
 94
        3
 73
     0
 74
     0
 95
       18
 96
       14
 40
0.0
 40
0.0
 40
0.0
 40
0.0
 40
0.0788202455416941
 40
0.1702517303700588
 40
0.2270023071600784
 40
0.3373506509184511
 40
0.4440349524275639
 40
0.51970238814759
 40
0.6071324820190039
 40
0.7036451646711113
 40
0.7785750529764602
 40
0.8290200101231454
 40
1.0
 40
1.0
 40
1.0
 40
1.0
 10
-3566.390132067693
 20
1088.682099046004
 10
-3566.326259843307
 20
1089.96368646317
 10
-3565.496410241215
 20
1092.43366556578
 10
-3569.567214146607
 20
1091.459859236986
 10
-3572.117747507971
 20
1091.513318139322
 10
-3577.95179092557
 20
1092.458115013062
 10
-3572.79197995825
 20
1088.741651706431
 10
-3574.127417131249
 20
1085.265848485158
 10
-3572.345338869361
 20
1083.040936269902
 10
-3569.715378776164
 20
1078.127408994322
 10
-3569.5114918047
 20
1083.17680880994
 10
-3564.756132100108
 20
1081.460304156184
 10
-3566.528686219663
 20
1085.902029000456
 10
-3566.390132067693
 20
1088.682099046004
 97
        1
330
273
 75
     0
 76
     1
 98
        0
  0
SPLINE
  5
273
102
{ACAD_REACTORS
330
3A5
102
}
330
31C
100
AcDbEntity
  8
Stone
  6
Continuous
370
     0
100
AcDbSpline
210
0.0
220
0.0
230
1.0
 70
    11
 71
     3
 72
    18
 73
    14
 74
     0
 42
0.0000000001
 43
0.00000001
 40
0.0
 40
0.0
 40
0.0
 40
0.0
 40
0.0788202455416941
 40
0.1702517303700588
 40
0.2270023071600784
 40
0.3373506509184511
 40
0.4440349524275639
 40
0.51970238814759
 40
0.6071324820190039
 40
0.7036451646711113
 40
0.7785750529764602
 40
0.8290200101231454
 40
1.0
 40
1.0
 40
1.0
 40
1.0
 10
-3566.390132067693
 20
1088.682099046004
 30
0.0
 10
-3566.326259843307
 20
1089.96368646317
 30
0.0
 10
-3565.496410241215
 20
1092.43366556578
 30
0.0
 10
-3569.567214146607
 20
1091.459859236986
 30
0.0
 10
-3572.117747507971
 20
1091.513318139322
 30
0.0
 10
-3577.95179092557
 20
1092.458115013062
 30
0.0
 10
-3572.79197995825
 20
1088.741651706431
 30
0.0
 10
-3574.127417131249
 20
1085.265848485158
 30
0.0
 10
-3572.345338869361
 20
1083.040936269902
 30
0.0
 10
-3569.715378776164
 20
1078.127408994322
 30
0.0
 10
-3569.5114918047
 20
1083.17680880994
 30
0.0
 10
-3564.756132100108
 20
1081.460304156184
 30
0.0
 10
-3566.528686219663
 20
1085.902029000456
 30
0.0
 10
-3566.390132067693
 20
1088.682099046004
 30
0.0
  0
LWPOLYLINE
  5
29E
330
31C
100
AcDbEntity
  8
Quadrat Outlines
100
AcDbPolyline
 90
        3
 70
   128
 43
0.0
 10
-3539.992231
 20
1380.023229
 10
-3479.992231
 20
1380.023229
 10
-3479.998156
 20
1319.985386
  0
TEXT
  5
2A0
330
31C
100
AcDbEntity
  8
Quadrat IDs
 62
     7
100
AcDbText
 10
-3598.367931
 20
1433.696957
 30
0.0
 40
3.0
  1
W300 N120
  7
Style-Garamond
 11
-3598.367931
 21
1436.696957
 31
0.0
100
AcDbText
 73
     3
  0
TEXT
  5
2A1
330
31C
100
AcDbEntity
  8
Quadrat IDs
 62
     7
100
AcDbText
 10
-3598.367931
 20
1373.696957
 30
0.0
 40
3.0
  1
W300 N115
  7
Style-Garamond
 11
-3598.367931
 21
1376.696957
 31
0.0
100
AcDbText
 73
     3
  0
TEXT
  5
2A2
330
31C
100
AcDbEntity
  8
Quadrat IDs
 62
     7
100
AcDbText
 10
-3538.367931
 20
1373.696957
 30
0.0
 40
3.0
  1
W295 N115
  7
Style-Garamond
 11
-3538.367931
 21
1376.696957
 31
0.0
100
AcDbText
 73
     3
  0
TEXT
  5
2A4
330
31C
100
AcDbEntity
  8
Quadrat IDs
 62
     7
100
AcDbText
 10
-3478.367931
 20
1313.696957
 30
0.0
 40
3.0
  1
W290 N110
  7
Style-Garamond
 11
-3478.367931
 21
1316.696957
 31
0.0
100
AcDbText
 73
     3
  0
TEXT
  5
2A5
330
31C
100
AcDbEntity
  8
Quadrat IDs
 62
     7
100
AcDbText
 10
-3478.367931
 20
1253.696957
 30
0.0
 40
3.0
  1
W290 N105
  7
Style-Garamond
 11
-3478.367931
 21
1256.696957
 31
0.0
100
AcDbText
 73
     3
  0
TEXT
  5
2A7
330
31C
100
AcDbEntity
  8
Quadrat IDs
 62
     7
100
AcDbText
 10
-3538.367931
 20
1193.696957
 30
0.0
 40
3.0
  1
W295 N100
  7
Style-Garamond
 11
-3538.367931
 21
1196.696957
 31
0.0
100
AcDbText
 73
     3
  0
TEXT
  5
2A8
330
31C
100
AcDbEntity
  8
Quadrat IDs
 62
     7
100
AcDbText
 10
-3598.367931
 20
1193.696957
 30
0.0
 40
3.0
  1
W300 N100
  7
Style-Garamond
 11
-3598.367931
 21
1196.696957
 31
0.0
100
AcDbText
 73
     3
  0
TEXT
  5
2A9
330
31C
100
AcDbEntity
  8
Quadrat IDs
 62
     7
100
AcDbText
 10
-3598.367931
 20
1133.696957
 30
0.0
 40
3.0
  1
W300 N95
  7
Style-Garamond
 11
-3598.367931
 21
1136.696957
 31
0.0
100
AcDbText
 73
     3
  0
TEXT
  5
2AA
330
31C
100
AcDbEntity
  8
Quadrat IDs
 62
     7
100
AcDbText
 10
-3478.367931
 20
1133.696957
 30
0.0
 40
3.0
  1
W290 N95
  7
Style-Garamond
 11
-3478.367931
 21
1136.696957
 31
0.0
100
AcDbText
 73
     3
  0
INSERT
  5
DF
330
31C
100
AcDbEntity
  8
Key
 62
   250
100
AcDbBlockReference
  2
AI9-BLK61
 10
-3341.974273
 20
1096.948184
 30
0.0
 41
0.099619
 42
0.099619
 43
0.099619
  0
LINE
  5
E1
330
31C
100
AcDbEntity
  8
Scale_Legend_Arrow
  6
DGN Style 2
 62
    92
370
    13
100
AcDbLine
 10
-3389.889648
 20
1093.847405
 30
0.0
 11
-3377.767394
 21
1093.847405
 31
0.0
  0
LINE
  5
E3
330
31C
100
AcDbEntity
  8
Scale_Legend_Arrow
  6
DGN Style 4
 62
   178
370
    13
100
AcDbLine
 10
-3390.797379
 20
1086.003129
 30
0.0
 11
-3378.157108
 21
1086.003129
 31
0.0
  0
TEXT
  5
E2
330
31C
100
AcDbEntity
  8
Scale_Legend_Arrow
  6
DGN Style 2
 62
   250
370
    13
100
AcDbText
 10
-3375.387642
 20
1092.022173
 30
0.0
 40
3.862426
  1
= Building Outline
  7
Style-Garamond
 11
-3375.387642
 21
1095.884599
 31
0.0
100
AcDbText
 73
     3
  0
TEXT
  5
2AB
330
31C
100
AcDbEntity
  8
Scale_Legend_Arrow
 62
     7
100
AcDbText
 10
-3392.533199
 20
1099.685809
 30
0.0
 40
2.112
  1
W300 N100
  7
Style-Garamond
 11
-3392.533199
 21
1101.797809
 31
0.0
100
AcDbText
 73
     3
  0
HATCH
  5
3A6
330
31C
100
AcDbEntity
  8
Scale_Legend_Arrow
  6
Continuous
 62
   253
370
     0
100
AcDbHatch
 10
0.0
 20
0.0
 30
0.0
210
0.0
220
0.0
230
1.0
  2
SOLID
 70
     1
 71
     1
 91
        1
 92
        1
 93
        1
 72
     4
 94
        3
 73
     0
 74
     0
 95
       16
 96
       12
 40
0.0
 40
0.0
 40
0.0
 40
0.0
 40
0.1049798389279573
 40
0.2710124183686962
 40
0.3833164321055771
 40
0.4712065298127069
 40
0.5102687954603227
 40
0.5883933267555428
 40
0.703449976985407
 40
0.8694825564261487
 40
1.0
 40
1.0
 40
1.0
 40
1.0
 10
-3391.145582086251
 20
1110.530191477537
 10
-3391.427372664711
 20
1110.166378118162
 10
-3390.437583514734
 20
1107.933932756808
 10
-3393.609536573983
 20
1104.767022788423
 10
-3390.027318540952
 20
1105.42268734754
 10
-3388.586508092302
 20
1105.290148768535
 10
-3387.282416507931
 20
1105.363959082152
 10
-3385.125242677093
 20
1104.891170691124
 10
-3387.084803749802
 20
1108.165979241105
 10
-3387.663059519144
 20
1110.250877954535
 10
-3390.795242570594
 20
1110.982506799111
 10
-3391.145582086251
 20
1110.530191477537
 97
        1
330
2AC
 75
     0
 76
     1
 98
        0
  0
SPLINE
  5
2AC
102
{ACAD_REACTORS
330
3A6
102
}
330
31C
100
AcDbEntity
  8
Scale_Legend_Arrow
  6
Continuous
370
     0
100
AcDbSpline
210
0.0
220
0.0
230
1.0
 70
    11
 71
     3
 72
    16
 73
    12
 74
     0
 42
0.0000000001
 43
0.00000001
 40
0.0
 40
0.0
 40
0.0
 40
0.0
 40
0.1049798389279573
 40
0.2710124183686962
 40
0.3833164321055771
 40
0.4712065298127069
 40
0.5102687954603227
 40
0.5883933267555428
 40
0.703449976985407
 40
0.8694825564261487
 40
1.0
 40
1.0
 40
1.0
 40
1.0
 10
-3391.145582086251
 20
1110.530191477537
 30
0.0
 10
-3391.427372664711
 20
1110.166378118162
 30
0.0
 10
-3390.437583514734
 20
1107.933932756808
 30
0.0
 10
-3393.609536573983
 20
1104.767022788423
 30
0.0
 10
-3390.027318540952
 20
1105.42268734754
 30
0.0
 10
-3388.586508092302
 20
1105.290148768535
 30
0.0
 10
-3387.282416507931
 20
1105.363959082152
 30
0.0
 10
-3385.125242677093
 20
1104.891170691124
 30
0.0
 10
-3387.084803749802
 20
1108.165979241105
 30
0.0
 10
-3387.663059519144
 20
1110.250877954535
 30
0.0
 10
-3390.795242570594
 20
1110.982506799111
 30
0.0
 10
-3391.145582086251
 20
1110.530191477537
 30
0.0
  0
HATCH
  5
3A7
330
31C
100
AcDbEntity
  8
Scale_Legend_Arrow
  6
Continuous
 62
   253
370
     0
100
AcDbHatch
 10
0.0
 20
0.0
 30
0.0
210
0.0
220
0.0
230
1.0
  2
SOLID
 70
     1
 71
     1
 91
        1
 92
        1
 93
        1
 72
     4
 94
        3
 73
     0
 74
     0
 95
       17
 96
       13
 40
0.0
 40
0.0
 40
0.0
 40
0.0
 40
0.1231583386069323
 40
0.187236266663812
 40
0.2463131973089729
 40
0.305390127954138
 40
0.4478697842160013
 40
0.5577625242221821
 40
0.648980118231663
 40
0.7323828438483613
 40
0.8192606830324285
 40
1.0
 40
1.0
 40
1.0
 40
1.0
 10
-3384.765166108023
 20
1108.484561927265
 10
-3385.003707874655
 20
1108.130225369864
 10
-3384.819042187713
 20
1106.783997354913
 10
-3386.070375095679
 20
1106.440132225664
 10
-3386.112414948489
 20
1105.152460616051
 10
-3384.599150444715
 20
1105.637178190784
 10
-3383.199306468629
 20
1105.030169146433
 10
-3381.895654189518
 20
1106.280369217573
 10
-3380.901632984277
 20
1107.052623112774
 10
-3380.759155837051
 20
1108.822067786632
 10
-3382.748729285861
 20
1108.080675090489
 10
-3384.415097436612
 20
1109.004563642827
 10
-3384.765166108023
 20
1108.484561927265
 97
        1
330
2AF
 75
     0
 76
     1
 98
        0
  0
SPLINE
  5
2AF
102
{ACAD_REACTORS
330
3A7
102
}
330
31C
100
AcDbEntity
  8
Scale_Legend_Arrow
  6
Continuous
370
     0
100
AcDbSpline
210
0.0
220
0.0
230
1.0
 70
    11
 71
     3
 72
    17
 73
    13
 74
     0
 42
0.0000000001
 43
0.00000001
 40
0.0
 40
0.0
 40
0.0
 40
0.0
 40
0.1231583386069323
 40
0.187236266663812
 40
0.2463131973089729
 40
0.305390127954138
 40
0.4478697842160013
 40
0.5577625242221821
 40
0.648980118231663
 40
0.7323828438483613
 40
0.8192606830324285
 40
1.0
 40
1.0
 40
1.0
 40
1.0
 10
-3384.765166108023
 20
1108.484561927265
 30
0.0
 10
-3385.003707874655
 20
1108.130225369864
 30
0.0
 10
-3384.819042187713
 20
1106.783997354913
 30
0.0
 10
-3386.070375095679
 20
1106.440132225664
 30
0.0
 10
-3386.112414948489
 20
1105.152460616051
 30
0.0
 10
-3384.599150444715
 20
1105.637178190784
 30
0.0
 10
-3383.199306468629
 20
1105.030169146433
 30
0.0
 10
-3381.895654189518
 20
1106.280369217573
 30
0.0
 10
-3380.901632984277
 20
1107.052623112774
 30
0.0
 10
-3380.759155837051
 20
1108.822067786632
 30
0.0
 10
-3382.748729285861
 20
1108.080675090489
 30
0.0
 10
-3384.415097436612
 20
1109.004563642827
 30
0.0
 10
-3384.765166108023
 20
1108.484561927265
 30
0.0
  0
HATCH
  5
3A8
330
31C
100
AcDbEntity
  8
Scale_Legend_Arrow
  6
Continuous
 62
   253
370
     0
100
AcDbHatch
 10
0.0
 20
0.0
 30
0.0
210
0.0
220
0.0
230
1.0
  2
SOLID
 70
     1
 71
     1
 91
        1
 92
        1
 93
        1
 72
     4
 94
        3
 73
     0
 74
     0
 95
       18
 96
       14
 40
0.0
 40
0.0
 40
0.0
 40
0.0
 40
0.0788202455416961
 40
0.1702517303700607
 40
0.2270023071600822
 40
0.3373506509184515
 40
0.4440349524275657
 40
0.5197023881475918
 40
0.6071324820190045
 40
0.7036451646711103
 40
0.7785750529764581
 40
0.8290200101231472
 40
1.0
 40
1.0
 40
1.0
 40
1.0
 10
-3381.063550731341
 20
1107.023397962786
 10
-3381.090530358922
 20
1106.482055437775
 10
-3381.441058830846
 20
1105.438736264833
 10
-3379.721551261208
 20
1105.850072058115
 10
-3378.644205969368
 20
1105.827491017768
 10
-3376.179906029774
 20
1105.428408818301
 10
-3378.359410182371
 20
1106.998242919022
 10
-3377.795321520495
 20
1108.466422199687
 10
-3378.548071378317
 20
1109.406225119412
 10
-3379.658966521683
 20
1111.481699040617
 10
-3379.74508837843
 20
1109.348832558499
 10
-3381.753752317649
 20
1110.073884124246
 10
-3381.005025457549
 20
1108.197699550025
 10
-3381.063550731341
 20
1107.023397962786
 97
        1
330
2B2
 75
     0
 76
     1
 98
        0
  0
SPLINE
  5
2B2
102
{ACAD_REACTORS
330
3A8
102
}
330
31C
100
AcDbEntity
  8
Scale_Legend_Arrow
  6
Continuous
370
     0
100
AcDbSpline
210
0.0
220
0.0
230
1.0
 70
    11
 71
     3
 72
    18
 73
    14
 74
     0
 42
0.0000000001
 43
0.00000001
 40
0.0
 40
0.0
 40
0.0
 40
0.0
 40
0.0788202455416961
 40
0.1702517303700607
 40
0.2270023071600822
 40
0.3373506509184515
 40
0.4440349524275657
 40
0.5197023881475918
 40
0.6071324820190045
 40
0.7036451646711103
 40
0.7785750529764581
 40
0.8290200101231472
 40
1.0
 40
1.0
 40
1.0
 40
1.0
 10
-3381.063550731341
 20
1107.023397962786
 30
0.0
 10
-3381.090530358922
 20
1106.482055437775
 30
0.0
 10
-3381.441058830846
 20
1105.438736264833
 30
0.0
 10
-3379.721551261208
 20
1105.850072058115
 30
0.0
 10
-3378.644205969368
 20
1105.827491017768
 30
0.0
 10
-3376.179906029774
 20
1105.428408818301
 30
0.0
 10
-3378.359410182371
 20
1106.998242919022
 30
0.0
 10
-3377.795321520495
 20
1108.466422199687
 30
0.0
 10
-3378.548071378317
 20
1109.406225119412
 30
0.0
 10
-3379.658966521683
 20
1111.481699040617
 30
0.0
 10
-3379.74508837843
 20
1109.348832558499
 30
0.0
 10
-3381.753752317649
 20
1110.073884124246
 30
0.0
 10
-3381.005025457549
 20
1108.197699550025
 30
0.0
 10
-3381.063550731341
 20
1107.023397962786
 30
0.0
  0
TEXT
  5
2B5
330
31C
100
AcDbEntity
  8
Scale_Legend_Arrow
  6
DGN Style 2
 62
   250
370
    13
100
AcDbText
 10
-3375.300095
 20
1098.73009
 30
0.0
 40
3.862426
  1
= Quadrat ID
  7
Style-Garamond
 11
-3375.300095
 21
1102.592515
 31
0.0
100
AcDbText
 73
     3
  0
TEXT
  5
FD
330
31C
100
AcDbEntity
  8
Scale_Legend_Arrow
  6
DGN Style 6
 62
   250
370
    13
100
AcDbText
 10
-3375.588718
 20
1084.480013
 30
0.0
 40
3.862426
  1
= Quadrat Boundary
  7
Style-Garamond
 11
-3375.588718
 21
1088.342439
 31
0.0
100
AcDbText
 73
     3
  0
TEXT
  5
2B8
330
31C
100
AcDbEntity
  8
Scale_Legend_Arrow
  6
DGN Style 2
 62
   250
370
    13
100
AcDbText
 10
-3375.387642
 20
1114.290356
 30
0.0
 40
3.862426
  1
= Bedrock
  7
Style-Garamond
 11
-3375.387642
 21
1118.152782
 31
0.0
100
AcDbText
 73
     3
  0
LWPOLYLINE
  5
2BE
330
31C
100
AcDbEntity
  8
Quadrat IDs
100
AcDbPolyline
 90
        7
 70
   128
 43
0.0
 10
-3679.168061
 20
1091.39733
 10
-3739.168061
 20
1091.39733
 10
-3739.168061
 20
1085.39733
 10
-3679.168061
 20
1085.39733
 10
-3679.168061
 20
1091.39733
 10
-3679.168061
 20
1085.39733
 10
-3739.168061
 20
1085.39733
  0
HATCH
  5
3AA
330
31C
100
AcDbEntity
  8
Quadrat IDs
 62
   250
100
AcDbHatch
 10
0.0
 20
0.0
 30
0.0
210
0.0
220
0.0
230
1.0
  2
SOLID
 70
     1
 71
     1
 91
        1
 92
        3
 72
     0
 73
     1
 93
        4
 10
-3739.168060977759
 20
1085.397329579503
 10
-3739.168060977759
 20
1091.397329579503
 10
-3679.168060977759
 20
1091.397329579503
 10
-3679.168060977759
 20
1085.397329579503
 97
        1
330
2C3
 75
     0
 76
     1
 98
        0
  0
LWPOLYLINE
  5
2C3
102
{ACAD_REACTORS
330
3AA
102
}
330
31C
100
AcDbEntity
  8
Quadrat IDs
100
AcDbPolyline
 90
        4
 70
   129
 43
0.0
 10
-3679.168061
 20
1091.39733
 10
-3739.168061
 20
1091.39733
 10
-3739.168061
 20
1085.39733
 10
-3679.168061
 20
1085.39733
  0
HATCH
  5
3AB
330
31C
100
AcDbEntity
  8
Quadrat IDs
 62
   250
100
AcDbHatch
 10
0.0
 20
0.0
 30
0.0
210
0.0
220
0.0
230
1.0
  2
SOLID
 70
     1
 71
     1
 91
        1
 92
        3
 72
     0
 73
     1
 93
        6
 10
-3679.033845565313
 20
1079.397329579503
 10
-3679.033845565313
 20
1085.397329579503
 10
-3679.033845565313
 20
1091.397329579503
 10
-3679.033845565313
 20
1085.397329579503
 10
-3619.033845565313
 20
1085.397329579503
 10
-3619.033845565313
 20
1079.397329579503
 97
        1
330
2C7
 75
     0
 76
     1
 98
        0
  0
LWPOLYLINE
  5
2C7
102
{ACAD_REACTORS
330
3AB
102
}
330
31C
100
AcDbEntity
  8
Quadrat IDs
100
AcDbPolyline
 90
        6
 70
   129
 43
0.0
 10
-3619.033846
 20
1079.39733
 10
-3679.033846
 20
1079.39733
 10
-3679.033846
 20
1085.39733
 10
-3679.033846
 20
1091.39733
 10
-3679.033846
 20
1085.39733
 10
-3619.033846
 20
1085.39733
  0
HATCH
  5
3AC
330
31C
100
AcDbEntity
  8
Platform--conjectural
  6
Continuous
 62
    56
100
AcDbHatch
 10
0.0
 20
0.0
 30
0.0
210
0.0
220
0.0
230
1.0
  2
SOLID
 70
     1
 71
     1
 91
        1
 92
        1
 93
        1
 72
     4
 94
        3
 73
     0
 74
     0
 95
       22
 96
       18
 40
0.0
 40
0.0
 40
0.0
 40
0.0
 40
0.0765185404233662
 40
0.1394207599457978
 40
0.2218801034152715
 40
0.3196609583751244
 40
0.382347389201472
 40
0.4930859395058689
 40
0.5467463525638734
 40
0.6043642739074826
 40
0.685723503633373
 40
0.7677792580215781
 40
0.8397346035560124
 40
0.8907941647368876
 40
0.938292858131723
 40
0.9783472733343023
 40
1.0
 40
1.0
 40
1.0
 40
1.0
 10
-3542.383349723042
 20
1396.911887379554
 10
-3541.899689444178
 20
1397.872628128197
 10
-3542.786332173248
 20
1400.37202681512
 10
-3545.590730117394
 20
1401.759957588394
 10
-3547.791547605735
 20
1405.03008595777
 10
-3551.630407833099
 20
1404.238931655068
 10
-3555.647741896969
 20
1403.67040073359
 10
-3557.022218833892
 20
1400.383879480834
 10
-3558.459537783344
 20
1397.06807507744
 10
-3555.741629398854
 20
1395.205357342598
 10
-3553.243263556153
 20
1393.723219882085
 10
-3550.465016927497
 20
1391.094713637847
 10
-3547.44339062513
 20
1392.121350228859
 10
-3545.006888003821
 20
1392.834211294192
 10
-3544.018919448227
 20
1394.703157788327
 10
-3543.131669774484
 20
1395.959041201446
 10
-3542.520212812162
 20
1396.640023113562
 10
-3542.383349723042
 20
1396.911887379554
 97
        1
330
2CB
 75
     0
 76
     1
 98
        0
  0
SPLINE
  5
2CB
102
{ACAD_REACTORS
330
3AC
102
}
330
31C
100
AcDbEntity
  8
Platform--conjectural
  6
Continuous
 62
   250
100
AcDbSpline
210
0.0
220
0.0
230
1.0
 70
    11
 71
     3
 72
    22
 73
    18
 74
     0
 42
0.0000000001
 43
0.00000001
 40
0.0
 40
0.0
 40
0.0
 40
0.0
 40
0.0765185404233662
 40
0.1394207599457978
 40
0.2218801034152715
 40
0.3196609583751244
 40
0.382347389201472
 40
0.4930859395058689
 40
0.5467463525638734
 40
0.6043642739074826
 40
0.685723503633373
 40
0.7677792580215781
 40
0.8397346035560124
 40
0.8907941647368876
 40
0.938292858131723
 40
0.9783472733343023
 40
1.0
 40
1.0
 40
1.0
 40
1.0
 10
-3542.383349723042
 20
1396.911887379554
 30
0.0
 10
-3541.899689444178
 20
1397.872628128197
 30
0.0
 10
-3542.786332173248
 20
1400.37202681512
 30
0.0
 10
-3545.590730117394
 20
1401.759957588394
 30
0.0
 10
-3547.791547605735
 20
1405.03008595777
 30
0.0
 10
-3551.630407833099
 20
1404.238931655068
 30
0.0
 10
-3555.647741896969
 20
1403.67040073359
 30
0.0
 10
-3557.022218833892
 20
1400.383879480834
 30
0.0
 10
-3558.459537783344
 20
1397.06807507744
 30
0.0
 10
-3555.741629398854
 20
1395.205357342598
 30
0.0
 10
-3553.243263556153
 20
1393.723219882085
 30
0.0
 10
-3550.465016927497
 20
1391.094713637847
 30
0.0
 10
-3547.44339062513
 20
1392.121350228859
 30
0.0
 10
-3545.006888003821
 20
1392.834211294192
 30
0.0
 10
-3544.018919448227
 20
1394.703157788327
 30
0.0
 10
-3543.131669774484
 20
1395.959041201446
 30
0.0
 10
-3542.520212812162
 20
1396.640023113562
 30
0.0
 10
-3542.383349723042
 20
1396.911887379554
 30
0.0
  0
HATCH
  5
3AD
330
31C
100
AcDbEntity
  8
Scale_Legend_Arrow
  6
Continuous
 62
    56
100
AcDbHatch
 10
0.0
 20
0.0
 30
0.0
210
0.0
220
0.0
230
1.0
  2
SOLID
 70
     1
 71
     1
 91
        1
 92
        1
 93
        1
 72
     4
 94
        3
 73
     0
 74
     0
 95
       22
 96
       18
 40
0.0
 40
0.0
 40
0.0
 40
0.0
 40
0.0765185404233671
 40
0.1394207599457989
 40
0.2218801034152745
 40
0.3196609583751273
 40
0.3823473892014753
 40
0.4930859395058705
 40
0.5467463525638745
 40
0.6043642739074846
 40
0.6857235036333722
 40
0.7677792580215784
 40
0.8397346035560103
 40
0.8907941647368869
 40
0.9382928581317196
 40
0.9783472733343002
 40
1.0
 40
1.0
 40
1.0
 40
1.0
 10
-3381.784369970745
 20
1124.367453991131
 10
-3381.602997366171
 20
1124.727731771872
 10
-3381.935488389572
 20
1125.665006279468
 10
-3382.987137618628
 20
1126.185480319446
 10
-3383.812444176755
 20
1127.411778457962
 10
-3385.252016762016
 20
1127.115095594449
 10
-3386.758517035967
 20
1126.901896498895
 10
-3387.273945887314
 20
1125.669451029111
 10
-3387.812940493358
 20
1124.426024377838
 10
-3386.793724849174
 20
1123.727505227273
 10
-3385.856837658162
 20
1123.17170367958
 10
-3384.814995172416
 20
1122.186013837991
 10
-3383.681885309028
 20
1122.571002559621
 10
-3382.768196826037
 20
1122.83832545912
 10
-3382.39770861769
 20
1123.539180394421
 10
-3382.064989990035
 20
1124.01013667434
 10
-3381.835693629165
 20
1124.265504891384
 10
-3381.784369970745
 20
1124.367453991131
 97
        1
330
2CF
 75
     0
 76
     1
 98
        0
  0
SPLINE
  5
2CF
102
{ACAD_REACTORS
330
3AD
102
}
330
31C
100
AcDbEntity
  8
Scale_Legend_Arrow
  6
Continuous
 62
   250
100
AcDbSpline
210
0.0
220
0.0
230
1.0
 70
    11
 71
     3
 72
    22
 73
    18
 74
     0
 42
0.0000000001
 43
0.00000001
 40
0.0
 40
0.0
 40
0.0
 40
0.0
 40
0.0765185404233671
 40
0.1394207599457989
 40
0.2218801034152745
 40
0.3196609583751273
 40
0.3823473892014753
 40
0.4930859395058705
 40
0.5467463525638745
 40
0.6043642739074846
 40
0.6857235036333722
 40
0.7677792580215784
 40
0.8397346035560103
 40
0.8907941647368869
 40
0.9382928581317196
 40
0.9783472733343002
 40
1.0
 40
1.0
 40
1.0
 40
1.0
 10
-3381.784369970745
 20
1124.367453991131
 30
0.0
 10
-3381.602997366171
 20
1124.727731771872
 30
0.0
 10
-3381.935488389572
 20
1125.665006279468
 30
0.0
 10
-3382.987137618628
 20
1126.185480319446
 30
0.0
 10
-3383.812444176755
 20
1127.411778457962
 30
0.0
 10
-3385.252016762016
 20
1127.115095594449
 30
0.0
 10
-3386.758517035967
 20
1126.901896498895
 30
0.0
 10
-3387.273945887314
 20
1125.669451029111
 30
0.0
 10
-3387.812940493358
 20
1124.426024377838
 30
0.0
 10
-3386.793724849174
 20
1123.727505227273
 30
0.0
 10
-3385.856837658162
 20
1123.17170367958
 30
0.0
 10
-3384.814995172416
 20
1122.186013837991
 30
0.0
 10
-3383.681885309028
 20
1122.571002559621
 30
0.0
 10
-3382.768196826037
 20
1122.83832545912
 30
0.0
 10
-3382.39770861769
 20
1123.539180394421
 30
0.0
 10
-3382.064989990035
 20
1124.01013667434
 30
0.0
 10
-3381.835693629165
 20
1124.265504891384
 30
0.0
 10
-3381.784369970745
 20
1124.367453991131
 30
0.0
  0
TEXT
  5
2D2
330
31C
100
AcDbEntity
  8
Scale_Legend_Arrow
  6
DGN Style 2
 62
   250
370
    13
100
AcDbText
 10
-3375.387642
 20
1122.708752
 30
0.0
 40
3.862426
  1
= Intact Plaster
  7
Style-Garamond
 11
-3375.387642
 21
1126.571178
 31
0.0
100
AcDbText
 73
     3
  0
LWPOLYLINE
  5
2D5
330
31C
100
AcDbEntity
  8
Scale_Legend_Arrow
  6
Continuous
 62
   250
370
    13
100
AcDbPolyline
 90
        4
 70
   129
 43
0.0
 10
-3397.251499
 20
1139.706219
 10
-3314.30662
 20
1139.706219
 10
-3314.30662
 20
1078.951171
 10
-3397.251499
 20
1078.951171
  0
TEXT
  5
2B6
330
31C
100
AcDbEntity
  8
Scale_Legend_Arrow
  6
DGN Style 2
 62
   250
370
    13
100
AcDbText
 10
-3375.11406
 20
1106.463461
 30
0.0
 40
3.862426
  1
= Foundation Stone
  7
Style-Garamond
 11
-3375.11406
 21
1110.325886
 31
0.0
100
AcDbText
 73
     3
  0
LWPOLYLINE
  5
BD
330
31C
100
AcDbEntity
  8
Quadrat Outlines
100
AcDbPolyline
 90
        4
 70
   129
 43
0.0
 10
-3479.998156
 20
1139.985386
 10
-3419.998156
 20
1139.985386
 10
-3419.998156
 20
1079.985386
 10
-3479.998156
 20
1079.985386
  0
HATCH
  5
3AE
330
31C
100
AcDbEntity
  8
Bedrock
  6
Continuous
 62
    46
370
     0
100
AcDbHatch
 10
0.0
 20
0.0
 30
0.0
210
0.0
220
0.0
230
1.0
  2
SOLID
 70
     1
 71
     1
 91
        1
 92
        1
 93
        1
 72
     4
 94
        3
 73
     0
 74
     0
 95
       14
 96
       10
 40
0.0
 40
0.0
 40
0.0
 40
0.0
 40
0.1554286683965839
 40
0.3289751518221726
 40
0.4841998455004308
 40
0.6633052612830508
 40
0.730644616264285
 40
0.7923364817005163
 40
1.0
 40
1.0
 40
1.0
 40
1.0
 10
-3386.520259419336
 20
1117.624439134906
 10
-3386.065402090075
 20
1117.754168304443
 10
-3385.630757620881
 20
1119.296382873038
 10
-3382.599036306791
 20
1120.821171006222
 10
-3385.995314656385
 20
1120.313145925888
 10
-3387.294159418534
 20
1120.812660400371
 10
-3388.627088742771
 20
1120.12371582248
 10
-3388.493938777167
 20
1118.613003112391
 10
-3387.127980467797
 20
1117.451111935682
 10
-3386.520259419336
 20
1117.624439134906
 97
        1
330
2E0
 75
     0
 76
     1
 98
        0
  0
SPLINE
  5
2E0
102
{ACAD_REACTORS
330
3AE
102
}
330
31C
100
AcDbEntity
  8
Bedrock
  6
Continuous
370
     0
100
AcDbSpline
210
0.0
220
0.0
230
1.0
 70
    11
 71
     3
 72
    14
 73
    10
 74
     0
 42
0.0000000001
 43
0.00000001
 40
0.0
 40
0.0
 40
0.0
 40
0.0
 40
0.1554286683965839
 40
0.3289751518221726
 40
0.4841998455004308
 40
0.6633052612830508
 40
0.730644616264285
 40
0.7923364817005163
 40
1.0
 40
1.0
 40
1.0
 40
1.0
 10
-3386.520259419336
 20
1117.624439134906
 30
0.0
 10
-3386.065402090075
 20
1117.754168304443
 30
0.0
 10
-3385.630757620881
 20
1119.296382873038
 30
0.0
 10
-3382.599036306791
 20
1120.821171006222
 30
0.0
 10
-3385.995314656385
 20
1120.313145925888
 30
0.0
 10
-3387.294159418534
 20
1120.812660400371
 30
0.0
 10
-3388.627088742771
 20
1120.12371582248
 30
0.0
 10
-3388.493938777167
 20
1118.613003112391
 30
0.0
 10
-3387.127980467797
 20
1117.451111935682
 30
0.0
 10
-3386.520259419336
 20
1117.624439134906
 30
0.0
  0
HATCH
  5
3AF
330
31C
100
AcDbEntity
  8
Bedrock
  6
Continuous
 62
    46
370
     0
100
AcDbHatch
 10
0.0
 20
0.0
 30
0.0
210
0.0
220
0.0
230
1.0
  2
SOLID
 70
     1
 71
     1
 91
        1
 92
        1
 93
        1
 72
     4
 94
        3
 73
     0
 74
     0
 95
       17
 96
       13
 40
0.0
 40
0.0
 40
0.0
 40
0.0
 40
0.1506745393289128
 40
0.2653619476903887
 40
0.3395970143042197
 40
0.3932397248860813
 40
0.5073059375708477
 40
0.5809102274671111
 40
0.7041548585656196
 40
0.7535076279572998
 40
0.8601391484295979
 40
1.0
 40
1.0
 40
1.0
 40
1.0
 10
-3386.360575619658
 20
1116.58035275239
 10
-3386.204127201231
 20
1116.801638379375
 10
-3386.830469381354
 20
1117.863996944249
 10
-3387.770032009602
 20
1117.895807090709
 10
-3388.1905024553
 20
1118.500513380656
 10
-3388.962845242596
 20
1118.51740578149
 10
-3389.188984952157
 20
1117.609360063943
 10
-3388.689853019873
 20
1116.914405888377
 10
-3388.831257602157
 20
1116.119215682794
 10
-3388.033045842979
 20
1115.644936597169
 10
-3387.539352233576
 20
1116.592908628265
 10
-3386.505795967604
 20
1116.374948465984
 10
-3386.360575619658
 20
1116.58035275239
 97
        1
330
2E3
 75
     0
 76
     1
 98
        0
  0
SPLINE
  5
2E3
102
{ACAD_REACTORS
330
3AF
102
}
330
31C
100
AcDbEntity
  8
Bedrock
  6
Continuous
370
     0
100
AcDbSpline
210
0.0
220
0.0
230
1.0
 70
    11
 71
     3
 72
    17
 73
    13
 74
     0
 42
0.0000000001
 43
0.00000001
 40
0.0
 40
0.0
 40
0.0
 40
0.0
 40
0.1506745393289128
 40
0.2653619476903887
 40
0.3395970143042197
 40
0.3932397248860813
 40
0.5073059375708477
 40
0.5809102274671111
 40
0.7041548585656196
 40
0.7535076279572998
 40
0.8601391484295979
 40
1.0
 40
1.0
 40
1.0
 40
1.0
 10
-3386.360575619658
 20
1116.58035275239
 30
0.0
 10
-3386.204127201231
 20
1116.801638379375
 30
0.0
 10
-3386.830469381354
 20
1117.863996944249
 30
0.0
 10
-3387.770032009602
 20
1117.895807090709
 30
0.0
 10
-3388.1905024553
 20
1118.500513380656
 30
0.0
 10
-3388.962845242596
 20
1118.51740578149
 30
0.0
 10
-3389.188984952157
 20
1117.609360063943
 30
0.0
 10
-3388.689853019873
 20
1116.914405888377
 30
0.0
 10
-3388.831257602157
 20
1116.119215682794
 30
0.0
 10
-3388.033045842979
 20
1115.644936597169
 30
0.0
 10
-3387.539352233576
 20
1116.592908628265
 30
0.0
 10
-3386.505795967604
 20
1116.374948465984
 30
0.0
 10
-3386.360575619658
 20
1116.58035275239
 30
0.0
  0
HATCH
  5
3B0
330
31C
100
AcDbEntity
  8
Bedrock
  6
Continuous
 62
    46
370
     0
100
AcDbHatch
 10
0.0
 20
0.0
 30
0.0
210
0.0
220
0.0
230
1.0
  2
SOLID
 70
     1
 71
     1
 91
        1
 92
        1
 93
        1
 72
     4
 94
        3
 73
     0
 74
     0
 95
       15
 96
       11
 40
0.0
 40
0.0
 40
0.0
 40
0.0
 40
0.2260523543365155
 40
0.2864517888153051
 40
0.3282667819160059
 40
0.4206323696176195
 40
0.4932069332426778
 40
0.6478680617781432
 40
0.8388678441172217
 40
1.0
 40
1.0
 40
1.0
 40
1.0
 10
-3386.643093111397
 20
1111.998656038528
 10
-3385.093389493012
 20
1112.018706173111
 10
-3383.366068261786
 20
1112.984289538284
 10
-3383.649371004463
 20
1114.730500274793
 10
-3383.443342930817
 20
1115.869357107415
 10
-3384.810281301041
 20
1116.099080238803
 10
-3386.054901779482
 20
1117.850002974843
 10
-3386.777066293928
 20
1114.43359240664
 10
-3390.368968847044
 20
1112.776958496736
 10
-3387.74773582013
 20
1111.984364121859
 10
-3386.643093111397
 20
1111.998656038528
 97
        1
330
2E6
 75
     0
 76
     1
 98
        0
  0
SPLINE
  5
2E6
102
{ACAD_REACTORS
330
3B0
102
}
330
31C
100
AcDbEntity
  8
Bedrock
  6
Continuous
370
     0
100
AcDbSpline
210
0.0
220
0.0
230
1.0
 70
    11
 71
     3
 72
    15
 73
    11
 74
     0
 42
0.0000000001
 43
0.00000001
 40
0.0
 40
0.0
 40
0.0
 40
0.0
 40
0.2260523543365155
 40
0.2864517888153051
 40
0.3282667819160059
 40
0.4206323696176195
 40
0.4932069332426778
 40
0.6478680617781432
 40
0.8388678441172217
 40
1.0
 40
1.0
 40
1.0
 40
1.0
 10
-3386.643093111397
 20
1111.998656038528
 30
0.0
 10
-3385.093389493012
 20
1112.018706173111
 30
0.0
 10
-3383.366068261786
 20
1112.984289538284
 30
0.0
 10
-3383.649371004463
 20
1114.730500274793
 30
0.0
 10
-3383.443342930817
 20
1115.869357107415
 30
0.0
 10
-3384.810281301041
 20
1116.099080238803
 30
0.0
 10
-3386.054901779482
 20
1117.850002974843
 30
0.0
 10
-3386.777066293928
 20
1114.43359240664
 30
0.0
 10
-3390.368968847044
 20
1112.776958496736
 30
0.0
 10
-3387.74773582013
 20
1111.984364121859
 30
0.0
 10
-3386.643093111397
 20
1111.998656038528
 30
0.0
  0
HATCH
  5
3B1
330
31C
100
AcDbEntity
  8
Bedrock
  6
Continuous
 62
    46
370
     0
100
AcDbHatch
 10
0.0
 20
0.0
 30
0.0
210
0.0
220
0.0
230
1.0
  2
SOLID
 70
     1
 71
     1
 91
        1
 92
        1
 93
        1
 72
     4
 94
        3
 73
     0
 74
     0
 95
       14
 96
       10
 40
0.0
 40
0.0
 40
0.0
 40
0.0
 40
0.250274061566289
 40
0.3534036620066489
 40
0.4639808766591649
 40
0.5011402744323923
 40
0.6564598568477834
 40
0.8144194597090322
 40
1.0
 40
1.0
 40
1.0
 40
1.0
 10
-3384.296969593039
 20
1116.297835260651
 10
-3383.457270704987
 20
1116.198493119824
 10
-3382.146787439253
 20
1117.259793328106
 10
-3382.756553083606
 20
1118.708207875003
 10
-3383.346511573957
 20
1119.160836367267
 10
-3384.073668590176
 20
1119.848699323785
 10
-3385.070733726064
 20
1118.696974544248
 10
-3385.98229397475
 20
1117.373974798884
 10
-3384.919614114613
 20
1116.371498380404
 10
-3384.296969593039
 20
1116.297835260651
 97
        1
330
2E9
 75
     0
 76
     1
 98
        0
  0
SPLINE
  5
2E9
102
{ACAD_REACTORS
330
3B1
102
}
330
31C
100
AcDbEntity
  8
Bedrock
  6
Continuous
370
     0
100
AcDbSpline
210
0.0
220
0.0
230
1.0
 70
    11
 71
     3
 72
    14
 73
    10
 74
     0
 42
0.0000000001
 43
0.00000001
 40
0.0
 40
0.0
 40
0.0
 40
0.0
 40
0.250274061566289
 40
0.3534036620066489
 40
0.4639808766591649
 40
0.5011402744323923
 40
0.6564598568477834
 40
0.8144194597090322
 40
1.0
 40
1.0
 40
1.0
 40
1.0
 10
-3384.296969593039
 20
1116.297835260651
 30
0.0
 10
-3383.457270704987
 20
1116.198493119824
 30
0.0
 10
-3382.146787439253
 20
1117.259793328106
 30
0.0
 10
-3382.756553083606
 20
1118.708207875003
 30
0.0
 10
-3383.346511573957
 20
1119.160836367267
 30
0.0
 10
-3384.073668590176
 20
1119.848699323785
 30
0.0
 10
-3385.070733726064
 20
1118.696974544248
 30
0.0
 10
-3385.98229397475
 20
1117.373974798884
 30
0.0
 10
-3384.919614114613
 20
1116.371498380404
 30
0.0
 10
-3384.296969593039
 20
1116.297835260651
 30
0.0
  0
HATCH
  5
3B2
330
31C
100
AcDbEntity
  8
Bedrock
  6
Continuous
 62
    46
370
     0
100
AcDbHatch
 10
0.0
 20
0.0
 30
0.0
210
0.0
220
0.0
230
1.0
  2
SOLID
 70
     1
 71
     1
 91
        1
 92
        1
 93
        1
 72
     4
 94
        3
 73
     0
 74
     0
 95
       16
 96
       12
 40
0.0
 40
0.0
 40
0.0
 40
0.0
 40
0.1715979956844372
 40
0.3319974541265707
 40
0.4830983932387139
 40
0.6228277911455261
 40
0.6985122551365682
 40
0.7914974484363554
 40
0.845014446154887
 40
0.9255755318824755
 40
1.0
 40
1.0
 40
1.0
 40
1.0
 10
-3379.002837465225
 20
1115.241465508929
 10
-3378.753696947561
 20
1115.630437501711
 10
-3380.122834537596
 20
1117.136683236363
 10
-3381.516987216258
 20
1116.757435068606
 10
-3383.969134013772
 20
1116.21381811936
 10
-3382.21373377858
 20
1115.310913448108
 10
-3381.7217931064
 20
1114.182987661793
 10
-3380.75666687791
 20
1114.738186842465
 10
-3380.109500306683
 20
1113.837879014309
 10
-3379.710718082315
 20
1114.874045951256
 10
-3379.110893217506
 20
1115.072762876011
 10
-3379.002837465225
 20
1115.241465508929
 97
        1
330
2EC
 75
     0
 76
     1
 98
        0
  0
SPLINE
  5
2EC
102
{ACAD_REACTORS
330
3B2
102
}
330
31C
100
AcDbEntity
  8
Bedrock
  6
Continuous
370
     0
100
AcDbSpline
210
0.0
220
0.0
230
1.0
 70
    11
 71
     3
 72
    16
 73
    12
 74
     0
 42
0.0000000001
 43
0.00000001
 40
0.0
 40
0.0
 40
0.0
 40
0.0
 40
0.1715979956844372
 40
0.3319974541265707
 40
0.4830983932387139
 40
0.6228277911455261
 40
0.6985122551365682
 40
0.7914974484363554
 40
0.845014446154887
 40
0.9255755318824755
 40
1.0
 40
1.0
 40
1.0
 40
1.0
 10
-3379.002837465225
 20
1115.241465508929
 30
0.0
 10
-3378.753696947561
 20
1115.630437501711
 30
0.0
 10
-3380.122834537596
 20
1117.136683236363
 30
0.0
 10
-3381.516987216258
 20
1116.757435068606
 30
0.0
 10
-3383.969134013772
 20
1116.21381811936
 30
0.0
 10
-3382.21373377858
 20
1115.310913448108
 30
0.0
 10
-3381.7217931064
 20
1114.182987661793
 30
0.0
 10
-3380.75666687791
 20
1114.738186842465
 30
0.0
 10
-3380.109500306683
 20
1113.837879014309
 30
0.0
 10
-3379.710718082315
 20
1114.874045951256
 30
0.0
 10
-3379.110893217506
 20
1115.072762876011
 30
0.0
 10
-3379.002837465225
 20
1115.241465508929
 30
0.0
  0
HATCH
  5
3B3
330
31C
100
AcDbEntity
  8
Bedrock
  6
Continuous
 62
    46
370
     0
100
AcDbHatch
 10
0.0
 20
0.0
 30
0.0
210
0.0
220
0.0
230
1.0
  2
SOLID
 70
     1
 71
     1
 91
        1
 92
        1
 93
        1
 72
     4
 94
        3
 73
     0
 74
     0
 95
       12
 96
        8
 40
0.0
 40
0.0
 40
0.0
 40
0.0
 40
0.2668520640487229
 40
0.4319271084163655
 40
0.5671492500315086
 40
0.7559228898478324
 40
1.0
 40
1.0
 40
1.0
 40
1.0
 10
-3379.64627590136
 20
1117.688506602712
 10
-3379.46989010789
 20
1117.66250300375
 10
-3379.158765036849
 20
1118.133534409244
 10
-3379.246372014006
 20
1118.710321159665
 10
-3379.768409524092
 20
1118.682395350946
 10
-3380.070226788919
 20
1118.224801636171
 10
-3379.807607742264
 20
1117.712290879258
 10
-3379.64627590136
 20
1117.688506602712
 97
        1
330
2EF
 75
     0
 76
     1
 98
        0
  0
SPLINE
  5
2EF
102
{ACAD_REACTORS
330
3B3
102
}
330
31C
100
AcDbEntity
  8
Bedrock
  6
Continuous
370
     0
100
AcDbSpline
210
0.0
220
0.0
230
1.0
 70
    11
 71
     3
 72
    12
 73
     8
 74
     0
 42
0.0000000001
 43
0.00000001
 40
0.0
 40
0.0
 40
0.0
 40
0.0
 40
0.2668520640487229
 40
0.4319271084163655
 40
0.5671492500315086
 40
0.7559228898478324
 40
1.0
 40
1.0
 40
1.0
 40
1.0
 10
-3379.64627590136
 20
1117.688506602712
 30
0.0
 10
-3379.46989010789
 20
1117.66250300375
 30
0.0
 10
-3379.158765036849
 20
1118.133534409244
 30
0.0
 10
-3379.246372014006
 20
1118.710321159665
 30
0.0
 10
-3379.768409524092
 20
1118.682395350946
 30
0.0
 10
-3380.070226788919
 20
1118.224801636171
 30
0.0
 10
-3379.807607742264
 20
1117.712290879258
 30
0.0
 10
-3379.64627590136
 20
1117.688506602712
 30
0.0
  0
HATCH
  5
3B4
330
31C
100
AcDbEntity
  8
Bedrock
  6
Continuous
 62
    46
370
     0
100
AcDbHatch
 10
0.0
 20
0.0
 30
0.0
210
0.0
220
0.0
230
1.0
  2
SOLID
 70
     1
 71
     1
 91
        1
 92
        1
 93
        1
 72
     4
 94
        3
 73
     0
 74
     0
 95
       12
 96
        8
 40
0.0
 40
0.0
 40
0.0
 40
0.0
 40
0.3122495756154927
 40
0.4631594453752737
 40
0.6331096480265898
 40
0.7656469280772469
 40
1.0
 40
1.0
 40
1.0
 40
1.0
 10
-3378.766786666206
 20
1117.248761985135
 10
-3378.623548706106
 20
1117.300585609925
 10
-3378.613199663179
 20
1117.87961042178
 10
-3379.071808383735
 20
1118.116202756389
 10
-3379.35098831353
 20
1117.779712943487
 10
-3379.162758550446
 20
1117.447521141548
 10
-3378.874291234944
 20
1117.209866733977
 10
-3378.766786666206
 20
1117.248761985135
 97
        1
330
2F2
 75
     0
 76
     1
 98
        0
  0
SPLINE
  5
2F2
102
{ACAD_REACTORS
330
3B4
102
}
330
31C
100
AcDbEntity
  8
Bedrock
  6
Continuous
370
     0
100
AcDbSpline
210
0.0
220
0.0
230
1.0
 70
    11
 71
     3
 72
    12
 73
     8
 74
     0
 42
0.0000000001
 43
0.00000001
 40
0.0
 40
0.0
 40
0.0
 40
0.0
 40
0.3122495756154927
 40
0.4631594453752737
 40
0.6331096480265898
 40
0.7656469280772469
 40
1.0
 40
1.0
 40
1.0
 40
1.0
 10
-3378.766786666206
 20
1117.248761985135
 30
0.0
 10
-3378.623548706106
 20
1117.300585609925
 30
0.0
 10
-3378.613199663179
 20
1117.87961042178
 30
0.0
 10
-3379.071808383735
 20
1118.116202756389
 30
0.0
 10
-3379.35098831353
 20
1117.779712943487
 30
0.0
 10
-3379.162758550446
 20
1117.447521141548
 30
0.0
 10
-3378.874291234944
 20
1117.209866733977
 30
0.0
 10
-3378.766786666206
 20
1117.248761985135
 30
0.0
  0
HATCH
  5
3B5
330
31C
100
AcDbEntity
  8
Bedrock
  6
Continuous
 62
    46
370
     0
100
AcDbHatch
 10
0.0
 20
0.0
 30
0.0
210
0.0
220
0.0
230
1.0
  2
SOLID
 70
     1
 71
     1
 91
        1
 92
        1
 93
        1
 72
     4
 94
        3
 73
     0
 74
     0
 95
       12
 96
        8
 40
0.0
 40
0.0
 40
0.0
 40
0.0
 40
0.2240564161890469
 40
0.3881540731162643
 40
0.572838095268666
 40
0.753570471329191
 40
1.0
 40
1.0
 40
1.0
 40
1.0
 10
-3378.963514521437
 20
1118.1224651069
 10
-3378.838402069722
 20
1118.031857099648
 10
-3378.470432095427
 20
1118.028780371467
 10
-3378.543518763734
 20
1118.441289354163
 10
-3378.692064279974
 20
1118.801189256416
 10
-3379.156604416311
 20
1118.581132998134
 10
-3379.101120054148
 20
1118.222120760154
 10
-3378.963514521437
 20
1118.1224651069
 97
        1
330
2F5
 75
     0
 76
     1
 98
        0
  0
SPLINE
  5
2F5
102
{ACAD_REACTORS
330
3B5
102
}
330
31C
100
AcDbEntity
  8
Bedrock
  6
Continuous
370
     0
100
AcDbSpline
210
0.0
220
0.0
230
1.0
 70
    11
 71
     3
 72
    12
 73
     8
 74
     0
 42
0.0000000001
 43
0.00000001
 40
0.0
 40
0.0
 40
0.0
 40
0.0
 40
0.2240564161890469
 40
0.3881540731162643
 40
0.572838095268666
 40
0.753570471329191
 40
1.0
 40
1.0
 40
1.0
 40
1.0
 10
-3378.963514521437
 20
1118.1224651069
 30
0.0
 10
-3378.838402069722
 20
1118.031857099648
 30
0.0
 10
-3378.470432095427
 20
1118.028780371467
 30
0.0
 10
-3378.543518763734
 20
1118.441289354163
 30
0.0
 10
-3378.692064279974
 20
1118.801189256416
 30
0.0
 10
-3379.156604416311
 20
1118.581132998134
 30
0.0
 10
-3379.101120054148
 20
1118.222120760154
 30
0.0
 10
-3378.963514521437
 20
1118.1224651069
 30
0.0
  0
HATCH
  5
3B6
330
31C
100
AcDbEntity
  8
Bedrock
  6
Continuous
 62
    46
370
     0
100
AcDbHatch
 10
0.0
 20
0.0
 30
0.0
210
0.0
220
0.0
230
1.0
  2
SOLID
 70
     1
 71
     1
 91
        1
 92
        1
 93
        1
 72
     4
 94
        3
 73
     0
 74
     0
 95
       11
 96
        7
 40
0.0
 40
0.0
 40
0.0
 40
0.0
 40
0.3909515992404897
 40
0.6513401461625329
 40
0.8047201199286816
 40
1.0
 40
1.0
 40
1.0
 40
1.0
 10
-3379.663634241528
 20
1117.399200933253
 10
-3379.819214663955
 20
1117.226446512918
 10
-3379.379670478423
 20
1116.342828847084
 10
-3379.06092401233
 20
1117.119930383452
 10
-3379.260340857787
 20
1117.480252540608
 10
-3379.585921997116
 20
1117.485491570126
 10
-3379.663634241528
 20
1117.399200933253
 97
        1
330
2F8
 75
     0
 76
     1
 98
        0
  0
SPLINE
  5
2F8
102
{ACAD_REACTORS
330
3B6
102
}
330
31C
100
AcDbEntity
  8
Bedrock
  6
Continuous
370
     0
100
AcDbSpline
210
0.0
220
0.0
230
1.0
 70
    11
 71
     3
 72
    11
 73
     7
 74
     0
 42
0.0000000001
 43
0.00000001
 40
0.0
 40
0.0
 40
0.0
 40
0.0
 40
0.3909515992404897
 40
0.6513401461625329
 40
0.8047201199286816
 40
1.0
 40
1.0
 40
1.0
 40
1.0
 10
-3379.663634241528
 20
1117.399200933253
 30
0.0
 10
-3379.819214663955
 20
1117.226446512918
 30
0.0
 10
-3379.379670478423
 20
1116.342828847084
 30
0.0
 10
-3379.06092401233
 20
1117.119930383452
 30
0.0
 10
-3379.260340857787
 20
1117.480252540608
 30
0.0
 10
-3379.585921997116
 20
1117.485491570126
 30
0.0
 10
-3379.663634241528
 20
1117.399200933253
 30
0.0
  0
HATCH
  5
3B7
330
31C
100
AcDbEntity
  8
Bedrock
  6
Continuous
 62
    46
370
     0
100
AcDbHatch
 10
0.0
 20
0.0
 30
0.0
210
0.0
220
0.0
230
1.0
  2
SOLID
 70
     1
 71
     1
 91
        1
 92
        1
 93
        1
 72
     4
 94
        3
 73
     0
 74
     0
 95
       14
 96
       10
 40
0.0
 40
0.0
 40
0.0
 40
0.0
 40
0.1404056190197304
 40
0.3386833686155572
 40
0.5051380704448768
 40
0.6831170241318607
 40
0.8263354467289372
 40
0.9385686871807295
 40
1.0
 40
1.0
 40
1.0
 40
1.0
 10
-3379.862673309649
 20
1118.349157918063
 10
-3379.645545752961
 20
1118.413327965218
 10
-3379.822167296131
 20
1119.527128624359
 10
-3380.699028994162
 20
1120.185712535757
 10
-3381.97596802819
 20
1119.724806454384
 10
-3382.018496056548
 20
1118.358310992598
 10
-3380.935881275109
 20
1118.071469231471
 10
-3380.383359954603
 20
1118.456863695683
 10
-3379.957672576415
 20
1118.321081760799
 10
-3379.862673309649
 20
1118.349157918063
 97
        1
330
2FB
 75
     0
 76
     1
 98
        0
  0
SPLINE
  5
2FB
102
{ACAD_REACTORS
330
3B7
102
}
330
31C
100
AcDbEntity
  8
Bedrock
  6
Continuous
370
     0
100
AcDbSpline
210
0.0
220
0.0
230
1.0
 70
    11
 71
     3
 72
    14
 73
    10
 74
     0
 42
0.0000000001
 43
0.00000001
 40
0.0
 40
0.0
 40
0.0
 40
0.0
 40
0.1404056190197304
 40
0.3386833686155572
 40
0.5051380704448768
 40
0.6831170241318607
 40
0.8263354467289372
 40
0.9385686871807295
 40
1.0
 40
1.0
 40
1.0
 40
1.0
 10
-3379.862673309649
 20
1118.349157918063
 30
0.0
 10
-3379.645545752961
 20
1118.413327965218
 30
0.0
 10
-3379.822167296131
 20
1119.527128624359
 30
0.0
 10
-3380.699028994162
 20
1120.185712535757
 30
0.0
 10
-3381.97596802819
 20
1119.724806454384
 30
0.0
 10
-3382.018496056548
 20
1118.358310992598
 30
0.0
 10
-3380.935881275109
 20
1118.071469231471
 30
0.0
 10
-3380.383359954603
 20
1118.456863695683
 30
0.0
 10
-3379.957672576415
 20
1118.321081760799
 30
0.0
 10
-3379.862673309649
 20
1118.349157918063
 30
0.0
  0
HATCH
  5
3B8
330
31C
100
AcDbEntity
  8
Bedrock
  6
Continuous
 62
    46
370
     0
100
AcDbHatch
 10
0.0
 20
0.0
 30
0.0
210
0.0
220
0.0
230
1.0
  2
SOLID
 70
     1
 71
     1
 91
        1
 92
        1
 93
        1
 72
     4
 94
        3
 73
     0
 74
     0
 95
       13
 96
        9
 40
0.0
 40
0.0
 40
0.0
 40
0.0
 40
0.2434300403288091
 40
0.4155610725898263
 40
0.4933057582031385
 40
0.7069413134211012
 40
0.8341760756425131
 40
1.0
 40
1.0
 40
1.0
 40
1.0
 10
-3382.589581273396
 20
1118.803642578688
 10
-3382.242907561947
 20
1118.803382590627
 10
-3381.849212140734
 20
1119.850875586293
 10
-3382.009624701353
 20
1120.971640315697
 10
-3382.962983534936
 20
1120.922443415244
 10
-3383.664254650147
 20
1120.216732703404
 10
-3383.338256948124
 20
1119.307549653507
 10
-3382.825734523941
 20
1118.803819681894
 10
-3382.589581273396
 20
1118.803642578688
 97
        1
330
2FE
 75
     0
 76
     1
 98
        0
  0
SPLINE
  5
2FE
102
{ACAD_REACTORS
330
3B8
102
}
330
31C
100
AcDbEntity
  8
Bedrock
  6
Continuous
370
     0
100
AcDbSpline
210
0.0
220
0.0
230
1.0
 70
    11
 71
     3
 72
    13
 73
     9
 74
     0
 42
0.0000000001
 43
0.00000001
 40
0.0
 40
0.0
 40
0.0
 40
0.0
 40
0.2434300403288091
 40
0.4155610725898263
 40
0.4933057582031385
 40
0.7069413134211012
 40
0.8341760756425131
 40
1.0
 40
1.0
 40
1.0
 40
1.0
 10
-3382.589581273396
 20
1118.803642578688
 30
0.0
 10
-3382.242907561947
 20
1118.803382590627
 30
0.0
 10
-3381.849212140734
 20
1119.850875586293
 30
0.0
 10
-3382.009624701353
 20
1120.971640315697
 30
0.0
 10
-3382.962983534936
 20
1120.922443415244
 30
0.0
 10
-3383.664254650147
 20
1120.216732703404
 30
0.0
 10
-3383.338256948124
 20
1119.307549653507
 30
0.0
 10
-3382.825734523941
 20
1118.803819681894
 30
0.0
 10
-3382.589581273396
 20
1118.803642578688
 30
0.0
  0
TEXT
  5
302
330
31C
100
AcDbEntity
  8
Feature Numbers
  6
Continuous
 62
   250
370
    13
100
AcDbText
 10
-3630.028504
 20
1381.367888
 30
0.0
 40
9.6
  1
F02
  7
Style-Garamond
 11
-3630.028504
 21
1390.967888
 31
0.0
100
AcDbText
 73
     3
  0
TEXT
  5
303
330
31C
100
AcDbEntity
  8
Feature Numbers
  6
Continuous
 62
   250
370
    13
100
AcDbText
 10
-3587.255234
 20
1117.863421
 30
0.0
 40
9.6
  1
F03
  7
Style-Garamond
 11
-3587.255234
 21
1127.463421
 31
0.0
100
AcDbText
 73
     3
  0
TEXT
  5
304
330
31C
100
AcDbEntity
  8
Feature Numbers
  6
Continuous
 62
   250
370
    13
100
AcDbText
 10
-3561.380046
 20
1066.113045
 30
0.0
 40
9.6
  1
F01
  7
Style-Garamond
 11
-3561.380046
 21
1075.713045
 31
0.0
100
AcDbText
 73
     3
  0
TEXT
  5
306
330
31C
100
AcDbEntity
  8
Feature Numbers
  6
Continuous
 62
   250
370
    13
100
AcDbText
 10
-3523.887426
 20
1343.875269
 30
0.0
 40
9.6
  1
F04
  7
Style-Garamond
 11
-3523.887426
 21
1353.475269
 31
0.0
100
AcDbText
 73
     3
  0
TEXT
  5
307
330
31C
100
AcDbEntity
  8
Feature Numbers
  6
Continuous
 62
   250
370
    13
100
AcDbText
 10
-3515.438385
 20
1164.333147
 30
0.0
 40
9.6
  1
F05
  7
Style-Garamond
 11
-3515.438385
 21
1173.933147
 31
0.0
100
AcDbText
 73
     3
  0
TEXT
  5
2D4
330
31C
100
AcDbEntity
  8
Scale_Legend_Arrow
  6
DGN Style 2
 62
   250
370
    13
100
AcDbText
 10
-3375.387642
 20
1130.896444
 30
0.0
 40
3.862426
  1
= Raised Plaster Platform
  7
Style-Garamond
 11
-3375.387642
 21
1134.75887
 31
0.0
100
AcDbText
 73
     3
  0
LWPOLYLINE
  5
308
330
31C
100
AcDbEntity
  8
Quadrat Outlines
100
AcDbPolyline
 90
        4
 70
   129
 43
0.0
 10
-3479.998156
 20
1319.985386
 10
-3419.998156
 20
1319.985386
 10
-3419.998156
 20
1259.985386
 10
-3479.998156
 20
1259.985386
  0
LWPOLYLINE
  5
309
330
31C
100
AcDbEntity
  8
Quadrat Outlines
100
AcDbPolyline
 90
        4
 70
   128
 43
0.0
 10
-3419.998156
 20
1259.985386
 10
-3419.998156
 20
1199.985386
 10
-3479.998156
 20
1199.985386
 10
-3479.998156
 20
1259.985386
  0
LWPOLYLINE
  5
30A
330
31C
100
AcDbEntity
  8
Quadrat Outlines
100
AcDbPolyline
 90
        3
 70
   128
 43
0.0
 10
-3539.998156
 20
1199.985386
 10
-3599.998156
 20
1199.985386
 10
-3600.201452
 20
1139.932211
  0
SPLINE
  5
2DD
102
{ACAD_REACTORS
330
3B9
330
3B9
102
}
330
31C
100
AcDbEntity
  8
Platform--conjectural
  6
DGN Style 2
 62
   250
370
     0
100
AcDbSpline
210
0.0
220
0.0
230
1.0
 70
    11
 71
     3
 72
    35
 73
    31
 74
     0
 42
0.0000000001
 43
0.00000001
 40
0.0
 40
0.0
 40
0.0
 40
0.0
 40
0.0315451725196549
 40
0.0575577312621372
 40
0.0808599482926537
 40
0.0987797109819194
 40
0.1229200742132576
 40
0.1438661621863888
 40
0.1727690052335911
 40
0.2016718482807935
 40
0.2202867153139048
 40
0.2553390843308409
 40
0.270600223375345
 40
0.3047055781710438
 40
0.3948824484783154
 40
0.4318780875787344
 40
0.4590467600431045
 40
0.5284135833563907
 40
0.5844850988679632
 40
0.6550080359031375
 40
0.6995184141958293
 40
0.7252713710780924
 40
0.7429923748865602
 40
0.7961736060934129
 40
0.8574476333534822
 40
0.8955993861757894
 40
0.9216119449182716
 40
0.9596402579366042
 40
0.9712013951554853
 40
1.0
 40
1.0
 40
1.0
 40
1.0
 10
-3559.326480903756
 20
1133.829450921207
 30
0.0
 10
-3559.343635211819
 20
1132.664378170763
 30
0.0
 10
-3560.129052663121
 20
1131.298275152444
 30
0.0
 10
-3560.395221369271
 20
1128.502026400834
 30
0.0
 10
-3558.761362562691
 20
1126.918379495384
 30
0.0
 10
-3558.758374064696
 20
1124.81274716934
 30
0.0
 10
-3560.335076652188
 20
1122.761431351277
 30
0.0
 10
-3557.494584545667
 20
1121.509632306836
 30
0.0
 10
-3559.468546902897
 20
1117.579297809916
 30
0.0
 10
-3555.514302870431
 20
1119.507685211351
 30
0.0
 10
-3554.472677852598
 20
1116.415023442117
 30
0.0
 10
-3556.133031118792
 20
1114.634712487956
 30
0.0
 10
-3554.917325679871
 20
1111.795975053931
 30
0.0
 10
-3549.643611263673
 20
1113.400041646009
 30
0.0
 10
-3546.012272254433
 20
1113.307235599282
 30
0.0
 10
-3539.404379176132
 20
1111.68786564282
 30
0.0
 10
-3540.521883391967
 20
1116.908447901381
 30
0.0
 10
-3539.936556222297
 20
1121.103411318718
 30
0.0
 10
-3540.154814029614
 20
1127.276267050833
 30
0.0
 10
-3539.909251849625
 20
1132.788759714851
 30
0.0
 10
-3540.369840021753
 20
1136.583515178763
 30
0.0
 10
-3539.54747070266
 20
1140.361567671103
 30
0.0
 10
-3543.263185178452
 20
1139.606476144259
 30
0.0
 10
-3546.851297411644
 20
1140.027586291794
 30
0.0
 10
-3552.016427414729
 20
1140.08400539727
 30
0.0
 10
-3555.259379234009
 20
1139.597751480449
 30
0.0
 10
-3560.032434480727
 20
1140.920298950185
 30
0.0
 10
-3556.37163544184
 20
1135.941383572141
 30
0.0
 10
-3559.771622478595
 20
1136.870034904409
 30
0.0
 10
-3559.310820182961
 20
1134.893083390939
 30
0.0
 10
-3559.326480903756
 20
1133.829450921207
 30
0.0
  0
HATCH
  5
3B9
330
31C
100
AcDbEntity
  8
Platform--conjectural
  6
DGN Style 2
 62
    56
370
     0
100
AcDbHatch
 10
0.0
 20
0.0
 30
0.0
210
0.0
220
0.0
230
1.0
  2
_USER
 70
     0
 71
     1
 91
        1
 92
        1
 93
        1
 72
     4
 94
        3
 73
     0
 74
     0
 95
       35
 96
       31
 40
0.0
 40
0.0
 40
0.0
 40
0.0
 40
0.0315451725196549
 40
0.0575577312621372
 40
0.0808599482926537
 40
0.0987797109819194
 40
0.1229200742132576
 40
0.1438661621863888
 40
0.1727690052335911
 40
0.2016718482807935
 40
0.2202867153139048
 40
0.2553390843308409
 40
0.270600223375345
 40
0.3047055781710438
 40
0.3948824484783154
 40
0.4318780875787344
 40
0.4590467600431045
 40
0.5284135833563907
 40
0.5844850988679632
 40
0.6550080359031375
 40
0.6995184141958293
 40
0.7252713710780924
 40
0.7429923748865602
 40
0.7961736060934129
 40
0.8574476333534822
 40
0.8955993861757894
 40
0.9216119449182716
 40
0.9596402579366042
 40
0.9712013951554853
 40
1.0
 40
1.0
 40
1.0
 40
1.0
 10
-3559.326480903756
 20
1133.829450921207
 10
-3559.343635211819
 20
1132.664378170763
 10
-3560.129052663121
 20
1131.298275152444
 10
-3560.395221369271
 20
1128.502026400834
 10
-3558.761362562691
 20
1126.918379495384
 10
-3558.758374064696
 20
1124.81274716934
 10
-3560.335076652188
 20
1122.761431351277
 10
-3557.494584545667
 20
1121.509632306836
 10
-3559.468546902897
 20
1117.579297809916
 10
-3555.514302870431
 20
1119.507685211351
 10
-3554.472677852598
 20
1116.415023442117
 10
-3556.133031118792
 20
1114.634712487956
 10
-3554.917325679871
 20
1111.795975053931
 10
-3549.643611263673
 20
1113.400041646009
 10
-3546.012272254433
 20
1113.307235599282
 10
-3539.404379176132
 20
1111.68786564282
 10
-3540.521883391967
 20
1116.908447901381
 10
-3539.936556222297
 20
1121.103411318718
 10
-3540.154814029614
 20
1127.276267050833
 10
-3539.909251849625
 20
1132.788759714851
 10
-3540.369840021753
 20
1136.583515178763
 10
-3539.54747070266
 20
1140.361567671103
 10
-3543.263185178452
 20
1139.606476144259
 10
-3546.851297411644
 20
1140.027586291794
 10
-3552.016427414729
 20
1140.08400539727
 10
-3555.259379234009
 20
1139.597751480449
 10
-3560.032434480727
 20
1140.920298950185
 10
-3556.37163544184
 20
1135.941383572141
 10
-3559.771622478595
 20
1136.870034904409
 10
-3559.310820182961
 20
1134.893083390939
 10
-3559.326480903756
 20
1133.829450921207
 97
        1
330
2DD
 75
     0
 76
     1
 52
0.0
 41
1.0
 77
     0
 78
     2
 53
45.0
 43
-3560.000227691774
 44
1132.424385703311
 45
-1.697056274847714
 46
1.697056274847714
 79
     0
 53
-45.0
 43
-3560.000227691774
 44
1132.424385703311
 45
1.697056274847714
 46
1.697056274847714
 79
     0
 98
        0
  0
LWPOLYLINE
  5
2CE
102
{ACAD_REACTORS
330
3BA
330
3BA
102
}
330
31C
100
AcDbEntity
  8
Platform--conjectural
  6
DGN Style 2
 62
   250
370
     0
100
AcDbPolyline
 90
        4
 70
   129
 43
0.0
 10
-3589.590106
 20
1413.735572
 10
-3539.992231
 20
1410.023229
 10
-3539.807438
 20
1344.230562
 10
-3590.187833
 20
1344.089058
  0
HATCH
  5
3BA
330
31C
100
AcDbEntity
  8
Platform--conjectural
  6
DGN Style 2
 62
    56
370
     0
100
AcDbHatch
 10
0.0
 20
0.0
 30
0.0
210
0.0
220
0.0
230
1.0
  2
_USER
 70
     0
 71
     1
 91
        1
 92
        3
 72
     0
 73
     1
 93
        4
 10
-3589.590105928046
 20
1413.735571771762
 10
-3539.992230532179
 20
1410.023229430151
 10
-3539.807438198435
 20
1344.230562038661
 10
-3590.18783255682
 20
1344.089058266013
 97
        1
330
2CE
 75
     0
 76
     1
 52
0.0
 41
1.0
 77
     0
 78
     2
 53
45.0
 43
-3577.449207078468
 44
1412.367351071654
 45
-1.697056274847714
 46
1.697056274847714
 79
     0
 53
-45.0
 43
-3577.449207078468
 44
1412.367351071654
 45
1.697056274847714
 46
1.697056274847714
 79
     0
 98
        0
  0
LWPOLYLINE
  5
2D3
102
{ACAD_REACTORS
330
3BB
330
3BB
102
}
330
31C
100
AcDbEntity
  8
Quadrat Outlines
  6
DGN Style 2
 62
   250
100
AcDbPolyline
 90
        4
 70
   129
 43
0.0
 10
-3390.27484
 20
1129.267401
 10
-3389.717988
 20
1136.707082
 10
-3379.849088
 20
1136.734801
 10
-3379.827863
 20
1129.177742
  0
HATCH
  5
3BB
330
31C
100
AcDbEntity
  8
Quadrat Outlines
  6
DGN Style 2
 62
    56
370
     0
100
AcDbHatch
 10
0.0
 20
0.0
 30
0.0
210
0.0
220
0.0
230
1.0
  2
_USER
 70
     0
 71
     1
 91
        1
 92
        3
 72
     0
 73
     1
 93
        4
 10
-3390.274839749208
 20
1129.267400621641
 10
-3389.717988397967
 20
1136.707081931021
 10
-3379.849088289243
 20
1136.734800781083
 10
-3379.827862723346
 20
1129.177741627325
 97
        1
330
2D3
 75
     0
 76
     1
 52
0.0
 41
1.0
 77
     0
 78
     2
 53
45.0
 43
-3384.961038100852
 44
1135.344961600316
 45
-1.697056274847714
 46
1.697056274847714
 79
     0
 53
-45.0
 43
-3384.961038100852
 44
1135.344961600316
 45
1.697056274847714
 46
1.697056274847714
 79
     0
 98
        0
  0
LINE
  5
30D
330
31C
100
AcDbEntity
  8
Feature Numbers
 62
   250
370
    13
100
AcDbLine
 10
-3552.834866
 20
1076.498884
 30
0.0
 11
-3557.626838
 21
1085.222904
 31
0.0
  0
LINE
  5
30E
330
31C
100
AcDbEntity
  8
Feature Numbers
 62
   250
370
    13
100
AcDbLine
 10
-3605.028757
 20
1384.769049
 30
0.0
 11
-3589.184183
 21
1384.769049
 31
0.0
  0
LINE
  5
310
330
31C
100
AcDbEntity
  8
Feature Numbers
 62
   250
370
    13
100
AcDbLine
 10
-3514.523373
 20
1169.199452
 30
0.0
 11
-3523.451275
 21
1169.199452
 31
0.0
  0
LINE
  5
311
330
31C
100
AcDbEntity
  8
Feature Numbers
 62
   250
370
    13
100
AcDbLine
 10
-3522.631809
 20
1349.161487
 30
0.0
 11
-3528.284186
 21
1349.662025
 31
0.0
  0
LINE
  5
312
330
31C
100
AcDbEntity
  8
Feature Numbers
 62
   250
370
    13
100
AcDbLine
 10
-3566.295287
 20
1122.274027
 30
0.0
 11
-3559.568446
 21
1123.081247
 31
0.0
  0
ENDSEC
  0
SECTION
  2
OBJECTS
  0
DICTIONARY
  5
32F
330
0
100
AcDbDictionary
281
     1
  3
ACAD_GROUP
350
32D
  3
ACAD_IMAGE_DICT
350
343
  3
ACAD_IMAGE_VARS
350
3BF
  3
ACAD_LAYOUT
350
330
  3
ACAD_MLINESTYLE
350
32E
  3
ACAD_PLOTSETTINGS
350
331
  3
ACAD_PLOTSTYLENAME
350
332
  3
ACAD_TABLESTYLE
350
3C0
  3
AcadDim
350
342
  3
DWGPROPS
350
681
  0
IMAGEDEF_REACTOR
  5
345
330
70
100
AcDbRasterImageDefReactor
 90
        2
330
70
  0
IMAGEDEF_REACTOR
  5
347
330
108
100
AcDbRasterImageDefReactor
 90
        2
330
108
  0
IMAGEDEF_REACTOR
  5
349
330
14F
100
AcDbRasterImageDefReactor
 90
        2
330
14F
  0
IMAGEDEF_REACTOR
  5
34B
330
158
100
AcDbRasterImageDefReactor
 90
        2
330
158
  0
IMAGEDEF_REACTOR
  5
34D
330
20B
100
AcDbRasterImageDefReactor
 90
        2
330
20B
  0
IMAGEDEF_REACTOR
  5
34F
330
214
100
AcDbRasterImageDefReactor
 90
        2
330
214
  0
DICTIONARY
  5
32D
102
{ACAD_REACTORS
330
32F
102
}
330
32F
100
AcDbDictionary
281
     1
  0
DICTIONARY
  5
343
102
{ACAD_REACTORS
330
32F
102
}
330
32F
100
AcDbDictionary
281
     1
  3
House24_map_scan
350
344
  3
Scan 0001
350
348
  3
Scan 0002
350
346
  3
scan3
350
34A
  3
scan4
350
34E
  3
scan5
350
34C
  0
RASTERVARIABLES
  5
3BF
102
{ACAD_REACTORS
330
32F
102
}
330
32F
100
AcDbRasterVariables
 90
        0
 70
     0
 71
     0
 72
     0
  0
DICTIONARY
  5
330
102
{ACAD_REACTORS
330
32F
102
}
330
32F
100
AcDbDictionary
281
     1
  3
Layout1
350
323
  3
Model
350
31F
  0
DICTIONARY
  5
32E
102
{ACAD_REACTORS
330
32F
102
}
330
32F
100
AcDbDictionary
281
     1
  3
Standard
350
31A
  0
DICTIONARY
  5
331
102
{ACAD_REACTORS
330
32F
102
}
330
32F
100
AcDbDictionary
281
     1
  0
ACDBDICTIONARYWDFLT
  5
332
102
{ACAD_REACTORS
330
32F
102
}
330
32F
100
AcDbDictionary
281
     1
  3
Normal
350
315
100
AcDbDictionaryWithDefault
340
315
  0
DICTIONARY
  5
3C0
102
{ACAD_REACTORS
330
32F
102
}
330
32F
100
AcDbDictionary
281
     1
  0
XRECORD
  5
342
102
{ACAD_REACTORS
330
32F
102
}
330
32F
100
AcDbXrecord
280
     1
 90
   990106
  3
 
 60
     0
 61
     0
 62
     1
 63
     1
 64
     0
 65
     0
 66
     0
 67
     3
 68
     1
 69
     1
 70
     0
 71
     0
 72
     0
 40
0.0
170
     0
  0
XRECORD
  5
681
102
{ACAD_REACTORS
330
32F
102
}
330
32F
100
AcDbXrecord
280
     1
  1
DWGPROPS COOKIE
  2

  3

  4
lcooper
  6

  7

  8

  9

300
=
301
=
302
=
303
=
304
=
305
=
306
=
307
=
308
=
309
=
 40
0.0
 41
2451789.537469
 42
2451789.537561
  1

 90
        0
  0
IMAGEDEF
  5
344
102
{ACAD_REACTORS
330
343
330
345
102
}
330
343
100
AcDbRasterImageDef
 90
        0
  1
P:\DAACS\Archaeological Sites\Jamaica Sites\Montpelier\MicroStation Site Maps\House 24\House24_map_scan.jpg
 10
3307.0
 20
2338.0
 11
0.0003023888720895071
 21
0.0003023888720895071
280
     1
281
     5
  0
IMAGEDEF
  5
348
102
{ACAD_REACTORS
330
343
330
349
102
}
330
343
100
AcDbRasterImageDef
 90
        0
  1
P:\DAACS\Archaeological Sites\Jamaica Sites\Montpelier\House 24\TJ Foundation Arch Dept\Scan 0001.tif
 10
8800.0
 20
6726.0
 11
0.0001136363636363636
 21
0.0001136363636363636
280
     1
281
     5
  0
IMAGEDEF
  5
346
102
{ACAD_REACTORS
330
343
330
347
102
}
330
343
100
AcDbRasterImageDef
 90
        0
  1
P:\DAACS\Archaeological Sites\Jamaica Sites\Montpelier\House 24\TJ Foundation Arch Dept\Scan 0002.tif
 10
8800.0
 20
6728.0
 11
0.0001136363636363636
 21
0.0001136363636363636
280
     1
281
     5
  0
IMAGEDEF
  5
34A
102
{ACAD_REACTORS
330
343
330
34B
102
}
330
343
100
AcDbRasterImageDef
 90
        0
  1
P:\DAACS\Archaeological Sites\Jamaica Sites\Montpelier\House 24\TJ Foundation Arch Dept\scan3.jpg
 10
1275.0
 20
1753.0
 11
0.0007843137254901961
 21
0.0007843137254901961
280
     1
281
     5
  0
IMAGEDEF
  5
34E
102
{ACAD_REACTORS
330
343
330
34F
102
}
330
343
100
AcDbRasterImageDef
 90
        0
  1
P:\DAACS\Archaeological Sites\Jamaica Sites\Montpelier\House 24\TJ Foundation Arch Dept\scan4.jpg
 10
1275.0
 20
1753.0
 11
0.0007843137254901961
 21
0.0007843137254901961
280
     1
281
     5
  0
IMAGEDEF
  5
34C
102
{ACAD_REACTORS
330
343
330
34D
102
}
330
343
100
AcDbRasterImageDef
 90
        0
  1
P:\DAACS\Archaeological Sites\Jamaica Sites\Montpelier\House 24\TJ Foundation Arch Dept\scan5.jpg
 10
1275.0
 20
1753.0
 11
0.0007843137254901961
 21
0.0007843137254901961
280
     1
281
     5
  0
LAYOUT
  5
323
102
{ACAD_REACTORS
330
330
330
330
102
}
330
330
100
AcDbPlotSettings
  1

  2

  4

  6

 40
0.0
 41
0.0
 42
0.0
 43
0.0
 44
0.0
 45
0.0
 46
0.0
 47
0.0
 48
0.0
 49
0.0
140
0.0
141
0.0
142
1.0
143
1.0
 70
   688
 72
     0
 73
     0
 74
     5
  7

 75
    16
147
1.0
148
0.0
149
0.0
100
AcDbLayout
  1
Layout1
 70
     1
 71
     1
 10
0.0
 20
0.0
 11
12.0
 21
9.0
 12
0.0
 22
0.0
 32
0.0
 14
1.000000E+20
 24
1.000000E+20
 34
1.000000E+20
 15
-1.000000E+20
 25
-1.000000E+20
 35
-1.000000E+20
146
0.0
 13
0.0
 23
0.0
 33
0.0
 16
1.0
 26
0.0
 36
0.0
 17
0.0
 27
1.0
 37
0.0
 76
     0
330
320
  0
LAYOUT
  5
31F
102
{ACAD_REACTORS
330
330
330
330
102
}
330
330
100
AcDbPlotSettings
  1

  2

  4

  6

 40
0.0
 41
0.0
 42
0.0
 43
0.0
 44
0.0
 45
0.0
 46
0.0
 47
0.0
 48
0.0
 49
0.0
140
0.0
141
0.0
142
1.0
143
1.0
 70
  1712
 72
     0
 73
     0
 74
     0
  7

 75
     0
147
1.0
148
0.0
149
0.0
100
AcDbLayout
  1
Model
 70
     1
 71
     0
 10
0.0
 20
0.0
 11
12.0
 21
9.0
 12
0.0
 22
0.0
 32
0.0
 14
0.0
 24
0.0
 34
0.0
 15
0.0
 25
0.0
 35
0.0
146
0.0
 13
0.0
 23
0.0
 33
0.0
 16
1.0
 26
0.0
 36
0.0
 17
0.0
 27
1.0
 37
0.0
 76
     0
330
31C
  0
MLINESTYLE
  5
31A
102
{ACAD_REACTORS
330
32E
102
}
330
32E
100
AcDbMlineStyle
  2
STANDARD
 70
     0
  3

 62
   256
 51
90.0
 52
90.0
 71
     2
 49
0.5
 62
   256
  6
BYLAYER
 49
-0.5
 62
   256
  6
BYLAYER
  0
ACDBPLACEHOLDER
  5
315
102
{ACAD_REACTORS
330
332
102
}
330
332
  0
ENDSEC
  0
SECTION
  2
THUMBNAILIMAGE
 90
    22304
310
28000000B4000000760000000100080000000000F85200000004000000040000000100000A000000FFFFFF0000C80000480000000058780030303000F8000000E8582800A8A8A800F8F8F80000787800FFFFFF00FFFFFF00FFFFFF00FFFFFF00FFFFFF00FFFFFF00FFFFFF00FFFFFF00FFFFFF00FFFFFF00FFFFFF00FFFFFF
310
00FFFFFF00FFFFFF00FFFFFF00FFFFFF00FFFFFF00FFFFFF00FFFFFF00FFFFFF00FFFFFF00FFFFFF00FFFFFF00FFFFFF00FFFFFF00FFFFFF00FFFFFF00FFFFFF00FFFFFF00FFFFFF00FFFFFF00FFFFFF00FFFFFF00FFFFFF00FFFFFF00FFFFFF00FFFFFF00FFFFFF00FFFFFF00FFFFFF00FFFFFF00FFFFFF00FFFFFF00FFFF
310
FF00FFFFFF00FFFFFF00FFFFFF00FFFFFF00FFFFFF00FFFFFF00FFFFFF00FFFFFF00FFFFFF00FFFFFF00FFFFFF00FFFFFF00FFFFFF00FFFFFF00FFFFFF00FFFFFF00FFFFFF00FFFFFF00FFFFFF00FFFFFF00FFFFFF00FFFFFF00FFFFFF00FFFFFF00FFFFFF00FFFFFF00FFFFFF00FFFFFF00FFFFFF00FFFFFF00FFFFFF00FF
310
FFFF00FFFFFF00FFFFFF00FFFFFF00FFFFFF00FFFFFF00FFFFFF00FFFFFF00FFFFFF00FFFFFF00FFFFFF00FFFFFF00FFFFFF00FFFFFF00FFFFFF00FFFFFF00FFFFFF00FFFFFF00FFFFFF00FFFFFF00FFFFFF00FFFFFF00FFFFFF00FFFFFF00FFFFFF00FFFFFF00FFFFFF00FFFFFF00FFFFFF00FFFFFF00FFFFFF00FFFFFF00
310
FFFFFF00FFFFFF00FFFFFF00FFFFFF00FFFFFF00FFFFFF00FFFFFF00FFFFFF00FFFFFF00FFFFFF00FFFFFF00FFFFFF00FFFFFF00FFFFFF00FFFFFF00FFFFFF00FFFFFF00FFFFFF00FFFFFF00FFFFFF00FFFFFF00FFFFFF00FFFFFF00FFFFFF00FFFFFF00FFFFFF00FFFFFF00FFFFFF00FFFFFF00FFFFFF00FFFFFF00FFFFFF
310
00FFFFFF00FFFFFF00FFFFFF00FFFFFF00FFFFFF00FFFFFF00FFFFFF00FFFFFF00FFFFFF00FFFFFF00FFFFFF00FFFFFF00FFFFFF00FFFFFF00FFFFFF00FFFFFF00FFFFFF00FFFFFF00FFFFFF00FFFFFF00FFFFFF00FFFFFF00FFFFFF00FFFFFF00FFFFFF00FFFFFF00FFFFFF00FFFFFF00FFFFFF00FFFFFF00FFFFFF00FFFF
310
FF00FFFFFF00FFFFFF00FFFFFF00FFFFFF00FFFFFF00FFFFFF00FFFFFF00FFFFFF00FFFFFF00FFFFFF00FFFFFF00FFFFFF00FFFFFF00FFFFFF00FFFFFF00FFFFFF00FFFFFF00FFFFFF00FFFFFF00FFFFFF00FFFFFF00FFFFFF00FFFFFF00FFFFFF00FFFFFF00FFFFFF00FFFFFF00FFFFFF00FFFFFF00FFFFFF00FFFFFF00FF
310
FFFF00FFFFFF00FFFFFF00FFFFFF00FFFFFF00FFFFFF00FFFFFF00FFFFFF00FFFFFF00FFFFFF00FFFFFF00FFFFFF00FFFFFF00FFFFFF00FFFFFF00FFFFFF00FFFFFF00FFFFFF00FFFFFF00FFFFFF00FFFFFF00FFFFFF00FFFFFF00FFFFFF00FFFFFF00FFFFFF00FFFFFF00FFFFFF00FFFFFF00FFFFFF00FFFFFF00FFFFFF00
310
FFFFFF00FFFFFF00FFFFFF00FFFFFF00FFFFFF00FFFFFF00FFFFFF00FFFFFF00FFFFFF00FFFFFF00FFFFFF00FFFFFF0008080808080808080808080808020801010808080808080804040404040404080804040804040404040408080908090809090809080809080909080908080808080808080808080808080808080808
310
08080808080808080808080808080808080808080808080808080208080808080808080808080808080808080808080808080808080808080808080808040707040408080808080802080808080808080808080808080808040408080808080808080809040808080808080808080808080802080101080808080808080404
310
08040404040808040408040404040404040404090809080809080909080908080904080808080808080808080808080808080808080808080808080808080808080808080808080808080808080808020808080808080808080808080808080808080808080808080808080808080808080808040404040808080808080208
310
08080808080808080808080808080404080808080808080904040908080808080808080808080808020808010108080808080804040808040404080804080408040408080804040408090809090809090909080909080908080808080808080808080808080808080808080808080808080808080808080808080808080808
310
08080808080208080808080808080808080808080808080808080808080808080808080808080808040407070704080808080802080808080808080808080808080808040408080808080808040909090808080808080808080808080802080801010808080808040404040404080404040408040404040808080808090908
310
09090908090909090909090809080808080808080808080808080808080808080808080808080808080808080808080808080808080808080808020808080808080808080808080808080808080808080808080808080808080808080804070707040404040808080208080808080808080808080808080804040808080808
310
08080904090408080808080808080808080808020808010108080808080404040404040808040408080804040808080808040909080909080908090908090908090408080808080808080808080808080808080808080808080808080808080808080808080808080808080808080802080808080808080808080808080808
310
08080808080808080808080808080808080808080404040404040808080802080808080808080808080808080808040408080808080808080904080808080808080808080808080802080801010808080808080808080808080808080808080808080808080809080809080809080908080908080908090808080808080808
310
08080808080808080808080808080808080808080808080808080808080808080808080808020808080808080808080808080808080808080808080808080808080808080808080808040407040808080808080208080808080808080808080808080804040808080808090409090904080808080808080808080808080208
310
08010108080808080808080808080808080808080808080808080808040909080909080908090908090908090408080808080808080808080808080808080808080808080808080808080808080808080808080808080808080802080808080808080808080808080808080808080808080808080808080808080808080407
310
07040108080808080802080808080808080808080808080808040408080808080908090908090808080808080808080808080802080801010808080808080808080808080808080808080808080808080804090908090909080909090809090908090808080808080808080808080808080808080808080808080808080808
310
08080808080808080808080808080808020808080808080808080808080808080808080808080808080808080808080808080804070704040808080808080208080808080808080808080808080804040808080808040908080908080808080808080808080808080208080101080808080808080808080808080808080808
310
08080808080808080908090809090809090909080909080908080808080808080808080808080808080808080808080808080808080808080808080808080808080808080802080808080808080808080808080808080808080808080808080808080808080808040404040707040808080808020808080808080808080808
310
08080808040408080808080409090909080808080808080808080808080800000000000000000000000000000000000808080808080808080808080808040908090908090809090809080809040808080808080808080808080808080808080808080808080808080808080808080808080808080808080808080200000000
310
00000000000000000000000008080808080808080808080808080808080404070707040808080808080208080808080808080808080808080804040808080808090809090809080808080808080808080808080000000000000000000000000000000000080808080808080808080808080809080908080908090808090809
310
09080908080808080808080808080808080808080808080808080808080808080808080808080808080808080808080802000000000000000000000000000000000808080808080808080808080808080808040707070704080808080808020808080808080808080808080808080404080808080804090808090808080808
310
08080808080808080800000000000000000000000000000000000808080808080808080808080808040908090908090809090809090908090808080808080808080808080808080808080808080808080808080808080808080808080808080808080808080200000000000000000000000000000000080808080808080808
310
08080808080808080407070707070408080808080208080808080808080808080808080804040808080808090409090409080808080808080808080808080200000000000000000000000000000000080808080808080808080808080808090809090908090909090809090904080808080808080808080808080808080808
310
08080808080808080808080808080808080808080808080808080802000000000000000000000000000000000808080808080808080808080808080808080404040404010808080808020808080808080808080808080808080404080808080808080808080802020202020202020202020202020202010102020202020202
310
02020202020202020202020202020202020202020409040909040909090904090909090404040404040404020202020202020202020202020202020202020202020202020202020202020202020202020202020202020202020202020202020202020202020202020202020202020202020202020202020202020202020202
310
02020202020202020202020202020204040404040404040404040404080808080808080808080808080208080101080808080808080808080808080808080808080808080808080808090808080808080808080808080804070707070707070704040808080808080808080808080808080808080808080808080808080808
310
08080808080802080808080808080808080808080808080808080808080808080808080808080808080808080801010808080808020808080808080808080808080808080804040404040404040404040408080808080808080808080808020808010108080808080808080808080808080808080808080808080808080808
310
08080808080808080808080808040707070707070707070704080808080808080808080808080808080808080808080808080808080808080808080208080808080808080808080808080808080808080808080808080808080808080808080808080101080808080802080808080808080808080808080808080808080808
310
08080808080808080808080808080808080808080208080101080808080808080808080808080808080808080808080808080808080808080808080808080808080802040707070707070707070408080808080808080808080808080808080808080808080808080808080808080808020808080808080808080808080808
310
08080808080808080808080808080808080808080808080801010808080808020808080808080808080808080808080808080808080808080808080808080808080808080808080808020808010108080808080808080808080808080808080808080808080808080808080808080808080808080808080204070707070707
310
07070404040404040808080808080808080808080808080808080808080808080808080808080208080808080808080808080808080808080808080808080808080808080808080808080808080101080808080802080808080808080808080808080808080808080808080808080808080808080808080808080808080802
310
08080101080808080808080808080808080808080808080808080808080808080808080808080808080808080802040707070707070704040707070408080808080808080808080808080808080808080808080808080808080808020808080808080808080808080808080808080808080808080808080808080808080808
310
08080801010808080808020808080808080808080808080808080808080808080808080808080808080808080808080808080808020808010108080808080808080808080808080808080808080808080808080808080808080808080808080808080204040407070707040808040407040808080808080808080808080808
310
08080808080808080808080808080808080208080808080808080808080808080808080808080808080808080808080808080808080808080101080808080802080808080808080808080808080808080808080808080808080808080808080808080808080808080802080801010808080808080808080808080808080808
310
08080808080808080808080808080808080808080808080802040407040404040808080808040808080808080808080808080808080808080808080808080808080808080808020808080808080808080808080808080808080808080808080808080808080808080808080808010108080808080208080808080808080808
310
08080808080808080808080808080808080808080808080808080808080808020808010108080808080808080808080808080808080808080808080808080808080808080808080808080808080204070707070704080808080407040408080808080808080808080808080808080808080808080808080808080802080808
310
08080808080808080808080808080808080808080808080808080808080808080808080801010808080802080808080808080808080808080808080808080808080808080808080808080808080808080808080802080801010808080808080808080808080808080808080808080808080808080808080808080808080808
310
08080802040707070707040808080407070707040808080808080808080808080808080808080808080808080808080808020808080808080808080808080808080808080808080808080808080808080808080808080808080101080808080208080808080808080808080808080808080808080808080808080808080808
310
08080808080808080808020808010108080808080808080808080808080808080808080808080808080808080808080808080808080808080204070707070704040404040707070408080808080808080808080808080808080808080808080808080808080802080808080808080808080808080808080808080808080808
310
08080808080808080808080808080801010808080802080808080808080808080808080808080808080808080808080808080808080808080808080808080802080801010808080808080808080808080808080808080808080808080808080808080808080808080808080808020404040407040407070704040707040808
310
08080808080808080808080808080808080808080808080808080808020808080808080808080808080808080808080808080808080808080808080808080808080808080101080808080208080808080808080808080808080808080808080808080808080808080808080808080808080808080208080101080808080808
310
08080808080808080808080808080808080808080808080808080808080808080808080204040707040404070707040404040808080808080808080808080808080808080808080808080808080808080802080808080808080808080808080808080808080808080808080808080808080808080808080808010108080808
310
02080808080808080808080808080808080808080808080808080808080808080808080808080808080802080801010808080808080808080808080808080808080808080808080808080808080808080808080808080808020407070707070407070707040808080808080808080808080808080808080808080808080808
310
08080808080808020808080808080808080808080808080808080808080808080808080808080808080808080808080101080808080208080808080808080808080808080808080808080808080808080808080808080808080808080808080208080101080808080808080808080808080808080808080808080808080808
310
08080808080808080808080808080204070707070704040404040408080808080808080808080808080808080808080808080808080808080808080802080808080808080808080808080808080808080808080808080808080808080808080808080808010108080808020808080808080808080808080808080808080808
310
08080808080808080808080808080808080808080802080801010808080808080808080808080808080808080808080808080808080808080808080808080808080808020407070707070704080808080808080808080808080808080808080808080808080808080808080808080808080208080808080808080808080808
310
08080808080808080808080808080808080808080808080808080101080808080208080808080808080808080808080808080808080808080808080808080808080808080808080808080208080101080808080808080808080808080808080808080808080808080808080808080808080808080808080802080404070707
310
07040808080408080808080808080808080808080808080808080808080808080808080808080802080808080808080808080808080808080808080808080808080808080808080808080808080808010108080808020808080808080808080808080808080808080808080808080808080808080808080808080808080808
310
02080801010808080808080808080808080808080808080808080808080808080808080808080808080808080808020804040404070408080804070408080808080808080808080808080808080808080808080808080808080808080208080808080808080808080808080808080808080808080808080808080808080808
310
08080808080801010808080208080808080808080808080808080808080808080808080808080808080808080808080808080808080208080101080808080808080808080808080808080808080808080808080808080808080808080808080808080802040707040804040808040707040808080808080808080808080808
310
08080808080808080808080808080808080802080808080808080808080808080808080808080808080808080808080808080808080808080808080101080808020808080808080808080808080808080808080808080808080808080808080808080808080808080808020808010108080808080808080808080808080808
310
08080808080808080808080808080808080808080808080808020407070404070704080407070704080808080404040408080804040404080404040408080808080808080808080208080808080808080808080808080808080808080808080808080808080808080808080808080808010108080802080808080808080808
310
08080808080808080808080808080808080808080808080808080808080808080208080101080808080808080808080808080808080808080808080808080808080808080808080808080808080802040707070707070704070707070408080808080404080808080408040408040804040408080808080808080808020808
310
08080808080808080808080808080808080808080808080808080808080808080808080808080101080808020808080808080808080808080808080808080808080808080808080808080808080808080808080808020808010108080808080808080808080808080808080808080808080808080808080808080808080808
310
08080808040707070707070707040404070707040808080804040808080404080804040808080404080808080808080808080208080808080808080808080808080808080808080808080808080808080808080808080808080808010108080802080808080808080808080808080808080808080808080808080808080808
310
08080808080808080808080208080101080808080808080808080808080808080808080808080808080808080808080808080808080808080804070707070707070704070404040404080808080404080404040408080404040408040408080808080808080808020808080808080808080808080808080808080808080808
310
08080808080808080808080808080808080101080808020808080808080808080808080808080808080808080808080808080808080808080808080808080808020808010108080808080808080808080808080808080808080808080808080808080808080808080808080808080407070707070707070407070404040404
310
04040404040404040404080804040404040408080808080808080808080208080808080808080808080808080808080808080808080808080808080808080808080808080808010108080802080808080808080808080808080808080808080808080808080808080808080808080808080808080802080801010808080808
310
08080808080808080808080808080808080808080808080808080808080808080808080802040407070707070404040404040404040404040404080404040408080404040404080808080808080808080808020808080808080808080808080808080808080808080808080808080808080808080808080808080801010808
310
08020808080808080808080808080808080808080808080808080808080808080808080808080808080808020808010108080808080808080808080808080808080808080808080808080808080808080808080808080808080208040404070704080407040408080808080808040408080404040804040804040404080808
310
08080808080808080208080808080808080808080808080808080808080808080808080808080808080808080808080808010108080802080808080808080808080808080808080808080808080808080808080808080808080808080808080802080801010808080808080808080808080808080808080808080808080808
310
08080808080808080808080808080802040707070404040407070704080808080808040404040404040404040408040404040808080808080808080808020808080808080808080808080808080808080808080808080808080808080808080808080808080808010108080208080808080808080808080808080808080808
310
08080808080808080808080808080808080808080808020808010108080808080808080808080808080808080808080808080808080808080808080808080808080808080204070707040707040707070408080808080808080808080808080808080808080808080808080808080808080802080808080808080808080808
310
08080808080808080808080808080808080808080808080808080808080101080802080808080808080808080808080808080808080808080808080808080808080808080808080808080802080801010808080808080808080808080808080808080808080808080808080808080808080808080808080808040707070707
310
04040707070704080808080808080808080808080808080808080808080808080808080808080808020808080808080808080808080808080808080808080808080808080808080808080808080808080808010108080208080808080808080808080808080808080808080808080808080808080808080808080808080808
310
08020808010108080808080808080808080808080808080808080808080808080808080808080808080808080808080407070707070404040707040408080808080808080808080808080808080808080808080808080808080808080802080808080808080808080808080808080808080808080808080808080808080808
310
08080808080808080101080802080808080808080808080808080808080808080808080808080808080808080808080808080808080802080801010808080808080808080808080808080808080808080808080808080808080808080808080808080808020404070707040407040407070408080808080808080808080808
310
08080808080808080808080808080808080808020808080808080808080808080808080808080808080808080808080808080808080808080808080808010108080208080808080808080808080808080808080808080808080808080808080808080808080808080808080208080101080808080808080808080808080808
310
08080808080808080808080808080808080808080808080808080204070404040704040404040408080808080808080808080808080808080808080808080808080808080808080802080808080808080808080808080808080808080808080808080808080808080808080808080808080801010808020808080808080808
310
08080808080808080808080808080808080808080808080808080808080808080802080801010808080808080808080808080808080808080808080808080808080808080808080808080808080808020407070704040408080808080808080808080808080808080808080808080808080808080808080808080808080208
310
08080808080808080808080808080808080808080808080808080808080808080808080808080808010108080208080808080808080808080808080808080808080808080808080808080808080808080808080808080208080101080808080808080808080808080808080808080808080808080808080808080808080808
310
08080808080204070707040808080808080808080808080808080808080808080808080808080808080808080808080808080802080808080808080808080808080808080808080808080808080808080808080808080808080808080801010808020808080808080808080808080808080808080808080808080808080808
310
08080808080808080808080802080801010808080808080808080808080808080808080808080808080808080808080808080808080808080808070407070707040808080808080808080808080808080808080808080808080808080808080808080808080808080208080808080808080808080808080808080808080808
310
08080808080808080808080808080808080808010108080208080808080808080808080808080808080808080808080808080808080808080808080808080808080208080101080808080808080808080808080808080808080808080808080808080808080808080808080808080804070707070704040808080808080808
310
08080808080808080808080808080808080808080808080808080808080802080808080808080808080808080808080808080808080808080808080808080808080808080808080808010108020808080808080808080808080808080808080808080808080808080808080808080808080808080808020808010108080808
310
08080808080808080808080808080808080808080808080808080808080808080808080808040707070707070704040808080808080808080808080808080808080808080808080808080808080808080808080208080808080808080808080808080808080808080808080808080808080808080808080808080808080801
310
01080208080808080808080808080808080808080808080808080808080808080808080808080808080808080208080101080808080808080808080808080808080808080808080808080808080808080808080808080808080802040707070707070704080808080808080808080808080808080808080808080808080808
310
08080808080808080802080808080808080808080808080808080808080808080808080808080808080808080808080808080808010108020808080808080808080808080808080808080808080808080808080808080808080808080808080808020808010108080808080808080808080808080808080808080808080808
310
08080808080808080808080808080808020407070707070707040808080808080808080808080808080808080808080808080808080808080808080808080208080808080808080808080808080808080808080808080808080808080808080808080808080808080801010802080808080808080808080808080808080808
310
08080808080808080808080808080808080808080808080208080101080808080808080808080808080808080808080808080808080808080808080808080808080808080802040707070707070408080808080808080808080808080808080808080808080808080808080808080808080808020808080808080808080808
310
08080808080808080808080808080808080808080808080808080808080808010108020808080808080808080808080808080808080808080808080808080808080808080808080808080808020808080101080808080808080808080808080808080808080808080808080808080808080808080808080808080204070707
310
07070408080808080808080808080808080808080808080808080808080808080808080808080808080208080808080808080808080808080808080808080808080808080808080808080808080808080808080801010802080808080808080808080808080808080808080808080808080808080808080808080808080808
310
08080200000000000000000000000000000000000808080808080808080808080808080808080808080808080808080800000000000000000000000000000000000000080808080808080808080808080808080808080808080808080808020808080808080808080808080808080808080808080808080808080808080808
310
08080808080808080808010108020808080808080808080808080808080808080808080808080808080808080808080808080808080808020000000000000000000000000000000000080808080808080808080808080808080808080808080808080808080000000000000000000000000000000000000008080808080808
310
08080808080808080808080808080808080808080208080808080808080808080808080808080808080808080808080808080808080808080808080808080801010802080808080808080808080808080808080808080808080808080808080808080808080808080808080802000808010108080000000808080808000008
310
08080808080808080808080808080808080808080808080808080800000808080808080000000808080808080000080808080808080808080808080808080808080808080808080808020808080808080808080808080808080808080808080808080808080808080808080808080808080808080101080208080808080808
310
08080808080808080808080808080808080808080808080808080808080808080808020000000000000000000000000000000000080808080808080808080808080808080808080808080808080808080000000000000000000000000000000000000008080808080808080808080808080808080808080808080808080802
310
08080808080808080808080808080808080808080808080808080808080808080808080808080808080808010102080808080808080808080808080808080808080808080808080808080808080808080808080808080802000000000000000000000000000000000008080808080808080808080808080808080808080808
310
08080808080802000000000000000000000000000000000000080808080808080808080808080808080808080808080808080808020808080808080808080808080808080808080808080808080808080808080808080808080808080808080801010208080808080808080808080808080808080808080808080808080808
310
02020202020202020202020202020202020202020202020202020202020202020202020202020202020202020202020202020202020202020202020202020202020202020202020202020202020202020202020202020202020202020202020202020202020202020202020202020202020202020202020202020202020202
310
02020202020202020202020202020202020202020202020202020202020202020202020202020202020202020202020202020202020808080808080808080808080802080808010108080808080808080808080808080808080808080808080808080808080808080808080808080808020808080808080808080808080808
310
08080808080808080808080808080808080808080808080808080808080808020808080808080808080808080808080804040404040303030304040303030303030303030303030408080801010208080808080808080808080808080808080808080808080808080808080808080808080808080808080208080801010808
310
08080808080808080808080808080808080808080808080808080808080808080808080808080208080808080808080808080808080808080808080808080808080808080808080808080808080808080808080802080808080808080808080808080404040303030303030303040804030303030303030303030304080808
310
08010102080808080808080808080808080808080808080808080808080808080808080808080808080808080802080808010108080808080808080808080808080808080808080808080808080808080808080808080808080808020808080808080808080808080808080808080808080808080808080808080808080808
310
08080808080808080808020808080808080808080808080403030303030303030303030408080403030303030303030303040808080801010208080808080808080808080808080808080808080808080808080808080808080808080808080808080208080801010808080808080808080808080808080808080808080808
310
08080808080808080808080808080808080208080808080808080808080808080808080808080808080808080808080808080808080808080808080808080802080808080808080808080808040303030303030303030303030408040303030303030303030303040808080101020808080808080808080808080808080808
310
08080808080808080808080808080808080808080808080802080808010108080808080808080808080808080808080808080808080808080808080808080808080808080808020808080808080808080808080808080808080808080808080808080808080808080808080808080808080808080208080808080808080808
310
08080403030303030303030303030408080403030303030303030303030304080801010208080808080808080808080808080808080808080808080808080808080808080808080808080808080208080801010808080808080808080808080808080808080808080808080808080808080808080808080808080802080808
310
08080808080808080808080808080808080808080808080808080808080808080808080808080808080802080808080808080808080808040303030303030303030303040804030303030303030303030303040808080801020808080808080808080808080808080808080808080808080808080808080808080808080808
310
08080802080808010108080808080808080808080808080808080808080808080808080808080808080808080808080808020808080808080808080808080808080808080808080808080808080808080808080808080808080808080808080208080808080808080808080804030303030303030303030304080403030303
310
03030303030303030408080808010208080808080808080808080808080808080808080808080808080808080808080808080808080808080208080801010808080808080808080808080808080808080808080808080808080808080808080808080808080802080808080808080808080808080808080808080808080808
310
08080808080808080808080808080808080808080802080808080808080808080808040303030303030303030303040804030303030303030303030304080808080801020808080808080808080808080808080808080808080808080808080808080808080808080808080808020808080101080808080808080808080808
310
08080808080808080808080808080808080808080808080808080808020808080808080808080808080808080808080808080808080808080808080808080808080808080808080808080208080808080808080808080804030303030303030303030408080403030303030303030303040808080808080102080808080808
310
08080808080808080808080808080808080808080808080808080808080808080808080208080801010808080808080808080808080808080808080808080808080808080808080808080808080808080802080808080808080808080808080808080808080808080808080808080808080808080808080808080808080808
310
02080808080808080808080808040303030303030303030304080403030303030404040303030408080808080801020808080808080808080808080808080808080808080808080808080808080808080808080808080808020808080101080808080808080808080808080808080808080808080808080808080808080808
310
08080808080808020808080808080808080808080808080808080808080808080808080808080808080808080808080808080808080208080808080808080808080804040403030303030303040808040303030404080808040404080808080808080102080808080808080808080808080808080808080808080808080808
310
08080808080808080808080808080208080801010808080808080808080808080808080808080808080808080808080808080808080808080808080802080808080808080808080808080808080808080808080808080808080808080808080808080808080808080808020808080808080808080808080808040303030303
310
03040808080404040408080808080808080808080808080801020808080808080808080808080808080808080808080808080808080808080808080808080808080808020808080101080808080808080808080808080808080808080808080808080808080808080808080808080808080208080808080808080808080808
310
08080808080808080808080808080808080808080808080808080808080808080208080808080808080808080808080804040404040408080808080808080808080808080808080808080808080102080808080808080808080808080808080808080808080808080808080808080808080808080808080802080808010108
310
08080808080808080808080808080808080808080808080808080808080808080808080808080802080808080808080808080808080808080808080808080808080808080808080808080808080808080808080808020808080808080808080808080808080808080808080808080808080808080808080808080808080808
310
08080801020808080808080808080808080808080808080808080808080808080808080808080808080808080808020808080101080808080808080808080808080808080808080808080808080808080808080808080808080808080208080808080808080808080808080808080808080808080808080808080808080808
310
08080808080808080808080208080808080808080808080808080808080808080808080808080808080808080808080808080808080808080802010808080808080808080808080808080808080808080808080808080808080808080808080808080802080808010108080808080808080808080808080808080808080808
310
08080808080808080808080808080808080802080808080808080808080808080808080808080808080808080808080808080808080808080808080808080808020808080808080808080808080808080808080808080808080808080808080808080808080808080808080808080201080808080808080808080808080808
310
08080808080808080808080808080808080808080808080808020808080101080808080808080808080808080808080808080808080808080808080808080808080808080808080208080808080808080808080808080808080808080808080808080808080808080808080808080808080808080802080808080808080808
310
08080808080808080808080808080808080808080808080808080808080808080808080802010808080808080808080808080808080808080808080808080808080808080808080808080808080802080808010108080808080808080808080808080808080808080808080808080808080808080808080808080808020808
310
08080808080808080808080808080808080808080808080808080808080808080808080808080808080808020808080808080808080808080808080808080808080808080808080804040404080808080808080808080808080201080808080808080808080808080808080808080808080808080808080808080808080808
310
08080808020808080101080808080808080808080808080808080808080808080808080808080808080808080808080808080208080808080808080808080808080808080808080808080808080808080808080808080808080808080808080802080808080808080808080808080808080808080808080808080808080403
310
03040808040404040808080808080802010808080808080808080808080808080808080808080808080808080808080808080808080808080802080808010108080808080808080808080808080808080808080808080808080808080808080808080808080808020808080808080808080808080808080808080808080808
310
08080808080808080808080808080808080808080808020808080808080808080808080808080808080808080808080808080403030303040403030304080808080808080201080808080808080808080808080808080808080808080808080808080808080808080808080808080208080801010808080808080808080808
310
08080808080808080808080808080808080808080808080808080808080208080808080808080808080808080808080808080808080808080808080808080808080808080808080808080802080808080808080808080808080808080808080808080808080808040303030303030303030304080808080808020108080808
310
08080808080808080808080808080808080808080808080808080808080808080808080802080808010108080808080808080808080808080808080808080808080808080808080808080808080808080808020808080808080808080808080808080808080808080808080808080808080808080808080808080808080808
310
08020808080808080808080808080808080808080808080808080808080804040303030303030303040808080808080201080808080808080808080808080808080808080808080808080808080808080808080808080808080208080801010808080808080808080808080808080808080808080808080808080808080808
310
08080808080808080208080808080808080808080808080808080808080808080808080808080808080808080808080808080808080802080808080808080808080808080808080808080808080808080808080808040303030303030304080808080808020108080808080808080808080808080808080808080808080808
310
08080808080808080808080808080802080808010108080808080808080808080808080808080808080808080808080808080808080808080808080808020808080808080808080808080808080808080808080808080808080808080808080808080808080808080808080208080808080808080808080808080808080808
310
08080808080808080808080804030303030303040808080808080201010808080808080808080808080808080808080808080808080808080808080808080808080808080208080801010808080808080808080808080808080808080808080808080808080808080808080808080808080802080808080808080808080808
310
08080808080808080808080808080808080808080808080808080808080808080802080808080808080808080808080808080808080808080808080808080808080403030303030408080808080808020101080808080808080808080808080808080808080808080808080808080808080808080808080808020808080101
310
08080808080808080808080808080808080808080808080808080808080808080808080808080808020808080808080808080808080808080808080808080808080808080808080808080808080808080808080808080208080808080808080808080808080808080808080808080808080808080808080404030303040808
310
08080808080201010808080808080808080808080808080808080808080808080808080808080808080808080808080208080801010808080808080808080808080808080808080808080808080808080808080808080808080808080802080808080808080808080808080808080808080808080808080808080808080808
310
08080808080808080808080802080808080808080808080808080808080808080808080804040808080808080808080404040408080808080808020101080808080808080808080808080808080808080808080808080808080808080808080808080808020808080101080808080808080808080808080808080808080808
310
08080808080808080808080808080808080808020808080808080808080808080808080808080808080808080808080808080808080808080808080808080808080208080808080808080808080808080404040408080804040303040404040404040404040808080808080808080802010108080808080808080808080808
310
08080808080808080808080808080808080808080808080808080208080801010808080808080808080808080808080808080808080808080808080808080808080808080808080802080808080808080808080808080808080808080808080808080808080808080808080808080808080808080808020808080808080808
310
08080808040403030304080404030303030303030303030303030304080808080808080808020101080808080808080808080808080808080808080808080808080808080808080808080808080808020808080101080808080808080808080808080808080808080808080808080808080808080808080808080808080208
310
08080808080808080808080808080808080808080808080808080808080808080808080808080808080808080208080808080808080808080403030303030304080403030303030303030303030303030304080808080808080802010108080808080808080808080808080808080808080808080808080808080808080808
310
08080808080208080801010808080808080808080808080808080808080808080808080808080808080808080808080808080802080808080808080808080808080808080808080808080808080808080808080808080808080808080808080808020808080808080808080804030303030303030408040303030303030303
310
03030303030303040808080808080808020101080808080808080808080808080808080808080808080808080808080808080808080808080808020808080101080808080808080808080808080808080808080808080808080808080808080808080808080808080208080808080808080808080808080808080808080808
310
08080808080808080808080808080808080808080808080208080808080808080804030303030303030303040804030303030303030303030303030304080808080808080802010108080808080808080808080808080808080808080808080808080808080808080808080808080802080808010108080808080808080808
310
08080808080808080808080808080808080808080808080808080808080802080808080808080808080808080808080808080808080808080808080808080808080808080808080808080808020808080808080808040303030303030303030304080403030303030303030303030303030408080808080808080208010108
310
08080808080808080808080808080808080808080808080808080808080808080808080808020808080101080808080808080808080808080808080808080808080808080808080808080808080808080808080208080808080808080808080808080808080808080808080808080808080808080808080808080808080808
310
08080208080808080808080403030303030303030303030408040303030303030303030303030303040808080808080802080101080808080808080808080808080808080808080808080808080808080808080808080808080802080808010108080808080808080808080808080808080808080808080808080808080808
310
08080808080808080802080808080808080808080808080808080808080808080808080808080808080808080808080808080808080808020808080808080808040303030303030303030303040808040303030303030303030303030408080808080808080208010108080808080808080808080808080808080808080808
310
08080808080808080808080808080808020808080101080808080808080808080808080808080808080808080808080808080808080808080808080808080208080808080808080808080808080808080808080808080808080808080808080808080808080808080808080802080808080808080808040303030303030303
310
03030304080403030303030303030303030304080808080808080802080101080808080808080808080808080808080808080808080808080808080808080808080808080802080808010108080808080808080808080808080808080808080808080808080808080808080808080808080808020808080808080808080808
310
08080808080808080808080808080808080808080808080808080808080808080808020808080808080808080403030303030303030303030408080403030303030303030303030408080808080808080208010108080808080808080808080808080808080808080808080808080808080808080808080808080208080801
310
01080808080808080808080808080808080808080808080808080808080808080808080808080808080208080808080808080808080808080808080808080808080808080808080808080808080808080808080808080802080808080808080808040303030303030303030303030408040303030303030303030303030408
310
08080808080802080101080808080808080808080808080808080808080808080808080808080808080808080808080802080808010108080808080808080808080808080808080808080808080808080808080808080808080808080808020808080808080808080808080808080808080808080808080808080808080808
310
08080808080808080808080808020808080808080808080403030303040403030303030304080804030303030303030303030408080808080808080208010108080808080808080808080808080808080808080808080808080808080808080808080808080208080801010808080808080808080808080808080808080808
310
08080808080808080808080808080808080808080208080808080808080808080808080808080808080808080808080808080808080808080808080808080808080802080808080808080808080404040403030404030303030304080403030303030303030304080808080808080808020801010808080808080808080808
310
08080808080808080808080808080808080808080808080808080802080808010108080808080808080808080808080808080808080808080808080808080808080808080808080808020808080808080808080808080808080808080808080808080808080808080808080808080808080808080808080200000000000000
310
00000000000000000000000403030303040403030303030303030303040808080808080808080208010108080808080808080808080808080808080808080808080808080808080808080808080808080208080801010808080808080808080808080808080808080808080808080808080808080808080808080808080802
310
08080808080808080808080808080808080808080808080808080808080808080808080808080808080808080802000000000000000000000000000000000000030404030303040404030303030404040408080808080808080808020808010108080808080808080808080808080808080808080808080808080808080808
310
08080808080802080808010108080808080808080808080808080808080808080808080808080808080808080808080808080808020808080808080808080808080808080808080808080808080808080808080808080808080808080808080808080200000000000000000000000000000000000003030404030304080804
310
04040408080808080808080808080808080208080101080808080808080808080808080808080808080808080808080808080808080808080808080208080801010808080808080808080808080808080808080808080808080808080808080808080808080808080802080808080808080808080808080808080808080808
310
08080808080808080808080808080808080808080808080802000000000000000000000000000000000000030303030404040808080808080808080808080808080808080808020808010108080808080808080808080808080808080808080808080808080808080808080808080808020808080801010808080808080808
310
08080808080808080808080808080808080808080808080808080808080808020808080808080808080808080808080808080808080808080808080808080808080808080808080808080808080208080808080808080808080804040303040403030303030404080808080808080808080808080808080808080802080801
310
01080808080808080808080808080808080808080808080808020202020202020202020202020202020202010102020202020202020202020202020202020202020202020202020202020202020202020202020202020202020202020202020202020202020202020202020202020202020202020202020202020202020202
310
02020202020202020202020202020202020202020202020202020202020202020202020202020202020202020202020202020202010102020202020202020202020202020202020202020202020208080808080808080808080808020808080801010808080808080808080808080808080808080808080808080808080808
310
08080808080808080808020808080808080808080808080808080808080808080808080808080808080808080808080808080808080808080208080808080808080808080403030303030303040808080808080808080808080808080808080808080808080802080801010808080808080808080808080808080808080808
310
08080808080808080808080808080808080208080808010108080808080808080808080808080808080808080808080808080808080808080808080808080802080808080808080808080808080808080808080808080808080808080808080808080808080808080808080808020808080808080808080808080403030303
310
03030408080404040808080808080808080808080808080808080808020808010108080808080808080808080808080808080808080808080808080808080808080808080808020808080801010808080808080808080808080808080808080808080808080808080808080808080808080808080208080808080808080808
310
08080808080808080808080808080808080808080808080808080808080808080808080208080808080808080808080808040303030303040804030303040408080808080808080808080808080808080802080801010808080808080808080808080808080808080808080808080808080808080808080808080802080808
310
08010108080808080808080808080808080808080808080808080808080808080808080808080808080802080808080808080808080808080808080808080808080808080808080808080808080808080808080808080808020808080808080808080808080404040303030304040303030304080808080808080808080808
310
08080808080808020808010108080808080808080808080808080808080808080808080808080808080808080808080808020808080801010808080808080808080808080808080808080808080808080808080808080808080808080808080208080808080808080808080808080808080808080808080808080808080808
310
08080808080808080808080808080208080808080808080808080403030404030404040404030303040808080808080808080808080808080808080802080808010108080808080808080808080808080808080808080808080808080808080808080808080802080808080101080808080808080808080808080808080808
310
08080808080808080808080808080808080808080802080808080808080808080808080808080808080808080808080808080808080808080808080808080808080808020808080808080808080808040303040804040304080804040404040808080808080808080808080808080808080208080801010808080808080808
310
08080808080808080808080808080808080808080808080808080808020808080801010808080808080808080808080808080808080808080808080808080808080808080808080808080208080808080808080808080808080808080808080808080808080808080808080808080808080808080808080802080808080808
310
08080808080403040408040303030408080808040408080808080808080808080808080808080802080808010108080808080808080808080808080808080808080808080808080808080808080808080802080808080101080808080808080808080808080808080808080808080808080808080808080808080808080808
310
02080808080808080808080808080808080808080808080808080808080808080808080808080808080808080808020808080808080808080808040404030404030303040804040404040808080808080808080808080808080808080208080801010808080808080808080808080808080808080808080808080808080808
310
08080808080808020808080801010808080808080808080808080808080808080808080808080808080808080808080808080808080208080808080808080808080808080808080808080808080808080808080808080808080808080808080808080802080808080808080808080808040303030404030404080403040408
310
08080808080808080808080808080808080802080808010108080808080808080808080808080808080808080808080808080808080808080808080802080808080101080808080808080808080808080808080808080808080808080808080808080808080808080808020808080808080808080808080808080808080808
310
08080808080808080808080808080808080808080808080808020808080808080808080808040303030303030404040804040808080808080808080808080808080808080808080208080801010808080808080808080808080808080808080808080808080808080808080808080808080208080808010108080808080808
310
08080808080808080808080808080808080808080808080808080808080808080208080808080808080808080808080808080808080808080808080808080808080808080808080808080808080802080808080808080803030804040404040404040403040304030308080808080808080808080808080808080808020808
310
08010108080808080808080808080808080808080808080808080000000000000000000000000000000000000000000000000000000000000000000000000000000000000000000000000000000000000000000000000000000000000000000000000000000000000000000000000000000000000000000000000000000000
310
00000000000000000000000000000000000000000000000000000000000000000000000000000000000000000000000000000000000000000000000000000000000000000000000000000000000506
  0
ENDSEC
  0
EOF
